  0
SECTION
  2
HEADER
  9
$ACADVER
  1
AC1009
  9
$INSBASE
 10
10.83144162977425
 20
10.98800208999992
 30
0.0
  9
$EXTMIN
 10
3.7414005465999969
 20
10.782670115852341
 30
0.0
  9
$EXTMAX
 10
17.9214825408
 20
13.02209552445
 30
0.0
  9
$LIMMIN
 10
0.0
 20
0.0
  9
$LIMMAX
 10
22.0
 20
17.0
  9
$ORTHOMODE
 70
     0
  9
$REGENMODE
 70
     1
  9
$FILLMODE
 70
     1
  9
$QTEXTMODE
 70
     0
  9
$MIRRTEXT
 70
     0
  9
$DRAGMODE
 70
     2
  9
$LTSCALE
 40
1.2099999999999991
  9
$OSMODE
 70
  3071
  9
$ATTMODE
 70
     1
  9
$TEXTSIZE
 40
0.2
  9
$TRACEWID
 40
0.05
  9
$TEXTSTYLE
  7
STANDARD
  9
$CLAYER
  8
0
  9
$CELTYPE
  6
BYLAYER
  9
$CECOLOR
 62
   256
  9
$DIMSCALE
 40
1.0
  9
$DIMASZ
 40
0.1875
  9
$DIMEXO
 40
0.0625
  9
$DIMDLI
 40
0.8359999999999999
  9
$DIMRND
 40
0.0
  9
$DIMDLE
 40
0.0
  9
$DIMEXE
 40
0.125
  9
$DIMTP
 40
0.01
  9
$DIMTM
 40
0.01
  9
$DIMTXT
 40
0.15625
  9
$DIMCEN
 40
0.198
  9
$DIMTSZ
 40
0.0
  9
$DIMTOL
 70
     1
  9
$DIMLIM
 70
     0
  9
$DIMTIH
 70
     1
  9
$DIMTOH
 70
     1
  9
$DIMSE1
 70
     0
  9
$DIMSE2
 70
     0
  9
$DIMTAD
 70
     0
  9
$DIMZIN
 70
     0
  9
$DIMBLK
  1

  9
$DIMASO
 70
     1
  9
$DIMSHO
 70
     1
  9
$DIMPOST
  1

  9
$DIMAPOST
  1

  9
$DIMALT
 70
     0
  9
$DIMALTD
 70
     2
  9
$DIMALTF
 40
25.399999999999999
  9
$DIMLFAC
 40
1.0
  9
$DIMTOFL
 70
     0
  9
$DIMTVP
 40
0.0
  9
$DIMTIX
 70
     0
  9
$DIMSOXD
 70
     0
  9
$DIMSAH
 70
     0
  9
$DIMBLK1
  1

  9
$DIMBLK2
  1

  9
$DIMSTYLE
  2
STANDARD
  9
$DIMCLRD
 70
     0
  9
$DIMCLRE
 70
     0
  9
$DIMCLRT
 70
     0
  9
$DIMTFAC
 40
1.0
  9
$DIMGAP
 40
0.09
  9
$LUNITS
 70
     2
  9
$LUPREC
 70
     4
  9
$SKETCHINC
 40
0.1
  9
$FILLETRAD
 40
0.0
  9
$AUNITS
 70
     0
  9
$AUPREC
 70
     0
  9
$MENU
  1
.
  9
$ELEVATION
 40
0.0
  9
$PELEVATION
 40
0.0
  9
$THICKNESS
 40
0.0
  9
$LIMCHECK
 70
     0
  9
$BLIPMODE
 70
     0
  9
$CHAMFERA
 40
0.0
  9
$CHAMFERB
 40
0.0
  9
$SKPOLY
 70
     0
  9
$TDCREATE
 40
2457972.4696710068
  9
$TDUPDATE
 40
2458013.5485478588
  9
$TDINDWG
 40
0.3052975231
  9
$TDUSRTIMER
 40
0.3052975231
  9
$USRTIMER
 70
     1
  9
$ANGBASE
 50
0.0
  9
$ANGDIR
 70
     0
  9
$PDMODE
 70
     0
  9
$PDSIZE
 40
0.3125
  9
$PLINEWID
 40
0.0
  9
$COORDS
 70
     1
  9
$SPLFRAME
 70
     0
  9
$SPLINETYPE
 70
     6
  9
$SPLINESEGS
 70
     8
  9
$ATTDIA
 70
     1
  9
$ATTREQ
 70
     1
  9
$HANDLING
 70
     1
  9
$HANDSEED
  5
148F
  9
$SURFTAB1
 70
     6
  9
$SURFTAB2
 70
     6
  9
$SURFTYPE
 70
     6
  9
$SURFU
 70
     6
  9
$SURFV
 70
     6
  9
$UCSNAME
  2

  9
$UCSORG
 10
0.0
 20
0.0
 30
0.0
  9
$UCSXDIR
 10
1.0
 20
0.0
 30
0.0
  9
$UCSYDIR
 10
0.0
 20
1.0
 30
0.0
  9
$PUCSNAME
  2

  9
$PUCSORG
 10
0.0
 20
0.0
 30
0.0
  9
$PUCSXDIR
 10
1.0
 20
0.0
 30
0.0
  9
$PUCSYDIR
 10
0.0
 20
1.0
 30
0.0
  9
$USERI1
 70
     0
  9
$USERI2
 70
     0
  9
$USERI3
 70
     0
  9
$USERI4
 70
     0
  9
$USERI5
 70
     0
  9
$USERR1
 40
0.0
  9
$USERR2
 40
0.0
  9
$USERR3
 40
0.0
  9
$USERR4
 40
0.0
  9
$USERR5
 40
0.0
  9
$WORLDVIEW
 70
     1
  9
$SHADEDGE
 70
     3
  9
$SHADEDIF
 70
    70
  9
$TILEMODE
 70
     1
  9
$MAXACTVP
 70
    64
  9
$PLIMCHECK
 70
     0
  9
$PEXTMIN
 10
1.0000000000000000E+020
 20
1.0000000000000000E+020
 30
1.0000000000000000E+020
  9
$PEXTMAX
 10
-1.0000000000000000E+020
 20
-1.0000000000000000E+020
 30
-1.0000000000000000E+020
  9
$PLIMMIN
 10
0.0
 20
0.0
  9
$PLIMMAX
 10
12.0
 20
9.0
  9
$UNITMODE
 70
     0
  9
$VISRETAIN
 70
     1
  9
$PLINEGEN
 70
     0
  9
$PSLTSCALE
 70
     1
  0
ENDSEC
  0
SECTION
  2
TABLES
  0
TABLE
  2
VPORT
 70
     1
  0
VPORT
  2
*ACTIVE
 70
     0
 10
0.0
 20
0.0
 11
1.0
 21
1.0
 12
-11.523758289493321
 22
-13.240378273560831
 13
0.0
 23
0.0
 14
1.0
 24
1.0
 15
0.0
 25
0.0
 16
-0.0000000000000249
 26
0.0
 36
108.0390691158137
 17
22.456923583863599
 27
23.103597484500131
 37
0.0
 40
15.95561334083887
 41
2.3109756097560972
 42
50.0
 43
0.0
 44
0.0
 50
0.0
 51
0.0
 71
     0
 72
   100
 73
     1
 74
     1
 75
     0
 76
     0
 77
     0
 78
     0
  0
ENDTAB
  0
TABLE
  2
LTYPE
 70
     2
  0
LTYPE
  2
CONTINUOUS
 70
     0
  3
Solid line
 72
    65
 73
     0
 40
0.0
  0
LTYPE
  2
PHANTOM2
 70
     0
  3
___ _ _ ___ _ _ ___ _ _ ___ _ _
 72
    65
 73
     6
 40
1.25
 49
0.625
 49
-0.125
 49
0.125
 49
-0.125
 49
0.125
 49
-0.125
  0
ENDTAB
  0
TABLE
  2
LAYER
 70
     2
  0
LAYER
  2
0
 70
     0
 62
     7
  6
CONTINUOUS
  0
LAYER
  2
DEFPOINTS
 70
     0
 62
     7
  6
CONTINUOUS
  0
ENDTAB
  0
TABLE
  2
STYLE
 70
     1
  0
STYLE
  2
STANDARD
 70
     0
 40
0.0
 41
0.8
 50
0.0
 71
     0
 42
0.2
  3
txt
  4

  0
ENDTAB
  0
TABLE
  2
VIEW
 70
     0
  0
ENDTAB
  0
TABLE
  2
UCS
 70
     0
  0
ENDTAB
  0
TABLE
  2
APPID
 70
     5
  0
APPID
  2
ACAD
 70
     0
  0
APPID
  2
ACAD_NAV_VCDISPLAY
 70
     0
  0
APPID
  2
ACAD_EXEMPT_FROM_CAD_STANDARDS
 70
     0
  0
APPID
  2
ACAD_MLEADERVER
 70
     0
  0
APPID
  2
ACDBATTR
 70
     0
  0
ENDTAB
  0
TABLE
  2
DIMSTYLE
 70
     2
  0
DIMSTYLE
  2
STANDARD
 70
     0
  3

  4

  5

  6

  7

 40
1.0
 41
0.1875
 42
0.0625
 43
0.38
 44
0.125
 45
0.0
 46
0.0
 47
0.01
 48
0.01
140
0.15625
141
0.09
142
0.0
143
25.399999999999999
144
1.0
145
0.0
146
1.0
147
0.09
 71
     1
 72
     0
 73
     1
 74
     1
 75
     0
 76
     0
 77
     0
 78
     4
170
     0
171
     2
172
     0
173
     0
174
     0
175
     0
176
     0
177
     0
178
     0
  0
ENDTAB
  0
ENDSEC
  0
SECTION
  2
BLOCKS
  0
BLOCK
  8
0
  2
$MODEL_SPACE
 70
     0
 10
0.0
 20
0.0
 30
0.0
  3
$MODEL_SPACE
  1

  0
ENDBLK
  5
21
  8
0
  0
BLOCK
 67
     1
  8
0
  2
$PAPER_SPACE
 70
     0
 10
0.0
 20
0.0
 30
0.0
  3
$PAPER_SPACE
  1

  0
ENDBLK
  5
1D
 67
     1
  8
0
  0
ENDSEC
  0
SECTION
  2
ENTITIES
  0
LINE
  5
387
  8
0
 10
17.727173626900001
 20
11.973002595400001
 30
0.0
 11
13.7912001025
 21
11.973002107399999
 31
0.0
  0
LINE
  5
FCE
  8
0
 10
6.5464738032499907
 20
13.02209552445
 30
0.0
 11
15.11640928415
 21
13.02209552445
 31
0.0
  0
ARC
  5
FCF
  8
0
 10
15.69354972628499
 20
15.31714007587925
 30
0.0
 40
2.36649964779056
 50
255.8843823695905
 51
261.28109544947768
  0
ARC
  5
FD1
  8
0
 10
16.611527857931179
 20
12.61261934651078
 30
0.0
 40
0.237308637710749
 50
71.127675963722297
 51
90.39353158733492
  0
LINE
  5
FD2
  8
0
 10
16.688287801601621
 20
12.83717067823661
 30
0.0
 11
17.487252021191338
 21
12.54696365464949
 31
0.0
  0
ARC
  5
FD3
  8
0
 10
17.42372553499742
 20
12.36668250433601
 30
0.0
 40
0.1911462989610216
 50
14.970747388056081
 51
70.588840306766613
  0
LINE
  5
FD4
  8
0
 10
17.608383916000001
 20
12.4160605352
 30
0.0
 11
17.6642545875
 21
12.2080034545
 31
0.0
  0
LINE
  5
FD5
  8
0
 10
17.6642545875
 20
12.2080034545
 30
0.0
 11
17.664255351800001
 21
12.193005187800001
 31
0.0
  0
ARC
  5
FD6
  8
0
 10
17.604248885304031
 20
12.1930090379541
 30
0.0
 40
0.0600064666194855
 50
270.00267465684078
 51
359.99632376986568
  0
LINE
  5
FD7
  8
0
 10
17.6042516865
 20
12.1330025714
 30
0.0
 11
4.0538709244220259
 21
12.1330025714
 31
0.0
  0
LINE
  5
FD8
  8
0
 10
17.727173626900001
 20
11.973002595400001
 30
0.0
 11
17.9214825408
 21
11.248002426399999
 31
0.0
  0
LINE
  5
FD9
  8
0
 10
17.9214825408
 20
11.248002426399999
 30
0.0
 11
17.921482539238131
 21
11.22349993999995
 31
0.0
  0
ARC
  5
FDA
  8
0
 10
17.871339171685289
 20
11.22349994319625
 30
0.0
 40
0.0501433675528454
 50
270.35925487820521
 51
359.99999634778919
  0
LINE
  5
FDB
  8
0
 10
17.87165357758948
 20
11.17335756133752
 30
0.0
 11
12.38424823265
 21
11.181825702499999
 31
0.0
  0
ARC
  5
FDC
  8
0
 10
12.383001528003719
 20
11.23337550545973
 30
0.0
 40
0.0515648762013695
 50
180.788932439029
 51
271.38539798293681
  0
LINE
  5
FDD
  8
0
 10
12.33144154003068
 20
11.23266550695036
 30
0.0
 11
12.3314415437
 21
11.25777683160654
 31
0.0
  0
LINE
  5
FDE
  8
0
 10
12.3314415437
 20
11.25777683160654
 30
0.0
 11
12.4832174099
 21
11.8260562051
 31
0.0
  0
ARC
  5
FDF
  8
0
 10
12.572626735576961
 20
11.804208971111541
 30
0.0
 40
0.0920398237229746
 50
122.3838173743089
 51
166.2687985013248
  0
ARC
  5
FE0
  8
0
 10
12.79670192547961
 20
11.45090244170602
 30
0.0
 40
0.5104119002893773
 50
89.113828439707646
 51
122.3838173743091
  0
ARC
  5
FE1
  8
0
 10
13.56101455342837
 20
-10.12802724127962
 30
0.0
 40
22.102228024753511
 50
89.403277403594984
 51
91.961252867761388
  0
LINE
  5
FE3
  8
0
 10
8.3036818122642853
 20
11.97327939563449
 30
0.0
 11
13.301650702849029
 21
11.97267894769117
 31
0.0
  0
ARC
  5
FE9
  8
0
 10
12.49328310294357
 20
11.464664489174771
 30
0.0
 40
0.3122813160952471
 50
244.69438393602641
 51
264.60689767024809
  0
ARC
  5
FEA
  8
0
 10
12.38116713432038
 20
11.22754148322884
 30
0.0
 40
0.0499889022340153
 50
174.11666433707791
 51
244.6943839360267
  0
ARC
  5
FEB
  8
0
 10
9.6593548741014725
 20
-59.316758611988199
 30
0.0
 40
70.526310199842541
 50
86.505256689210754
 51
87.720952235259304
  0
ARC
  5
FEC
  8
0
 10
13.73449654614689
 20
10.915093258302029
 30
0.0
 40
0.2771516620638011
 50
28.610838949378451
 51
72.635852318758651
  0
ARC
  5
FED
  8
0
 10
14.06973554912201
 20
11.08837395279622
 30
0.0
 40
0.1004815174839803
 50
203.80970760431541
 51
273.242529666824
  0
LINE
  5
FEE
  8
0
 10
14.075419046496879
 20
10.98805330081731
 30
0.0
 11
15.300336741100001
 21
10.98800209
 31
0.0
  0
ARC
  5
FEF
  8
0
 10
15.300336913248501
 20
11.087999902510861
 30
0.0
 40
0.0999978125110084
 50
269.99990136401738
 51
339.1553841731232
  0
ARC
  5
FF0
  8
0
 10
15.57956163362239
 20
10.97919400765503
 30
0.0
 40
0.1996818130847337
 50
97.989668376372705
 51
158.48779815023639
  0
ARC
  5
FF1
  8
0
 10
9.5403259657612498
 20
-24.534409283579599
 30
0.0
 40
37.960775807007593
 50
79.954586097412886
 51
81.103142053869888
  0
ARC
  5
FF2
  8
0
 10
15.282985968830809
 20
12.150612440029629
 30
0.0
 40
0.8289974659082197
 50
81.103142053869846
 51
86.415229375252423
  0
LINE
  5
FF3
  8
0
 10
16.4854771613
 20
12.1330025714
 30
0.0
 11
16.487029143797319
 21
12.08855960667656
 31
0.0
  0
ARC
  5
FF4
  8
0
 10
16.55698650168992
 20
12.09100257139964
 30
0.0
 40
0.0699999999996481
 50
181.99999996225699
 51
270.0000000082498
  0
LINE
  5
FF5
  8
0
 10
16.556986501699999
 20
12.0210025714
 30
0.0
 11
17.0003466798
 21
12.021002571463841
 31
0.0
  0
ARC
  5
FF6
  8
0
 10
17.000346679789899
 20
12.09111960264285
 30
0.0
 40
0.0701170311790111
 50
270.00000000825088
 51
351.95633672647722
  0
ARC
  5
FF7
  8
0
 10
17.13019188836266
 20
12.072770132506241
 30
0.0
 40
0.0610183234878296
 50
99.205642625645027
 51
171.95633672648
  0
ARC
  5
FF8
  8
0
 10
16.415055082448749
 20
13.423522136767099
 30
0.0
 40
1.450519704049561
 50
242.83489702929961
 51
270.00000710379283
  0
LINE
  5
FF9
  8
0
 10
14.851820353600001
 20
12.1330025714
 30
0.0
 11
14.856407082200001
 21
12.0279492143
 31
0.0
  0
ARC
  5
FFA
  8
0
 10
14.92331421811692
 20
12.03087044292444
 30
0.0
 40
0.0669708773518842
 50
182.49999998547159
 51
239.7778249158192
  0
ARC
  5
FFB
  8
0
 10
15.730692449833681
 20
12.073002571519121
 30
0.0
 40
0.059999999880882
 50
90.000380097767064
 51
177.50001658939851
  0
LINE
  5
FFC
  8
0
 10
15.670749555900001
 20
12.0756197174
 30
0.0
 11
15.668668224543641
 21
12.02794907525263
 31
0.0
  0
ARC
  5
FFD
  8
0
 10
15.59950718924051
 20
12.03096869120346
 30
0.0
 40
0.0692269231202093
 50
303.13988995523408
 51
357.50001658939999
  0
LINE
  5
FFE
  8
0
 10
14.273316639320861
 20
12.1330025714
 30
0.0
 11
14.27425432479699
 21
12.060133140420289
 31
0.0
  0
ARC
  5
FFF
  8
0
 10
14.248152582918401
 20
12.05979726261897
 30
0.0
 40
0.0261039028306831
 50
304.28162382376809
 51
0.7372426883647425
  0
ARC
  5
1000
  8
0
 10
14.190467117917169
 20
12.14441927938271
 30
0.0
 40
0.1285172739966113
 50
278.39873872828809
 51
304.28162382376848
  0
ARC
  5
1001
  8
0
 10
14.152949071157851
 20
12.39852970187521
 30
0.0
 40
0.3853824344445653
 50
268.81560400223719
 51
278.39873872828821
  0
ARC
  5
1002
  8
0
 10
11.860888465702651
 20
163.43612052104339
 30
0.0
 40
151.44011681892869
 50
269.61051655684997
 51
270.86419603436008
  0
ARC
  5
100F
  8
0
 10
15.075510485853821
 20
10.556951046556019
 30
0.0
 40
0.4343394928144633
 50
62.927315197818523
 51
82.952773019414224
  0
ARC
  5
1010
  8
0
 10
15.262224561086571
 20
10.92225168216101
 30
0.0
 40
0.0240874967639549
 50
19.12234983327652
 51
62.927315197818082
  0
ARC
  5
1011
  8
0
 10
15.27140584704645
 20
10.930643110618361
 30
0.0
 40
0.0135863206148387
 50
296.19138456731588
 51
357.88802758770902
  0
ARC
  5
1012
  8
0
 10
15.15377818170346
 20
11.12957303945476
 30
0.0
 40
0.2446531250188785
 50
280.0109809540204
 51
300.3515535306596
  0
ARC
  5
1013
  8
0
 10
14.00091184831801
 20
19.871196824034101
 30
0.0
 40
9.0617443685557024
 50
270.71479728660739
 51
277.58036938626128
  0
ARC
  5
1014
  8
0
 10
11.289790451667001
 20
155.8791892300128
 30
0.0
 40
145.09651911416049
 50
269.81900667394967
 51
271.11527951127488
  0
LINE
  5
1022
  8
0
 10
3.935709460499996
 20
11.973002595400001
 30
0.0
 11
7.871682984899997
 21
11.973002107399999
 31
0.0
  0
ARC
  5
1023
  8
0
 10
5.969333361115007
 20
15.31714007587925
 30
0.0
 40
2.36649964779056
 50
278.7189045505225
 51
284.11561763040942
  0
ARC
  5
1024
  8
0
 10
5.0513552294688111
 20
12.61261934651078
 30
0.0
 40
0.237308637710749
 50
89.606468412665109
 51
108.8723240362776
  0
LINE
  5
1025
  8
0
 10
4.9745952857983724
 20
12.83717067823661
 30
0.0
 11
4.1756310662086547
 21
12.54696365464949
 31
0.0
  0
ARC
  5
1026
  8
0
 10
4.2391575524025731
 20
12.36668250433601
 30
0.0
 40
0.1911462989610216
 50
109.4111596932334
 51
165.02925261194389
  0
LINE
  5
1027
  8
0
 10
4.0544991713999989
 20
12.4160605352
 30
0.0
 11
3.998628499899997
 21
12.2080034545
 31
0.0
  0
LINE
  5
1028
  8
0
 10
3.998628499899997
 20
12.2080034545
 30
0.0
 11
3.9986277355999951
 21
12.193005187800001
 31
0.0
  0
ARC
  5
1029
  8
0
 10
4.0590075362323761
 20
12.193163693960329
 30
0.0
 40
0.0603800086834127
 50
180.1504097903057
 51
265.11986939769503
  0
LINE
  5
102A
  8
0
 10
3.935709460499996
 20
11.973002595400001
 30
0.0
 11
3.7414005465999969
 21
11.248002426399999
 31
0.0
  0
LINE
  5
102B
  8
0
 10
3.7414005465999969
 20
11.248002426399999
 30
0.0
 11
3.7414005481618631
 21
11.22349993999995
 31
0.0
  0
ARC
  5
102C
  8
0
 10
3.7915439157147079
 20
11.22349994319625
 30
0.0
 40
0.0501433675528454
 50
180.00000365221081
 51
269.64074512179491
  0
LINE
  5
102D
  8
0
 10
3.7912295098105129
 20
11.17335756133752
 30
0.0
 11
9.2786348547499991
 21
11.181825702499999
 31
0.0
  0
ARC
  5
102E
  8
0
 10
9.2798815593962782
 20
11.23337550545973
 30
0.0
 40
0.0515648762013695
 50
268.61460201706331
 51
359.21106756097112
  0
LINE
  5
102F
  8
0
 10
9.3314415473693124
 20
11.23266550695036
 30
0.0
 11
9.3314415436999987
 21
11.25777683160654
 31
0.0
  0
LINE
  5
1030
  8
0
 10
9.3314415436999987
 20
11.25777683160654
 30
0.0
 11
9.1796656774999974
 21
11.8260562051
 31
0.0
  0
ARC
  5
1031
  8
0
 10
9.0902563518230313
 20
11.804208971111541
 30
0.0
 40
0.0920398237229746
 50
13.731201498675221
 51
57.616182625690954
  0
ARC
  5
1032
  8
0
 10
8.8661811619203821
 20
11.45090244170602
 30
0.0
 40
0.5104119002893773
 50
57.616182625690911
 51
90.886171560292325
  0
ARC
  5
1033
  8
0
 10
8.1018685339716274
 20
-10.12802724127962
 30
0.0
 40
22.102228024753511
 50
88.038747132238655
 51
90.596722596404959
  0
ARC
  5
1035
  8
0
 10
9.1695999844564273
 20
11.464664489174771
 30
0.0
 40
0.3122813160952471
 50
275.3931023297518
 51
295.3056160639735
  0
ARC
  5
1036
  8
0
 10
9.2817159530796172
 20
11.22754148322884
 30
0.0
 40
0.0499889022340153
 50
295.30561606397328
 51
5.8833356629221214
  0
ARC
  5
1037
  8
0
 10
12.003528213298519
 20
-59.316758611988199
 30
0.0
 40
70.526310199842541
 50
92.279047764740625
 51
93.494743310789204
  0
ARC
  5
1038
  8
0
 10
7.9283865412531016
 20
10.915093258302029
 30
0.0
 40
0.2771516620638011
 50
107.36414768124121
 51
151.38916105062151
  0
ARC
  5
1039
  8
0
 10
7.5931475382779894
 20
11.08837395279622
 30
0.0
 40
0.1004815174839803
 50
266.757470333176
 51
336.19029239568448
  0
LINE
  5
103A
  8
0
 10
7.58746404090311
 20
10.98805330081731
 30
0.0
 11
6.3625463462999976
 21
10.98800209
 31
0.0
  0
ARC
  5
103B
  8
0
 10
6.3625461741515004
 20
11.087999902510861
 30
0.0
 40
0.0999978125110084
 50
200.8446158268768
 51
270.00009863598262
  0
ARC
  5
103C
  8
0
 10
6.0833214537776099
 20
10.97919400765503
 30
0.0
 40
0.1996818130847337
 50
21.51220184976362
 51
82.010331623627351
  0
ARC
  5
103D
  8
0
 10
12.122557121638749
 20
-24.534409283579599
 30
0.0
 40
37.960775807007593
 50
98.896857946130027
 51
100.0454139025871
  0
ARC
  5
103E
  8
0
 10
6.3798971185691888
 20
12.150612440029629
 30
0.0
 40
0.8289974659082197
 50
93.584770624747605
 51
98.896857946130226
  0
LINE
  5
103F
  8
0
 10
5.1774059260999934
 20
12.1330025714
 30
0.0
 11
5.1758539436026707
 21
12.08855960667656
 31
0.0
  0
ARC
  5
1040
  8
0
 10
5.1058965857100773
 20
12.09100257139964
 30
0.0
 40
0.0699999999996481
 50
269.99999999175031
 51
358.00000003774301
  0
LINE
  5
1041
  8
0
 10
5.1058965856999983
 20
12.0210025714
 30
0.0
 11
4.6625364075999967
 21
12.021002571463841
 31
0.0
  0
ARC
  5
1042
  8
0
 10
4.6625364076100944
 20
12.09111960264285
 30
0.0
 40
0.0701170311790111
 50
188.04366327352281
 51
269.99999999174912
  0
ARC
  5
1043
  8
0
 10
4.5326911990373304
 20
12.072770132506241
 30
0.0
 40
0.0610183234878296
 50
8.043663273519968
 51
80.794357374355073
  0
ARC
  5
1044
  8
0
 10
5.2478280049512476
 20
13.423522136767099
 30
0.0
 40
1.450519704049561
 50
269.99999289620717
 51
297.16510297070039
  0
LINE
  5
1045
  8
0
 10
6.8110627337999983
 20
12.1330025714
 30
0.0
 11
6.806476005199996
 21
12.0279492143
 31
0.0
  0
ARC
  5
1046
  8
0
 10
6.7395688692830786
 20
12.03087044292444
 30
0.0
 40
0.0669708773518842
 50
300.22217508418089
 51
357.50000001452838
  0
ARC
  5
1047
  8
0
 10
5.93219063756632
 20
12.073002571519121
 30
0.0
 40
0.059999999880882
 50
2.499983410601502
 51
89.999619902232922
  0
LINE
  5
1048
  8
0
 10
5.9921335314999977
 20
12.0756197174
 30
0.0
 11
5.9942148628563539
 21
12.02794907525263
 31
0.0
  0
ARC
  5
1049
  8
0
 10
6.0633758981594852
 20
12.03096869120346
 30
0.0
 40
0.0692269231202093
 50
182.49998341060001
 51
236.86011004476589
  0
LINE
  5
104A
  8
0
 10
7.3895664480791341
 20
12.1330025714
 30
0.0
 11
7.3886287626030054
 21
12.060133140420289
 31
0.0
  0
ARC
  5
104B
  8
0
 10
7.4147305044815912
 20
12.05979726261897
 30
0.0
 40
0.0261039028306831
 50
179.2627573116352
 51
235.718376176232
  0
ARC
  5
104C
  8
0
 10
7.4724159694828201
 20
12.14441927938271
 30
0.0
 40
0.1285172739966113
 50
235.71837617623149
 51
261.60126127171179
  0
ARC
  5
104D
  8
0
 10
7.5099340162421413
 20
12.39852970187521
 30
0.0
 40
0.3853824344445653
 50
261.60126127171179
 51
271.18439599776292
  0
ARC
  5
104E
  8
0
 10
9.8019946216973448
 20
163.43612052104339
 30
0.0
 40
151.44011681892869
 50
269.13580396563998
 51
270.38948344315003
  0
ARC
  5
104F
  8
0
 10
6.5873726015461713
 20
10.556951046556019
 30
0.0
 40
0.4343394928144633
 50
97.047226980585833
 51
117.0726848021815
  0
ARC
  5
1050
  8
0
 10
6.4006585263134301
 20
10.92225168216101
 30
0.0
 40
0.0240874967639549
 50
117.072684802182
 51
160.8776501667235
  0
ARC
  5
1051
  8
0
 10
6.3914772403535434
 20
10.930643110618361
 30
0.0
 40
0.0135863206148387
 50
182.11197241229101
 51
243.80861543268409
  0
ARC
  5
1052
  8
0
 10
6.5091049056965309
 20
11.12957303945476
 30
0.0
 40
0.2446531250188785
 50
239.64844646934051
 51
259.9890190459796
  0
ARC
  5
1053
  8
0
 10
7.6619712390819874
 20
19.871196824034101
 30
0.0
 40
9.0617443685557024
 50
262.4196306137386
 51
269.28520271339249
  0
ARC
  5
1054
  8
0
 10
10.37309263573299
 20
155.8791892300128
 30
0.0
 40
145.09651911416049
 50
268.88472048872518
 51
270.18099332605033
  0
ARC
  5
1056
  8
0
 10
10.83144154369999
 20
465.24506120251812
 30
0.0
 40
452.43204150728349
 50
269.26819912208379
 51
270.73180087791621
  0
ARC
  5
1063
  8
0
 10
5.4287002000026163
 20
9.3815158102841831
 30
0.0
 40
1.8106464901946731
 50
58.228550026356857
 51
82.399361050341525
  0
ARC
  5
1064
  8
0
 10
16.209763687748492
 20
9.4109392383742403
 30
0.0
 40
1.7733769525406939
 50
95.489185080219357
 51
121.5370057883934
  0
ARC
  5
1095
  8
0
 10
32.80336846801557
 20
-323.09527747800593
 30
0.0
 40
334.43128306908142
 50
93.110087810517271
 51
93.218548381794946
  0
ARC
  5
1096
  8
0
 10
14.46070666177307
 20
13.944517873799651
 30
0.0
 40
3.1074135240227241
 50
273.65733883022273
 51
280.81133499522838
  0
ARC
  5
1097
  8
0
 10
15.011245339008291
 20
11.024722906980641
 30
0.0
 40
0.1363522953764478
 50
283.71858895344769
 51
301.34221861815712
  0
ARC
  5
1098
  8
0
 10
15.07348750901264
 20
10.91968765462434
 30
0.0
 40
0.0143450251930116
 50
307.2415987544419
 51
63.778126258055799
  0
ARC
  5
1099
  8
0
 10
14.950171505815261
 20
10.742933108379219
 30
0.0
 40
0.2297112297092432
 50
55.637758631514728
 51
77.394904122257273
  0
ARC
  5
109A
  8
0
 10
14.853241120604549
 20
10.467996583519049
 30
0.0
 40
0.5203254957234931
 50
73.582687613171217
 51
88.047674880740843
  0
ARC
  5
109B
  8
0
 10
-11.14048538061556
 20
-323.09527747800593
 30
0.0
 40
334.43128306908142
 50
86.78145161820504
 51
86.889912189482644
  0
ARC
  5
109C
  8
0
 10
7.2021764256269227
 20
13.944517873799651
 30
0.0
 40
3.1074135240227241
 50
259.18866500477162
 51
266.34266116977727
  0
ARC
  5
109D
  8
0
 10
6.651637748391706
 20
11.024722906980641
 30
0.0
 40
0.1363522953764478
 50
238.65778138184299
 51
256.28141104655242
  0
ARC
  5
109E
  8
0
 10
6.5893955783873599
 20
10.91968765462434
 30
0.0
 40
0.0143450251930116
 50
116.22187374194419
 51
232.75840124555819
  0
ARC
  5
109F
  8
0
 10
6.7127115815847356
 20
10.742933108379219
 30
0.0
 40
0.2297112297092432
 50
102.6050958777428
 51
124.3622413684852
  0
ARC
  5
10A0
  8
0
 10
6.8096419667954411
 20
10.467996583519049
 30
0.0
 40
0.5203254957234931
 50
91.952325119259214
 51
106.4173123868288
  0
ATTDEF
  5
114E
  8
DEFPOINTS
 10
10.82882468995715
 20
10.98376653305751
 30
0.0
 40
0.001
  1
K-4650
  3

  2
MODELNUMBER
 70
     0
1001
ACDBATTR
1070
     0
1070
     1
  0
ATTDEF
  5
114F
  8
DEFPOINTS
 10
10.82882468995715
 20
10.98209986639085
 30
0.0
 40
0.001
  1
LUSTRA
  3

  2
TRADENAME
 70
     0
1001
ACDBATTR
1070
     0
1070
     1
  0
ATTDEF
  5
1150
  8
DEFPOINTS
 10
10.82882468995715
 20
10.98043319972418
 30
0.0
 40
0.001
  1
TOILET SEAT
  3

  2
PRODUCT
 70
     0
1001
ACDBATTR
1070
     0
1070
     1
  0
ATTDEF
  5
1151
  8
DEFPOINTS
 10
10.82882468995715
 20
10.97876653305752
 30
0.0
 40
0.001
  1
PLASTIC
  3

  2
MATERIAL
 70
     0
1001
ACDBATTR
1070
     0
1070
     1
  0
ENDSEC
  0
EOF
