  0
SECTION
  2
HEADER
  9
$ACADVER
  1
AC1009
  9
$INSBASE
 10
35.5253210627817424
 20
23.7851283265807787
 30
0.0
  9
$EXTMIN
 10
29.037105303780379
 20
7.1009182697057014
 30
-0.0000000000000058
  9
$EXTMAX
 10
35.5364141590670002
 20
44.6490552599174677
 30
0.0000000000000104
  9
$LIMMIN
 10
0.0
 20
0.0
  9
$LIMMAX
 10
11.6929133858000007
 20
8.2677165353999982
  9
$ORTHOMODE
 70
     0
  9
$REGENMODE
 70
     1
  9
$FILLMODE
 70
     1
  9
$QTEXTMODE
 70
     0
  9
$MIRRTEXT
 70
     0
  9
$DRAGMODE
 70
     2
  9
$LTSCALE
 40
0.6431102362
  9
$OSMODE
 70
   575
  9
$ATTMODE
 70
     1
  9
$TEXTSIZE
 40
0.2
  9
$TRACEWID
 40
0.05
  9
$TEXTSTYLE
  7
STANDARD
  9
$CLAYER
  8
0
  9
$CELTYPE
  6
BYLAYER
  9
$CECOLOR
 62
   256
  9
$DIMSCALE
 40
1.0
  9
$DIMASZ
 40
0.1875
  9
$DIMEXO
 40
0.0625
  9
$DIMDLI
 40
0.4443307087
  9
$DIMRND
 40
0.0
  9
$DIMDLE
 40
0.0
  9
$DIMEXE
 40
0.125
  9
$DIMTP
 40
0.0
  9
$DIMTM
 40
0.0
  9
$DIMTXT
 40
1.0
  9
$DIMCEN
 40
0.1052362205
  9
$DIMTSZ
 40
0.0
  9
$DIMTOL
 70
     0
  9
$DIMLIM
 70
     0
  9
$DIMTIH
 70
     1
  9
$DIMTOH
 70
     1
  9
$DIMSE1
 70
     0
  9
$DIMSE2
 70
     0
  9
$DIMTAD
 70
     0
  9
$DIMZIN
 70
     0
  9
$DIMBLK
  1

  9
$DIMASO
 70
     1
  9
$DIMSHO
 70
     1
  9
$DIMPOST
  1
\X
  9
$DIMAPOST
  1

  9
$DIMALT
 70
     1
  9
$DIMALTD
 70
     2
  9
$DIMALTF
 40
25.3999999999999986
  9
$DIMLFAC
 40
1.0
  9
$DIMTOFL
 70
     0
  9
$DIMTVP
 40
0.0
  9
$DIMTIX
 70
     0
  9
$DIMSOXD
 70
     0
  9
$DIMSAH
 70
     0
  9
$DIMBLK1
  1

  9
$DIMBLK2
  1

  9
$DIMSTYLE
  2
STANDARD
  9
$DIMCLRD
 70
     0
  9
$DIMCLRE
 70
     0
  9
$DIMCLRT
 70
     0
  9
$DIMTFAC
 40
1.0
  9
$DIMGAP
 40
0.09
  9
$LUNITS
 70
     2
  9
$LUPREC
 70
     4
  9
$SKETCHINC
 40
0.1
  9
$FILLETRAD
 40
0.0
  9
$AUNITS
 70
     0
  9
$AUPREC
 70
     0
  9
$MENU
  1
.
  9
$ELEVATION
 40
0.0
  9
$PELEVATION
 40
0.0
  9
$THICKNESS
 40
0.0
  9
$LIMCHECK
 70
     0
  9
$BLIPMODE
 70
     0
  9
$CHAMFERA
 40
0.0
  9
$CHAMFERB
 40
0.0
  9
$SKPOLY
 70
     0
  9
$TDCREATE
 40
2457863.4491435191594064
  9
$TDUPDATE
 40
2459579.741215277928859
  9
$TDINDWG
 40
0.0976833796
  9
$TDUSRTIMER
 40
0.0976833796
  9
$USRTIMER
 70
     1
  9
$ANGBASE
 50
0.0
  9
$ANGDIR
 70
     0
  9
$PDMODE
 70
     0
  9
$PDSIZE
 40
0.3125
  9
$PLINEWID
 40
0.0
  9
$COORDS
 70
     1
  9
$SPLFRAME
 70
     0
  9
$SPLINETYPE
 70
     6
  9
$SPLINESEGS
 70
     8
  9
$ATTDIA
 70
     1
  9
$ATTREQ
 70
     1
  9
$HANDLING
 70
     1
  9
$HANDSEED
  5
2684
  9
$SURFTAB1
 70
     6
  9
$SURFTAB2
 70
     6
  9
$SURFTYPE
 70
     6
  9
$SURFU
 70
     6
  9
$SURFV
 70
     6
  9
$UCSNAME
  2

  9
$UCSORG
 10
0.0
 20
0.0
 30
0.0
  9
$UCSXDIR
 10
1.0
 20
0.0
 30
0.0
  9
$UCSYDIR
 10
0.0
 20
1.0
 30
0.0
  9
$PUCSNAME
  2

  9
$PUCSORG
 10
0.0
 20
0.0
 30
0.0
  9
$PUCSXDIR
 10
1.0
 20
0.0
 30
0.0
  9
$PUCSYDIR
 10
0.0
 20
1.0
 30
0.0
  9
$USERI1
 70
     0
  9
$USERI2
 70
     0
  9
$USERI3
 70
     0
  9
$USERI4
 70
     0
  9
$USERI5
 70
     0
  9
$USERR1
 40
0.0
  9
$USERR2
 40
0.0
  9
$USERR3
 40
0.0
  9
$USERR4
 40
0.0
  9
$USERR5
 40
0.0
  9
$WORLDVIEW
 70
     1
  9
$SHADEDGE
 70
     3
  9
$SHADEDIF
 70
    70
  9
$TILEMODE
 70
     1
  9
$MAXACTVP
 70
    48
  9
$PLIMCHECK
 70
     0
  9
$PEXTMIN
 10
1.0000000000000000E+20
 20
1.0000000000000000E+20
 30
1.0000000000000000E+20
  9
$PEXTMAX
 10
-1.0000000000000000E+20
 20
-1.0000000000000000E+20
 30
-1.0000000000000000E+20
  9
$PLIMMIN
 10
0.0
 20
0.0
  9
$PLIMMAX
 10
12.0
 20
9.0
  9
$UNITMODE
 70
     0
  9
$VISRETAIN
 70
     1
  9
$PLINEGEN
 70
     0
  9
$PSLTSCALE
 70
     1
  0
ENDSEC
  0
SECTION
  2
TABLES
  0
TABLE
  2
VPORT
 70
     1
  0
VPORT
  2
*ACTIVE
 70
     0
 10
0.0
 20
0.0
 11
1.0
 21
1.0
 12
32.2867592026363468
 22
25.8749867103114397
 13
0.0
 23
0.0
 14
1.0
 24
1.0
 15
0.0
 25
0.0
 16
0.0
 26
0.0
 36
1.0
 17
0.0
 27
0.0
 37
0.0
 40
54.9674688247563665
 41
2.469551282051281
 42
50.0
 43
0.0
 44
0.0
 50
0.0
 51
0.0
 71
     0
 72
   100
 73
     1
 74
     1
 75
     0
 76
     0
 77
     0
 78
     0
  0
ENDTAB
  0
TABLE
  2
LTYPE
 70
     2
  0
LTYPE
  2
CONTINUOUS
 70
     0
  3
Solid line
 72
    65
 73
     0
 40
0.0
  0
LTYPE
  2
PHANTOM2
 70
     0
  3
___ _ _ ___ _ _ ___ _ _ ___ _ _
 72
    65
 73
     6
 40
1.25
 49
0.625
 49
-0.125
 49
0.125
 49
-0.125
 49
0.125
 49
-0.125
  0
ENDTAB
  0
TABLE
  2
LAYER
 70
     2
  0
LAYER
  2
0
 70
     0
 62
     7
  6
CONTINUOUS
  0
LAYER
  2
DEFPOINTS
 70
     0
 62
     7
  6
CONTINUOUS
  0
ENDTAB
  0
TABLE
  2
STYLE
 70
     1
  0
STYLE
  2
STANDARD
 70
     0
 40
0.0
 41
0.8
 50
0.0
 71
     0
 42
0.2
  3
txt
  4

  0
ENDTAB
  0
TABLE
  2
VIEW
 70
     0
  0
ENDTAB
  0
TABLE
  2
UCS
 70
     0
  0
ENDTAB
  0
TABLE
  2
APPID
 70
     8
  0
APPID
  2
ACAD
 70
     0
  0
APPID
  2
ACAD_MLEADERVER
 70
     0
  0
APPID
  2
ACAD_NAV_VCDISPLAY
 70
     0
  0
APPID
  2
ACAD_EXEMPT_FROM_CAD_STANDARDS
 70
     0
  0
APPID
  2
ACAD_DSTYLE_DIMJAG
 70
     0
  0
APPID
  2
ACAD_DSTYLE_DIMTALN
 70
     0
  0
APPID
  2
ACAD_DSTYLE_DIMRADIAL_EXTENSION
 70
     0
  0
APPID
  2
ACDBATTR
 70
     0
  0
ENDTAB
  0
TABLE
  2
DIMSTYLE
 70
     1
  0
DIMSTYLE
  2
STANDARD
 70
     0
  3

  4

  5

  6

  7

 40
1.0
 41
0.1875
 42
0.0625
 43
0.38
 44
0.125
 45
0.0
 46
0.0
 47
1.5
 48
1.5
140
0.15625
141
0.09
142
0.0
143
25.3999999999999986
144
1.0
145
0.0
146
1.0
147
0.09
 71
     0
 72
     0
 73
     1
 74
     1
 75
     0
 76
     0
 77
     0
 78
     4
170
     0
171
     2
172
     0
173
     0
174
     0
175
     0
176
     0
177
     0
178
     0
  0
ENDTAB
  0
ENDSEC
  0
SECTION
  2
BLOCKS
  0
BLOCK
  8
0
  2
$MODEL_SPACE
 70
     0
 10
0.0
 20
0.0
 30
0.0
  3
$MODEL_SPACE
  1

  0
ENDBLK
  5
21
  8
0
  0
BLOCK
 67
     1
  8
0
  2
$PAPER_SPACE
 70
     0
 10
0.0
 20
0.0
 30
0.0
  3
$PAPER_SPACE
  1

  0
ENDBLK
  5
1D
 67
     1
  8
0
  0
ENDSEC
  0
SECTION
  2
ENTITIES
  0
ATTDEF
  5
122E
  8
DEFPOINTS
 10
35.5252902137556319
 20
23.78855659931126
 30
0.0
 40
0.001
  1
K-45905
  3

  2
MODELNUMBER
 70
     0
1001
ACDBATTR
1070
     0
1070
     1
  0
ATTDEF
  5
122F
  8
DEFPOINTS
 10
35.5252902137556319
 20
23.7868899326445984
 30
0.0
 40
0.001
  1
HYDRORAIL-S
  3

  2
TRADENAME
 70
     0
1001
ACDBATTR
1070
     0
1070
     1
  0
ATTDEF
  5
1230
  8
DEFPOINTS
 10
35.5252902137556319
 20
23.7852232659779297
 30
0.0
 40
0.001
  1
SHOWER COLUMN
  3

  2
PRODUCT
 70
     0
1001
ACDBATTR
1070
     0
1070
     1
  0
LINE
  5
24B2
  8
0
 10
29.8987541165817383
 20
44.6359827365807718
 30
0.0
 11
29.2524666527817487
 21
43.9896952727807786
 31
0.0
  0
LINE
  5
24B3
  8
0
 10
29.3069098078817412
 20
43.7188693084807767
 30
0.0
 11
29.2753004637100993
 21
43.6857579954715121
 31
0.0
  0
LINE
  5
24B4
  8
0
 10
35.0109745959747301
 20
37.8910718873642978
 30
0.0
 11
35.0233125577817432
 21
37.8981952129807809
 31
0.0
  0
LINE
  5
24B5
  8
0
 10
35.0378771778817395
 20
9.6660456969809356
 30
0.0
 11
34.9991851780817527
 21
9.6653703255807812
 31
0.0
  0
LINE
  5
24B6
  8
0
 10
32.475321066581742
 20
9.2851283265807805
 30
0.0
 11
33.5753210589817499
 21
9.2851283265807805
 31
0.0
  0
LINE
  5
24B7
  8
0
 10
32.0363210627817381
 20
9.7951283265807803
 30
0.0
 11
31.1713210627817396
 21
9.7951283265807803
 31
0.0
  0
LINE
  5
24B8
  8
0
 10
31.1513210627817294
 20
9.7951283265807803
 30
0.0
 11
31.1213210627817496
 21
9.7951283265807803
 31
0.0
  0
LINE
  5
24B9
  8
0
 10
32.0553210627817435
 20
9.7951283265807803
 30
0.0
 11
32.3353211162817473
 21
9.7951283265807803
 31
0.0
  0
LINE
  5
24BA
  8
0
 10
33.7153209946817469
 20
9.7966283265807803
 30
0.0
 11
34.0103210627817418
 21
9.7966283265807803
 31
0.0
  0
LINE
  5
24BB
  8
0
 10
32.0453210627817384
 20
9.9001283265807807
 30
0.0
 11
32.0363210627817381
 21
9.9001283265807807
 31
0.0
  0
LINE
  5
24BC
  8
0
 10
35.2011307474817414
 20
8.79078708958078
 30
0.0
 11
35.5253210627817424
 21
8.7851283265807805
 31
0.0
  0
LINE
  5
24BD
  8
0
 10
34.0496229665817509
 20
9.726442309280781
 30
0.0
 11
34.8403377084817407
 21
9.7126403321807793
 31
0.0
  0
LINE
  5
24BE
  8
0
 10
29.0371485707817385
 20
43.4321375086807819
 30
0.0
 11
29.0371485707817385
 21
43.3522344424807784
 31
0.0
  0
LINE
  5
24BF
  8
0
 10
34.0496229665817509
 20
10.8438143438807799
 30
0.0
 11
34.8403377084817407
 21
10.8576163209807799
 31
0.0
  0
LINE
  5
24C0
  8
0
 10
35.2011307474817414
 20
11.7794695635807791
 30
0.0
 11
35.5253210627817424
 21
11.7851283265807805
 31
0.0
  0
LINE
  5
24C1
  8
0
 10
33.7153209949817381
 20
10.7736283265807806
 30
0.0
 11
34.0103210627817418
 21
10.7736283265807806
 31
0.0
  0
LINE
  5
24C2
  8
0
 10
32.0363210627817381
 20
10.7751283265807807
 30
0.0
 11
31.7463210627817496
 21
10.7751283265807807
 31
0.0
  0
LINE
  5
24C3
  8
0
 10
31.3263210627817514
 20
10.7751283265807807
 30
0.0
 11
31.1713210627817396
 21
10.7751283265807807
 31
0.0
  0
LINE
  5
24C4
  8
0
 10
31.1513210627817294
 20
10.7751283265807807
 30
0.0
 11
31.1213210627817496
 21
10.7751283265807807
 31
0.0
  0
LINE
  5
24C5
  8
0
 10
32.0553210627817435
 20
10.7751283265807807
 30
0.0
 11
32.3353211138817471
 21
10.7751283265807807
 31
0.0
  0
LINE
  5
24C6
  8
0
 10
33.5753210589817499
 20
11.2851283265807805
 30
0.0
 11
32.475321066581742
 21
11.2851283265807805
 31
0.0
  0
LINE
  5
24C7
  8
0
 10
31.6263196505817383
 20
11.6851283265807808
 30
0.0
 11
31.4463224750817396
 21
11.6851283265807808
 31
0.0
  0
LINE
  5
24C8
  8
0
 10
32.0441814435817491
 20
10.6964748036807809
 30
0.0
 11
32.0553210627817435
 21
10.6962803608807793
 31
0.0
  0
LINE
  5
24C9
  8
0
 10
35.0378771778817395
 20
10.90421095618062
 30
0.0
 11
34.9991851780817527
 21
10.9048863275807797
 31
0.0
  0
LINE
  5
24CA
  8
0
 10
34.9609746071817398
 20
9.6791847592807798
 30
0.0
 11
34.973312557781739
 21
9.6720614401807801
 31
0.0
  0
LINE
  5
24CB
  8
0
 10
32.4410726150817368
 20
13.3751283265807803
 30
0.0
 11
32.7803210627817379
 21
13.3751283265807803
 31
0.0
  0
LINE
  5
24CC
  8
0
 10
33.2703210627817469
 20
13.3751283265807803
 30
0.0
 11
33.6095695105817427
 21
13.3751283265807803
 31
0.0
  0
LINE
  5
24CD
  8
0
 10
32.4060779457817318
 20
13.4095174923807807
 30
0.0
 11
32.3803317249817511
 21
14.8857391614807799
 31
0.0
  0
LINE
  5
24CE
  8
0
 10
32.6864563356817399
 20
14.0107391607807799
 30
0.0
 11
32.6709213279817519
 21
14.9007391608807804
 31
0.0
  0
LINE
  5
24CF
  8
0
 10
32.4207894212817394
 20
14.8857391607807799
 30
0.0
 11
32.4362298373087512
 21
13.9407391607807796
 31
0.0
  0
LINE
  5
24D0
  8
0
 10
31.0913210627817413
 20
9.8251295334807782
 30
0.0
 11
31.0913210627817413
 21
10.7451271196807792
 31
0.0
  0
LINE
  5
24D1
  8
0
 10
31.1713210627817396
 20
10.7751283265807807
 30
0.0
 11
31.1713210627817396
 21
9.7951283265807803
 31
0.0
  0
LINE
  5
24D2
  8
0
 10
31.3863210627817502
 20
11.6251283265807803
 30
0.0
 11
31.3863210627817502
 21
10.8351281300807791
 31
0.0
  0
LINE
  5
24D3
  8
0
 10
31.6863210627817402
 20
11.6251283265807803
 30
0.0
 11
31.6863210627817402
 21
10.8351281234807804
 31
0.0
  0
LINE
  5
24D4
  8
0
 10
32.0363210627817381
 20
9.7951283265807803
 30
0.0
 11
32.0363210627817381
 21
10.7751283265807807
 31
0.0
  0
LINE
  5
24D5
  8
0
 10
32.0553210627817435
 20
10.7751283265807807
 30
0.0
 11
32.0553210627817435
 21
9.7951283265807803
 31
0.0
  0
LINE
  5
24D6
  8
0
 10
32.425321062781741
 20
9.3351283265807794
 30
0.0
 11
32.425321062781741
 21
9.7051283265807804
 31
0.0
  0
LINE
  5
24D7
  8
0
 10
32.425321062781741
 20
10.8651283265807805
 30
0.0
 11
32.425321062781741
 21
11.2351283265807798
 31
0.0
  0
LINE
  5
24D8
  8
0
 10
32.425321062781741
 20
36.6851283265807808
 30
0.0
 11
32.425321062781741
 21
37.8851283265807766
 31
0.0
  0
LINE
  5
24D9
  8
0
 10
32.533321062781738
 20
38.5849537334807806
 30
0.0
 11
32.533321062781738
 21
37.9351283265807808
 31
0.0
  0
LINE
  5
24DA
  8
0
 10
32.533321062781738
 20
36.6351283265807766
 30
0.0
 11
32.533321062781738
 21
15.1351283265807801
 31
0.0
  0
LINE
  5
24DB
  8
0
 10
32.533321062781738
 20
13.3751283265807803
 30
0.0
 11
32.533321062781738
 21
11.2851283265807805
 31
0.0
  0
LINE
  5
24DC
  8
0
 10
32.4207894212817394
 20
14.8857391607807799
 30
0.0
 11
32.4221600495817484
 21
14.9695174923807794
 31
0.0
  0
LINE
  5
24DD
  8
0
 10
32.3840845638817427
 20
15.1007391607807797
 30
0.0
 11
32.3803317249817511
 21
14.8857391614807799
 31
0.0
  0
LINE
  5
24DE
  8
0
 10
33.614412324781739
 20
13.9407391607807796
 30
0.0
 11
33.2703210627817469
 21
13.9407391607807796
 31
0.0
  0
LINE
  5
24DF
  8
0
 10
32.7803210627817521
 20
13.9407391607807796
 30
0.0
 11
32.4362298388817365
 21
13.9407391607807796
 31
0.0
  0
LINE
  5
24E0
  8
0
 10
32.5496222248817375
 20
13.97512832658078
 30
0.0
 11
32.6514616664817368
 21
13.97512832658078
 31
0.0
  0
LINE
  5
24E1
  8
0
 10
32.6359266586817398
 20
14.9351283265807808
 30
0.0
 11
32.5361348169817433
 21
14.9351283265807808
 31
0.0
  0
LINE
  5
24E2
  8
0
 10
32.4221600495817484
 20
14.9695174923807794
 30
0.0
 11
33.6284820760817382
 21
14.9695174923807794
 31
0.0
  0
LINE
  5
24E3
  8
0
 10
33.6315615147817368
 20
15.1351283265807801
 30
0.0
 11
32.4190792332817423
 21
15.1351283265807801
 31
0.0
  0
LINE
  5
24E4
  8
0
 10
32.5361348169817433
 20
14.9351283265807808
 30
0.0
 11
32.5161428014817488
 21
14.9366722798807796
 31
0.0
  0
LINE
  5
24E5
  8
0
 10
33.6665575615758286
 20
15.1007391686195707
 30
0.0
 11
33.6703104006817426
 21
14.8857391614807799
 31
0.0
  0
LINE
  5
24E6
  8
0
 10
33.6298527042817526
 20
14.8845174914807803
 30
0.0
 11
33.6284820760817382
 21
14.9695174923807794
 31
0.0
  0
LINE
  5
24E7
  8
0
 10
33.5173210627817468
 20
38.5849537334807806
 30
0.0
 11
33.5173210627817468
 21
37.9351283265807808
 31
0.0
  0
LINE
  5
24E8
  8
0
 10
33.5173210627817468
 20
36.6351283265807766
 30
0.0
 11
33.5173210627817468
 21
15.1351283265807801
 31
0.0
  0
LINE
  5
24E9
  8
0
 10
33.5173210627817468
 20
13.3751283265807803
 30
0.0
 11
33.5173210627817468
 21
11.2851283265807805
 31
0.0
  0
LINE
  5
24EA
  8
0
 10
33.6253210627817367
 20
9.3351283265807794
 30
0.0
 11
33.6253210627817367
 21
9.7066283265807805
 31
0.0
  0
LINE
  5
24EB
  8
0
 10
33.6253210627817367
 20
10.8636283265807805
 30
0.0
 11
33.6253210627817367
 21
11.2351283265807798
 31
0.0
  0
LINE
  5
24EC
  8
0
 10
33.6253210627817367
 20
36.6851283265807808
 30
0.0
 11
33.6253210627817367
 21
36.7066283265807769
 31
0.0
  0
LINE
  5
24ED
  8
0
 10
33.6253210627817367
 20
37.8636283265807805
 30
0.0
 11
33.6253210627817367
 21
37.8851283265807766
 31
0.0
  0
LINE
  5
24EE
  8
0
 10
34.0103210627817418
 20
9.7664372739807792
 30
0.0
 11
34.0103210627817418
 21
10.8038193791807799
 31
0.0
  0
LINE
  5
24EF
  8
0
 10
34.060321062781739
 20
36.7664372739807774
 30
0.0
 11
34.060321062781739
 21
37.8038193791807799
 31
0.0
  0
LINE
  5
24F0
  8
0
 10
33.614412324781739
 20
13.9407391607807796
 30
0.0
 11
33.6298527042817526
 21
14.8845174914807803
 31
0.0
  0
LINE
  5
24F1
  8
0
 10
33.6445641798817405
 20
13.4095174923807807
 30
0.0
 11
33.6703104006817426
 21
14.8857391614807799
 31
0.0
  0
LINE
  5
24F2
  8
0
 10
35.044442228902831
 20
36.5338762397659877
 30
0.0
 11
35.0558807222817421
 21
36.3971250698807793
 31
0.0
  0
LINE
  5
24F3
  8
0
 10
35.0558807222817421
 20
36.3971250698807793
 30
0.0
 11
35.0864038088817409
 21
36.0330415151807912
 31
0.0
  0
LINE
  5
24F4
  8
0
 10
35.0378771778817395
 20
36.6470966334807784
 30
0.0
 11
35.0378773404817423
 21
37.9226283261807779
 31
0.0
  0
LINE
  5
24F5
  8
0
 10
35.0378771778817395
 20
10.9231600196807808
 30
0.0
 11
35.0378771778817395
 21
9.6470966334807802
 31
0.0
  0
LINE
  5
24F6
  8
0
 10
35.1035648332817516
 20
11.6912020649807804
 30
0.0
 11
35.1035648332817516
 21
8.8790545881807805
 31
0.0
  0
LINE
  5
24F7
  8
0
 10
35.5253210627817424
 20
8.7851283265807805
 30
0.0
 11
35.5253210627817424
 21
11.7851283265807805
 31
0.0
  0
LINE
  5
24F8
  8
0
 10
35.5253210627817424
 20
35.785128326580768
 30
0.0
 11
35.5253210627817424
 21
38.7851283265807822
 31
0.0
  0
LINE
  5
24F9
  8
0
 10
35.0444422288817421
 20
11.0363804133807797
 30
0.0
 11
35.0864038088817409
 21
11.5372151378807803
 31
0.0
  0
LINE
  5
24FA
  8
0
 10
34.9609745959747329
 20
10.8910718873642995
 30
0.0
 11
34.973312557781739
 21
10.8981952129807809
 31
0.0
  0
LINE
  5
24FB
  8
0
 10
29.0371485707817385
 20
43.3522344424807784
 30
0.0
 11
29.5342446379817503
 21
42.8551383752807666
 31
0.0
  0
LINE
  5
24FC
  8
0
 10
29.9008795040817397
 20
43.1248996122807782
 30
0.0
 11
29.3069098078817412
 21
43.7188693084807767
 31
0.0
  0
LINE
  5
24FD
  8
0
 10
29.2984245264817389
 20
43.8942317902807702
 30
0.0
 11
29.4766036494427901
 21
43.7160526673197225
 31
0.0
  0
LINE
  5
24FE
  8
0
 10
29.8994652904393483
 20
43.2960194533231615
 30
0.0
 11
31.0665118229817416
 21
42.1261444936807834
 31
0.0
  0
LINE
  5
24FF
  8
0
 10
29.2984245264817389
 20
43.8942317902807702
 30
0.0
 11
29.2524625856817408
 21
43.9401937309807735
 31
0.0
  0
LINE
  5
2500
  8
0
 10
29.4780296489241991
 20
43.7174550949383232
 30
0.0
 11
29.8994652904817393
 21
43.2960194533807865
 31
0.0
  0
LINE
  5
2501
  8
0
 10
35.0109746071817369
 20
36.6791847592807798
 30
0.0
 11
35.0233125577817432
 21
36.6720614401807765
 31
0.0
  0
LINE
  5
2502
  8
0
 10
29.9942175991817415
 20
44.5900248628807816
 30
0.0
 11
31.7623048956817406
 21
42.8219375663807824
 31
0.0
  0
LINE
  5
2503
  8
0
 10
29.9942175991817415
 20
44.5900248628807816
 30
0.0
 11
29.9482556583817399
 21
44.6359868036807796
 31
0.0
  0
LINE
  5
2504
  8
0
 10
32.475321066581742
 20
36.6351283265807766
 30
0.0
 11
33.5753210589817499
 21
36.6351283265807766
 31
0.0
  0
LINE
  5
2505
  8
0
 10
34.060321062781739
 20
36.7966283265807803
 30
0.0
 11
33.7153210077817391
 21
36.7966283265807803
 31
0.0
  0
LINE
  5
2506
  8
0
 10
35.2011307474817414
 20
35.7907870895807818
 30
0.0
 11
35.5253210627817424
 21
35.785128326580768
 31
0.0
  0
LINE
  5
2507
  8
0
 10
34.099622966581741
 20
36.7264423092807775
 30
0.0
 11
34.8903377084817379
 21
36.7126403321807828
 31
0.0
  0
LINE
  5
2508
  8
0
 10
34.099622966581741
 20
37.8438143438807799
 30
0.0
 11
34.8903377084817379
 21
37.8576163209807817
 31
0.0
  0
LINE
  5
2509
  8
0
 10
35.2011307474817414
 20
38.7794695635807827
 30
0.0
 11
35.5253210627817424
 21
38.7851283265807822
 31
0.0
  0
LINE
  5
250A
  8
0
 10
34.060321062781739
 20
37.7736283265807771
 30
0.0
 11
33.7153210045817389
 21
37.7736283265807771
 31
0.0
  0
LINE
  5
250B
  8
0
 10
33.5753104154817379
 20
37.9351283265807808
 30
0.0
 11
32.4753235823817477
 21
37.9351283265807808
 31
0.0
  0
LINE
  5
250C
  8
0
 10
29.5968744684817402
 20
42.8551383752807666
 30
0.0
 11
29.5342446379817503
 21
42.8551383752807666
 31
0.0
  0
ARC
  5
250D
  8
0
 10
31.6263210627533695
 20
11.6251283265690297
 30
0.0
 40
0.0600000000283672
 50
0.0000000112184525
 51
90.0013485245798677
  0
ARC
  5
250E
  8
0
 10
31.4463210628101208
 20
11.6251283265690297
 30
0.0
 40
0.0600000000283711
 50
89.9986513799423875
 51
179.9999999887797912
  0
ARC
  5
250F
  8
0
 10
32.4753210627817523
 20
11.2351283265807798
 30
0.0
 40
0.05
 50
89.9999956484002865
 51
180.0
  0
ARC
  5
2510
  8
0
 10
32.4753210627817523
 20
9.3351283265807794
 30
0.0
 40
0.05
 50
180.0
 51
270.0000043500999141
  0
ARC
  5
2511
  8
0
 10
31.1213210627989092
 20
10.7451283265393407
 30
0.0
 40
0.0300000000414382
 50
90.0000000327791554
 51
180.0023049300621949
  0
ARC
  5
2512
  8
0
 10
31.1213210627989092
 20
9.8251283266222202
 30
0.0
 40
0.0300000000414359
 50
179.9976950699378051
 51
269.999999967227609
  0
ARC
  5
2513
  8
0
 10
31.1513210627817294
 20
9.8151283265807798
 30
0.0
 40
0.02
 50
270.0
 51
0.0
  0
ARC
  5
2514
  8
0
 10
31.1513210627817294
 20
10.7551283265807793
 30
0.0
 40
0.02
 50
0.0000199123000241
 51
90.0
  0
ARC
  5
2515
  8
0
 10
32.0453210627817384
 20
9.9101283265807805
 30
0.0
 40
0.01
 50
270.0
 51
0.0
  0
ARC
  5
2516
  8
0
 10
32.0443210627817265
 20
10.7044735851807804
 30
0.0
 40
0.008
 50
180.0
 51
268.9999999999997726
  0
ARC
  5
2517
  8
0
 10
32.4190792332817423
 20
15.10012832658078
 30
0.0
 40
0.035
 50
90.0
 51
178.9999998040001117
  0
ARC
  5
2518
  8
0
 10
32.4410726150817368
 20
13.4101283265807805
 30
0.0
 40
0.035
 50
181.0000004759000092
 51
270.0
  0
ARC
  5
2519
  8
0
 10
32.635926658581738
 20
14.9001283265807807
 30
0.0
 40
0.035
 50
1.0000000822999919
 51
90.0
  0
ARC
  5
251A
  8
0
 10
32.6514616664817368
 20
14.0101283265807801
 30
0.0
 40
0.035
 50
269.9999998016000973
 51
0.999999916199971
  0
ARC
  5
251B
  8
0
 10
35.6603210627817475
 20
11.2851283265807805
 30
0.0
 40
0.625
 50
162.0797868605999952
 51
193.6360464616369086
  0
ARC
  5
251C
  8
0
 10
34.8359746071817398
 20
11.1075782447807807
 30
0.0
 40
0.25
 50
271.0000000000001137
 51
299.99999703419968
  0
ARC
  5
251D
  8
0
 10
34.8359746072577892
 20
9.4626784089533942
 30
0.0
 40
0.249999999426143
 50
59.9999999441933625
 51
89.000000015136095
  0
ARC
  5
251E
  8
0
 10
35.2028759885817379
 20
11.6794847940807802
 30
0.0
 40
0.1
 50
91.0000002195999542
 51
173.2710405173999959
  0
ARC
  5
251F
  8
0
 10
35.2028759885817379
 20
8.8907718590807772
 30
0.0
 40
0.1
 50
186.7289594825998051
 51
268.9999997804001168
  0
ARC
  5
2520
  8
0
 10
34.9983125577817376
 20
10.8548939427807802
 30
0.0
 40
0.05
 50
89.0000001481000851
 51
119.999998785399697
  0
ARC
  5
2521
  8
0
 10
34.9983125577817376
 20
9.7153627103807807
 30
0.0
 40
0.05
 50
240.0000012146001893
 51
270.9999998518998723
  0
ARC
  5
2522
  8
0
 10
33.5753210627817396
 20
11.2351283265807798
 30
0.0
 40
0.05
 50
0.0
 51
90.0000043515996992
  0
ARC
  5
2523
  8
0
 10
33.5753210627817396
 20
9.3351283265807794
 30
0.0
 40
0.05
 50
269.9999956499000859
 51
0.0
  0
ARC
  5
2524
  8
0
 10
35.103701803381739
 20
11.4651283265807802
 30
0.0
 40
0.04
 50
120.7601490651669991
 51
162.0797868605999952
  0
ARC
  5
2525
  8
0
 10
34.0503210627894219
 20
10.8038204360592704
 30
0.0
 40
0.0400000000216407
 50
91.0000001515676615
 51
180.0015138669234034
  0
ARC
  5
2526
  8
0
 10
34.050321062790367
 20
9.7664362171032284
 30
0.0
 40
0.0400000000225946
 50
179.9984861344200056
 51
268.9999998470871105
  0
ARC
  5
2527
  8
0
 10
33.6315628923348129
 20
15.1001283265606201
 30
0.0
 40
0.0350000000472761
 50
1.000012824462188
 51
90.0022550850519281
  0
ARC
  5
2528
  8
0
 10
33.6095695105817427
 20
13.4101283265807805
 30
0.0
 40
0.035
 50
270.0
 51
358.9999995241000192
  0
ARC
  5
2529
  8
0
 10
27.5253210627817388
 20
38.5849537334807806
 30
0.0
 40
5.992
 50
0.0
 51
44.9999999999996021
  0
ARC
  5
252A
  8
0
 10
27.5253210627817388
 20
38.5849537334807806
 30
0.0
 40
5.008
 50
0.0
 51
44.9999999999996021
  0
ARC
  5
252B
  8
0
 10
35.6603210627817475
 20
36.2851283265807822
 30
0.0
 40
0.625
 50
166.3680211526225037
 51
197.9202131393998911
  0
ARC
  5
252C
  8
0
 10
34.8859746071817369
 20
38.1075782447807825
 30
0.0
 40
0.25
 50
271.0000000000001137
 51
299.99999703419968
  0
ARC
  5
252D
  8
0
 10
34.8859746072706969
 20
36.4626784089999632
 30
0.0
 40
0.2499999993793655
 50
59.9999999414204979
 51
89.0000000179083344
  0
ARC
  5
252E
  8
0
 10
29.3931653760927816
 20
43.8023355733677278
 30
0.0
 40
0.120027665234261
 50
224.0584539464140903
 51
314.9945299494702908
  0
ARC
  5
252F
  8
0
 10
29.9843457687532293
 20
43.2111551805396417
 30
0.0
 40
0.120027665118792
 50
135.0054700277046891
 51
225.9415461433736141
  0
ARC
  5
2530
  8
0
 10
35.2028759885817379
 20
35.8907718590807789
 30
0.0
 40
0.1
 50
186.7289594825998051
 51
268.9999997804001168
  0
ARC
  5
2531
  8
0
 10
35.202875988632961
 20
38.6794847939511968
 30
0.0
 40
0.1000000001304558
 50
91.0000002476490693
 51
173.2692354609914105
  0
ARC
  5
2532
  8
0
 10
35.0483125577817418
 20
37.8548939427807767
 30
0.0
 40
0.05
 50
102.0464372302576948
 51
119.999998785399697
  0
ARC
  5
2533
  8
0
 10
35.0483125577817418
 20
36.7153627103807807
 30
0.0
 40
0.05
 50
240.0000012146001893
 51
257.9533779544697722
  0
ARC
  5
2534
  8
0
 10
33.5753210627817396
 20
36.6851283265807808
 30
0.0
 40
0.05
 50
269.9999956618000283
 51
0.0
  0
ARC
  5
2535
  8
0
 10
32.4753210627817523
 20
36.6851283265807808
 30
0.0
 40
0.05
 50
180.0
 51
270.0000043381999717
  0
ARC
  5
2536
  8
0
 10
33.5753210608471875
 20
37.8851283257794691
 30
0.0
 40
0.0500000019345564
 50
0.0000009182388588
 51
90.0121986898489723
  0
ARC
  5
2537
  8
0
 10
32.4753210628901101
 20
37.8851283265358987
 30
0.0
 40
0.0500000001083605
 50
89.9971128752538192
 51
179.9999999485656019
  0
ARC
  5
2538
  8
0
 10
35.103701803381739
 20
36.1051283265807825
 30
0.0
 40
0.04
 50
197.9202131393998911
 51
239.2364034360134042
  0
ARC
  5
2539
  8
0
 10
34.1003210627902433
 20
37.8038204360584729
 30
0.0
 40
0.0400000000224594
 50
91.0000001527128148
 51
180.0015138657757916
  0
ARC
  5
253A
  8
0
 10
34.1003210627896607
 20
36.7664362171025374
 30
0.0
 40
0.0400000000218877
 50
179.9984861334199877
 51
268.9999998481025045
  0
ARC
  5
253B
  8
0
 10
29.9235069207391717
 20
44.6112380655537493
 30
0.0
 40
0.0350000008270315
 50
45.0000005607931897
 51
135.0094145012452884
  0
ARC
  5
253C
  8
0
 10
29.2772113239087304
 20
43.9649424687233221
 30
0.0
 40
0.0350000008269801
 50
134.99058573017399
 51
224.9999994392437941
  0
ARC
  5
253D
  8
0
 10
47.0209033214817325
 20
10.2851283265807805
 30
0.0
 40
12.0
 50
173.2710345836999863
 51
174.0108248207000088
  0
ARC
  5
253E
  8
0
 10
47.0209033214817325
 20
10.2851283265807805
 30
0.0
 40
12.0
 50
176.4106882970999948
 51
176.952185898200014
  0
ARC
  5
253F
  8
0
 10
47.0209033064696769
 20
10.2851283255393398
 30
0.0
 40
11.9999999849537993
 50
183.0478141006454962
 51
186.7289654198094127
  0
ARC
  5
2540
  8
0
 10
47.0209033214817325
 20
37.2851283265807822
 30
0.0
 40
12.0
 50
185.9891751792997923
 51
186.7289654162999
  0
ARC
  5
2541
  8
0
 10
47.0209033214817325
 20
37.2851283265807822
 30
0.0
 40
12.0
 50
183.047814101799986
 51
183.5893117028998063
  0
ARC
  5
2542
  8
0
 10
46.993617762935699
 20
37.2879040731425704
 30
0.0
 40
11.9725771631046296
 50
173.2689114592872954
 51
176.9610487949294111
  0
ARC
  5
2543
  8
0
 10
33.7153206076816474
 20
36.7066287816805996
 30
0.0
 40
0.0899995449010701
 50
89.9997452870826464
 51
180.0002897270105109
  0
ARC
  5
2544
  8
0
 10
33.715320264815702
 20
37.8636275286152326
 30
0.0
 40
0.0899992020374993
 50
179.999491994848114
 51
270.0004709538637826
  0
ARC
  5
2545
  8
0
 10
31.3263221078211487
 20
10.8351272815382806
 30
0.0
 40
0.0599989549665993
 50
269.9990020434966027
 51
0.0008103125134899
  0
ARC
  5
2546
  8
0
 10
31.7463201317453816
 20
10.8351273955416101
 30
0.0
 40
0.0599990689680537
 50
179.9993048585091913
 51
270.0008890880340005
  0
ARC
  5
2547
  8
0
 10
32.335321486538632
 20
10.8651279028241099
 30
0.0
 40
0.0899995762441061
 50
269.9997627581439019
 51
0.0002697731419756
  0
ARC
  5
2548
  8
0
 10
33.7166807236107786
 20
10.8649879863855201
 30
0.0
 40
0.0913697778348118
 50
180.8526412742259879
 51
269.1473155629386724
  0
ARC
  5
2549
  8
0
 10
33.7166806518559312
 20
9.7052687385353575
 30
0.0
 40
0.0913697050201032
 50
90.8526403040224153
 51
179.1474030497876129
  0
ARC
  5
254A
  8
0
 10
32.3339613971294426
 20
9.7037686617367598
 30
0.0
 40
0.0913697827325088
 50
0.8526443888773048
 51
89.1473215519427669
  0
ARC
  5
254B
  8
0
 10
32.5655510061784028
 20
15.2289310638135191
 30
0.0
 40
0.2964057480501851
 50
241.0683590095966906
 51
260.4045111014380041
  0
ARC
  5
254C
  8
0
 10
32.6426117942341421
 20
14.9032426003018692
 30
0.0
 40
0.0325789898609727
 50
101.841075990651504
 51
185.485363814392997
  0
LINE
  5
254D
  8
0
 10
32.6101819949817369
 20
14.9001283265807807
 30
0.0
 11
32.6261217145223981
 21
14.0027039316562405
 31
0.0
  0
ARC
  5
254E
  8
0
 10
32.6581230018780175
 20
14.0066801817813609
 30
0.0
 40
0.0322473713265857
 50
187.0828607109883137
 51
258.0785864086936954
  0
ARC
  5
254F
  8
0
 10
32.5999664406656393
 20
13.6291574090969299
 30
0.0
 40
0.3519841796815856
 50
107.1126038680957038
 51
117.7219824913770054
  0
ARC
  5
2550
  8
0
 10
32.5510681149330097
 20
13.8142738644916196
 30
0.0
 40
0.1608609603727127
 50
90.515006953473204
 51
109.8694864775406046
  0
LINE
  5
2551
  8
0
 10
33.495320205381752
 20
8.5701283265807806
 30
0.0
 11
32.5553210627817435
 21
8.5701283265807788
 31
0.0
  0
LINE
  5
2552
  8
0
 10
32.570321062781737
 20
8.5781283265807797
 30
0.0
 11
33.4803210627817407
 21
8.5781283265807797
 31
0.0
  0
LINE
  5
2553
  8
0
 10
33.4953208006817604
 20
9.1883645470807789
 30
0.0
 11
32.5553210627817435
 21
9.1883645470807789
 31
0.0
  0
LINE
  5
2554
  8
0
 10
32.475321066581742
 20
9.2851283265807805
 30
0.0
 11
33.5753210589817499
 21
9.2851283265807805
 31
0.0
  0
LINE
  5
2555
  8
0
 10
32.5253210627817424
 20
9.0383645470807803
 30
0.0
 11
32.5253210627817424
 21
9.1583645470807813
 31
0.0
  0
LINE
  5
2556
  8
0
 10
32.6678210627817407
 20
9.2551283265807793
 30
0.0
 11
32.6678210627817407
 21
9.1883645470807789
 31
0.0
  0
LINE
  5
2557
  8
0
 10
33.3403210627817614
 20
8.5781283265807797
 30
0.0
 11
33.3403210627817614
 21
8.5701283265807806
 31
0.0
  0
LINE
  5
2558
  8
0
 10
33.3828210627817512
 20
9.2551283265807793
 30
0.0
 11
33.3828210627817512
 21
9.1883645470807789
 31
0.0
  0
LINE
  5
2559
  8
0
 10
33.4803210627817407
 20
8.9933645470807786
 30
0.0
 11
33.4803210627817407
 21
8.5781283265807797
 31
0.0
  0
LINE
  5
255A
  8
0
 10
33.5253210627817424
 20
7.6671636809807788
 30
0.0
 11
33.5253210627817424
 21
8.5401283265807795
 31
0.0
  0
LINE
  5
255B
  8
0
 10
33.5253210627817424
 20
9.0383645470807803
 30
0.0
 11
33.5253210627817424
 21
9.1583645470807813
 31
0.0
  0
LINE
  5
255C
  8
0
 10
33.4803210627817407
 20
8.9933645470807786
 30
0.0
 11
33.5253210627817424
 21
9.0383645470807803
 31
0.0
  0
ARC
  5
255D
  8
0
 10
32.5553210627817435
 20
9.1583645470807813
 30
0.0
 40
0.03
 50
90.0
 51
180.0
  0
ARC
  5
255E
  8
0
 10
32.6378210627817396
 20
9.2551283265807793
 30
0.0
 40
0.03
 50
0.0
 51
90.0
  0
ARC
  5
255F
  8
0
 10
33.4953210627798015
 20
9.1583645470799748
 30
0.0
 40
0.030000000001948
 50
0.0000000015402027
 51
90.0005005703855545
  0
ARC
  5
2560
  8
0
 10
33.4953210627619811
 20
8.540128326573269
 30
0.0
 40
0.030000000019772
 50
0.0000000143438436
 51
90.0016374756111475
  0
ARC
  5
2561
  8
0
 10
33.4128210627817523
 20
9.2551283265807793
 30
0.0
 40
0.03
 50
90.0
 51
180.0
  0
ARC
  5
2562
  8
0
 10
33.2359765251061674
 20
7.6709172043918707
 30
0.0
 40
0.2893688829516642
 50
322.1958587007507049
 51
359.2567719135395237
  0
ARC
  5
2563
  8
0
 10
33.1276195370953985
 20
7.7549800448706288
 30
0.0
 40
0.4265104083920769
 50
299.1422353085343957
 51
322.1958587007516144
  0
LINE
  5
2564
  8
0
 10
32.7103210627817305
 20
8.5781283265807797
 30
0.0
 11
32.7103210627817305
 21
8.5701283265807771
 31
0.0
  0
LINE
  5
2565
  8
0
 10
32.570321062781737
 20
8.9933645470807786
 30
0.0
 11
32.570321062781737
 21
8.5781283265807797
 31
0.0
  0
LINE
  5
2566
  8
0
 10
32.5253210627817424
 20
7.6671636809807788
 30
0.0
 11
32.5253210627817424
 21
8.5401283265807795
 31
0.0
  0
LINE
  5
2567
  8
0
 10
32.570321062781737
 20
8.9933645470807786
 30
0.0
 11
32.5253210627817424
 21
9.0383645470807803
 31
0.0
  0
ARC
  5
2568
  8
0
 10
32.5553210627817435
 20
8.5401283265807795
 30
0.0
 40
0.03
 50
90.0
 51
180.0
  0
ARC
  5
2569
  8
0
 10
32.8146656004573174
 20
7.6709172043918707
 30
0.0
 40
0.2893688829516642
 50
180.7432280864603911
 51
217.8041412992488119
  0
ARC
  5
256A
  8
0
 10
32.9230225884680934
 20
7.7549800448706288
 30
0.0
 40
0.4265104083920769
 50
217.8041412992483004
 51
240.8577646914656043
  0
ARC
  5
256B
  8
0
 10
33.0253210627817424
 20
7.9625517869014413
 30
0.0
 40
0.657728293020664
 50
241.8800114533540864
 51
298.1199885466459136
  0
LINE
  5
256C
  8
0
 10
33.4349970892822128
 20
7.4592941154143508
 30
0.0
 11
33.4350210627817503
 21
7.3911799043807793
 31
0.0
  0
ARC
  5
256D
  8
0
 10
33.1935979621494681
 20
7.3986343987573733
 30
0.0
 40
0.2415381605571097
 50
310.723043397762126
 51
358.2314227360971017
  0
ARC
  5
256E
  8
0
 10
33.070056273340299
 20
7.5308467034129078
 30
0.0
 40
0.4224015198671226
 50
285.7673315160744778
 51
311.723196247689998
  0
ARC
  5
256F
  8
0
 10
33.0258505859389331
 20
7.6654090082250326
 30
0.0
 40
0.5639444214538976
 50
249.3219813416127977
 51
286.3746503295150205
  0
LINE
  5
2570
  8
0
 10
32.6156210627817416
 20
7.3911799043807793
 30
0.0
 11
32.6156210627817416
 21
7.4593190388646198
 31
0.0
  0
LINE
  5
2571
  8
0
 10
33.3641858279817427
 20
14.0107391607807799
 30
0.0
 11
33.3797208356817308
 21
14.9007391608807804
 31
0.0
  0
LINE
  5
2572
  8
0
 10
33.5010199387817309
 20
13.97512832658078
 30
0.0
 11
33.3991804590605526
 21
13.97512832658078
 31
0.0
  0
LINE
  5
2573
  8
0
 10
33.4147155049817428
 20
14.9351283265807808
 30
0.0
 11
33.5145073466817323
 21
14.9351283265807808
 31
0.0
  0
LINE
  5
2574
  8
0
 10
33.5145073466817323
 20
14.9351283265807808
 30
0.0
 11
33.5344993621817267
 21
14.9366722798807796
 31
0.0
  0
ARC
  5
2575
  8
0
 10
33.4147155050817375
 20
14.9001283265807807
 30
0.0
 40
0.035
 50
90.0
 51
178.999999917699995
  0
ARC
  5
2576
  8
0
 10
33.3991804971817672
 20
14.0101283265807997
 30
0.0
 40
0.0350000000000329
 50
179.0000000838292067
 51
269.9999377931192726
  0
ARC
  5
2577
  8
0
 10
33.4850911574850798
 20
15.2289310638135191
 30
0.0
 40
0.2964057480501851
 50
279.5954888985618823
 51
298.9316409904033094
  0
ARC
  5
2578
  8
0
 10
33.4080303694293335
 20
14.9032426003018692
 30
0.0
 40
0.0325789898609727
 50
354.5146361856068893
 51
78.1589240093485245
  0
LINE
  5
2579
  8
0
 10
33.4404601686817315
 20
14.9001283265807807
 30
0.0
 11
33.4245204491410774
 21
14.0027039316562405
 31
0.0
  0
ARC
  5
257A
  8
0
 10
33.3925191819717497
 20
14.0066801724403902
 30
0.0
 40
0.0322473501425599
 50
281.9213156557465823
 51
352.9171513365492956
  0
ARC
  5
257B
  8
0
 10
33.4506757229978433
 20
13.6291574090969299
 30
0.0
 40
0.3519841796815856
 50
62.2780175086229377
 51
72.8873961319042536
  0
ARC
  5
257C
  8
0
 10
33.499574048730473
 20
13.8142738644916196
 30
0.0
 40
0.1608609603727127
 50
70.1305135224593243
 51
89.484993046526796
  0
CIRCLE
  5
257D
  8
0
 10
33.0253210627817424
 20
14.4551283265807804
 30
0.0
 40
0.1014514001819053
  0
CIRCLE
  5
257E
  8
0
 10
33.0253210626817406
 20
14.4551283265807804
 30
0.0
 40
0.159999999900567
  0
ARC
  5
257F
  8
0
 10
32.8428868512538088
 20
13.1995428665102104
 30
0.0
 40
0.0625690360889437
 50
180.5837705353388003
 51
236.2306640012303092
  0
ARC
  5
2580
  8
0
 10
32.8503639748446119
 20
13.2097219013634497
 30
0.0
 40
0.0751889178478911
 50
235.8057751165740115
 51
282.0925347063611071
  0
ARC
  5
2581
  8
0
 10
33.2003615048567511
 20
13.20962977722772
 30
0.0
 40
0.0751135058246855
 50
258.4965252815123904
 51
298.227990080254699
  0
ARC
  5
2582
  8
0
 10
33.2065258304892694
 20
13.2000980004752293
 30
0.0
 40
0.063806383393015
 50
297.3992613941985041
 51
358.9287995153562179
  0
ARC
  5
2583
  8
0
 10
33.2035252585886127
 20
13.1847151626953991
 30
0.0
 40
0.0668279507401548
 50
292.4571839044697867
 51
358.2227720512669862
  0
ARC
  5
2584
  8
0
 10
33.1986133218389483
 20
13.1979189507752306
 30
0.0
 40
0.0809083296467213
 50
260.2296338803508888
 51
292.1000493495092201
  0
ARC
  5
2585
  8
0
 10
32.8514797034810186
 20
13.1920111587532691
 30
0.0
 40
0.0751951855873784
 50
236.3181150614317971
 51
280.9466918655245991
  0
ARC
  5
2586
  8
0
 10
32.8461602236884005
 20
13.1846214300823608
 30
0.0
 40
0.0660967052622768
 50
191.2120403825034032
 51
236.6026939230110884
  0
ARC
  5
2587
  8
0
 10
32.9277668422673671
 20
13.1907740134240097
 30
0.0
 40
0.1476698242662374
 50
176.8434396912678039
 51
187.3942234766188051
  0
ARC
  5
2588
  8
0
 10
33.025334864246048
 20
12.3867759144849803
 30
0.0
 40
0.766152319859211
 50
77.9422761537270219
 51
101.9944533889071039
  0
ARC
  5
2589
  8
0
 10
33.0253208750823575
 20
12.2654628985161303
 30
0.0
 40
0.8675215472130959
 50
79.4013063500465961
 51
100.5986679944173972
  0
LINE
  5
258A
  8
0
 10
32.6514616662815911
 20
13.97512832658078
 30
0.0
 11
33.3991804591817427
 21
13.97512832658078
 31
0.0
  0
LINE
  5
258B
  8
0
 10
29.2753004637100993
 20
43.6857579954715121
 30
0.0
 11
29.2941774683664207
 21
43.6230916782348572
 31
0.0
  0
LINE
  5
258C
  8
0
 10
29.2941774683664207
 20
43.6230916782348572
 30
0.0
 11
29.2309429886817504
 21
43.6379436071807802
 31
0.0
  0
LINE
  5
258D
  8
0
 10
29.2309429886817504
 20
43.6379436071807802
 30
0.0
 11
29.2303428162817411
 21
43.6378802302807713
 31
0.0
  0
LINE
  5
258E
  8
0
 10
29.2303428162817411
 20
43.6378802302807713
 30
0.0
 11
29.2295332584817515
 21
43.6370180895807778
 31
0.0
  0
LINE
  5
258F
  8
0
 10
29.2295332584817515
 20
43.6370180895807778
 30
0.0
 11
29.2295284157817505
 21
43.6363930316807824
 31
0.0
  0
LINE
  5
2590
  8
0
 10
29.2295284157817505
 20
43.6363930316807824
 30
0.0
 11
29.248244518181739
 21
43.5742819603807803
 31
0.0
  0
LINE
  5
2591
  8
0
 10
29.248244518181739
 20
43.5742819603807803
 30
0.0
 11
29.1850482832817413
 21
43.5890756510807691
 31
0.0
  0
LINE
  5
2592
  8
0
 10
29.1850482832817413
 20
43.5890756510807691
 30
0.0
 11
29.1844568685817407
 21
43.5890138692807696
 31
0.0
  0
LINE
  5
2593
  8
0
 10
29.1844568685817407
 20
43.5890138692807696
 30
0.0
 11
29.1836473108817493
 21
43.5881517285807831
 31
0.0
  0
LINE
  5
2594
  8
0
 10
29.1836473108817493
 20
43.5881517285807831
 30
0.0
 11
29.183630613981741
 21
43.5874534205807791
 31
0.0
  0
LINE
  5
2595
  8
0
 10
29.183630613981741
 20
43.5874534205807791
 30
0.0
 11
29.2023293273817401
 21
43.52540640708078
 31
0.0
  0
LINE
  5
2596
  8
0
 10
29.2023293273817401
 20
43.52540640708078
 30
0.0
 11
29.1391119697817516
 21
43.5402219329807778
 31
0.0
  0
LINE
  5
2597
  8
0
 10
29.1391119697817516
 20
43.5402219329807778
 30
0.0
 11
29.1385709209817385
 21
43.5401475081807803
 31
0.0
  0
LINE
  5
2598
  8
0
 10
29.1385709209817385
 20
43.5401475081807803
 30
0.0
 11
29.1377613631817489
 21
43.5392853675807814
 31
0.0
  0
LINE
  5
2599
  8
0
 10
29.1377613631817489
 20
43.5392853675807814
 30
0.0
 11
29.1377465339817512
 21
43.5385770568807828
 31
0.0
  0
LINE
  5
259A
  8
0
 10
29.1377465339817512
 20
43.5385770568807828
 30
0.0
 11
29.1564431437571692
 21
43.4765374288356483
 31
0.0
  0
LINE
  5
259B
  8
0
 10
29.1564431437571692
 20
43.4765374288356483
 30
0.0
 11
29.0932276262817489
 21
43.4913562060807806
 31
0.0
  0
LINE
  5
259C
  8
0
 10
29.0932276262817489
 20
43.4913562060807806
 30
0.0
 11
29.0926849732817416
 21
43.4912811471807785
 31
0.0
  0
LINE
  5
259D
  8
0
 10
29.0926849732817416
 20
43.4912811471807785
 30
0.0
 11
29.0918754155817396
 21
43.4904190064807779
 31
0.0
  0
LINE
  5
259E
  8
0
 10
29.0918754155817396
 20
43.4904190064807779
 30
0.0
 11
29.0919007893817394
 21
43.4897213473807795
 31
0.0
  0
LINE
  5
259F
  8
0
 10
29.0919007893817394
 20
43.4897213473807795
 30
0.0
 11
29.1106053191817402
 21
43.4276247566807783
 31
0.0
  0
LINE
  5
25A0
  8
0
 10
29.1106053191817402
 20
43.4276247566807783
 30
0.0
 11
29.0473664091817412
 21
43.4424853349807805
 31
0.0
  0
LINE
  5
25A1
  8
0
 10
29.0473664091817412
 20
43.4424853349807805
 30
0.0
 11
29.0467508663817391
 21
43.4423634987807787
 31
0.0
  0
LINE
  5
25A2
  8
0
 10
29.0467508663817391
 20
43.4423634987807787
 30
0.0
 11
29.0371485707817385
 21
43.4321375087807766
 31
0.0
  0
LINE
  5
25A3
  8
0
 10
29.5968744684817189
 20
42.8551383752807666
 30
0.0
 11
29.5852716638817412
 21
42.9056012771807787
 31
0.0
  0
LINE
  5
25A4
  8
0
 10
29.5852716638817412
 20
42.9056012771807787
 30
0.0
 11
29.6473201408817495
 21
42.8868959784807799
 31
0.0
  0
LINE
  5
25A5
  8
0
 10
29.6473201408817495
 20
42.8868959784807799
 30
0.0
 11
29.6479960214817488
 21
42.8869222462807826
 31
0.0
  0
LINE
  5
25A6
  8
0
 10
29.6479960214817488
 20
42.8869222462807826
 30
0.0
 11
29.6488581621817389
 21
42.8877318040807722
 31
0.0
  0
LINE
  5
25A7
  8
0
 10
29.6488581621817389
 20
42.8877318040807722
 30
0.0
 11
29.6488962050817406
 21
42.8883232807807815
 31
0.0
  0
LINE
  5
25A8
  8
0
 10
29.6488962050817406
 20
42.8883232807807815
 30
0.0
 11
29.6341085914410485
 21
42.9515377120231889
 31
0.0
  0
LINE
  5
25A9
  8
0
 10
29.6341085914410485
 20
42.9515377120231889
 30
0.0
 11
29.696194399481751
 21
42.9327807872807767
 31
0.0
  0
LINE
  5
25AA
  8
0
 10
29.696194399481751
 20
42.9327807872807767
 30
0.0
 11
29.6968623824817399
 21
42.9328081938807813
 31
0.0
  0
LINE
  5
25AB
  8
0
 10
29.6968623824817399
 20
42.9328081938807813
 30
0.0
 11
29.6977245231817513
 21
42.9336177516807922
 31
0.0
  0
LINE
  5
25AC
  8
0
 10
29.6977245231817513
 20
42.9336177516807922
 30
0.0
 11
29.6977309423817388
 21
42.9341487870807867
 31
0.0
  0
LINE
  5
25AD
  8
0
 10
29.6977309423817388
 20
42.9341487870807867
 30
0.0
 11
29.6829283442868892
 21
42.9974456063859876
 31
0.0
  0
LINE
  5
25AE
  8
0
 10
29.6829283442868892
 20
42.9974456063859876
 30
0.0
 11
29.7450191491817506
 21
42.9786803072807828
 31
0.0
  0
LINE
  5
25AF
  8
0
 10
29.7450191491817506
 20
42.9786803072807828
 30
0.0
 11
29.7457287434817417
 21
42.9786941415807675
 31
0.0
  0
LINE
  5
25B0
  8
0
 10
29.7457287434817417
 20
42.9786941415807675
 30
0.0
 11
29.7465908841817388
 21
42.9795036993807784
 31
0.0
  0
LINE
  5
25B1
  8
0
 10
29.7465908841817388
 20
42.9795036993807784
 30
0.0
 11
29.7465964112817502
 21
42.9800272851807819
 31
0.0
  0
LINE
  5
25B2
  8
0
 10
29.7465964112817502
 20
42.9800272851807819
 30
0.0
 11
29.7317914108529209
 21
43.0433327473437473
 31
0.0
  0
LINE
  5
25B3
  8
0
 10
29.7317914108529209
 20
43.0433327473437473
 30
0.0
 11
29.7938835583817507
 21
43.0245677214807785
 31
0.0
  0
LINE
  5
25B4
  8
0
 10
29.7938835583817507
 20
43.0245677214807785
 30
0.0
 11
29.7945951045817417
 21
43.0245800891807875
 31
0.0
  0
LINE
  5
25B5
  8
0
 10
29.7945951045817417
 20
43.0245800891807875
 30
0.0
 11
29.7954572452817388
 21
43.0253896469807771
 31
0.0
  0
LINE
  5
25B6
  8
0
 10
29.7954572452817388
 20
43.0253896469807771
 30
0.0
 11
29.7954890196817388
 21
43.0258887103807766
 31
0.0
  0
LINE
  5
25B7
  8
0
 10
29.7954890196817388
 20
43.0258887103807766
 30
0.0
 11
29.7806833189416693
 21
43.0891728864241799
 31
0.0
  0
LINE
  5
25B8
  8
0
 10
29.7806833189416693
 20
43.0891728864241799
 30
0.0
 11
29.8427303620817383
 21
43.0704514077807801
 31
0.0
  0
LINE
  5
25B9
  8
0
 10
29.8427303620817383
 20
43.0704514077807801
 30
0.0
 11
29.8434614655817398
 21
43.0704660368807808
 31
0.0
  0
LINE
  5
25BA
  8
0
 10
29.8434614655817398
 20
43.0704660368807808
 30
0.0
 11
29.8443236062817405
 21
43.0712755946807775
 31
0.0
  0
LINE
  5
25BB
  8
0
 10
29.8443236062817405
 20
43.0712755946807775
 30
0.0
 11
29.8443913038817392
 21
43.0718261162807821
 31
0.0
  0
LINE
  5
25BC
  8
0
 10
29.8443913038817392
 20
43.0718261162807821
 30
0.0
 11
29.8295954533817387
 21
43.1350430068807711
 31
0.0
  0
LINE
  5
25BD
  8
0
 10
29.8295954533817387
 20
43.1350430068807711
 30
0.0
 11
29.8916786162817516
 21
43.1163319368807834
 31
0.0
  0
LINE
  5
25BE
  8
0
 10
29.8916786162817516
 20
43.1163319368807834
 30
0.0
 11
29.8923942225817392
 21
43.1164143309807812
 31
0.0
  0
LINE
  5
25BF
  8
0
 10
29.8923942225817392
 20
43.1164143309807812
 30
0.0
 11
29.9008795040817397
 21
43.1248996122807782
 31
0.0
  0
LINE
  5
25C0
  8
0
 10
29.0371485707817385
 20
43.3850505561807722
 30
0.0
 11
29.0374575349817405
 21
43.3852048292807666
 31
0.0
  0
LINE
  5
25C1
  8
0
 10
29.0374575349817405
 20
43.3852048292807666
 30
0.0
 11
29.5968744684817189
 21
42.8551383752807666
 31
0.0
  0
LINE
  5
25C2
  8
0
 10
29.5852716638817412
 20
42.9056012771807787
 30
0.0
 11
29.0698235299597414
 21
43.3762763168139074
 31
0.0
  0
LINE
  5
25C3
  8
0
 10
29.0467508663817391
 20
43.4423634987807787
 30
0.0
 11
29.6484270918317385
 21
42.8873270251807668
 31
0.0
  0
LINE
  5
25C4
  8
0
 10
29.6341085914413718
 20
42.9515377120230966
 30
0.0
 11
29.1106053191817402
 21
43.4276247566807783
 31
0.0
  0
LINE
  5
25C5
  8
0
 10
29.0924660542722613
 20
43.4910480087793019
 30
0.0
 11
29.6972934528317403
 21
42.9332129727807796
 31
0.0
  0
LINE
  5
25C6
  8
0
 10
29.6829283442868892
 20
42.9974456063859876
 30
0.0
 11
29.1564431437571692
 21
43.4765374288356483
 31
0.0
  0
LINE
  5
25C7
  8
0
 10
29.1381661420817508
 20
43.5397164378807773
 30
0.0
 11
29.7461598138317385
 21
42.979098920480773
 31
0.0
  0
LINE
  5
25C8
  8
0
 10
29.2023293273817401
 20
43.52540640708078
 30
0.0
 11
29.7317914108543988
 21
43.0433327473432996
 31
0.0
  0
LINE
  5
25C9
  8
0
 10
29.7950261749317384
 20
43.0249848680807787
 30
0.0
 11
29.1840520897317504
 21
43.5885827989307799
 31
0.0
  0
LINE
  5
25CA
  8
0
 10
29.248244518181739
 20
43.5742819603807803
 30
0.0
 11
29.7806833189416693
 21
43.0891728864241799
 31
0.0
  0
LINE
  5
25CB
  8
0
 10
29.8438925359317402
 20
43.070870815780772
 30
0.0
 11
29.2299380373817392
 21
43.6374491599307817
 31
0.0
  0
LINE
  5
25CC
  8
0
 10
29.2941774683664207
 20
43.6230916782348572
 30
0.0
 11
29.8295954533817387
 21
43.1350430068807711
 31
0.0
  0
LINE
  5
25CD
  8
0
 10
29.8923942225817392
 20
43.1164143309807812
 30
0.0
 11
29.2753004637100993
 21
43.6857579954715121
 31
0.0
  0
LINE
  5
25CE
  8
0
 10
29.0698235299597414
 20
43.3762763168139074
 30
0.0
 11
29.0459894678905997
 21
43.441552645451452
 31
0.0
  0
LINE
  5
25CF
  8
0
 10
29.0698235299597414
 20
43.3762763168139074
 30
0.0
 11
29.0374575349817405
 21
43.3852048292807666
 31
0.0
  0
ARC
  5
25D0
  8
0
 10
30.6902597052614503
 20
11.0253168983069099
 30
0.0
 40
2.1802147525970428
 50
322.7328992741884122
 51
334.1631060672573881
  0
ARC
  5
25D1
  8
0
 10
32.215362100956078
 20
10.2850400494320304
 30
0.0
 40
0.4849462460631474
 50
334.3546882517608196
 51
25.4608633469259082
  0
ARC
  5
25D2
  8
0
 10
30.7511634343369487
 20
9.5827805653862281
 30
0.0
 40
2.1088431771416891
 50
25.5859651227342404
 51
37.4508857782343796
  0
ARC
  5
25D3
  8
0
 10
35.64537629266772
 20
11.2145122508814694
 30
0.0
 40
2.5207825524466911
 50
208.1923006308329036
 51
216.7397951597291978
  0
ARC
  5
25D4
  8
0
 10
33.9288196218785174
 20
10.3018073066863103
 30
0.0
 40
0.5767118761643991
 50
181.6572731059513046
 51
208.84095471056321
  0
ARC
  5
25D5
  8
0
 10
33.9099033840823907
 20
10.2700882235230306
 30
0.0
 40
0.5577572198824104
 50
154.6426942762996077
 51
178.4548147179565092
  0
ARC
  5
25D6
  8
0
 10
35.3758376150453984
 20
9.5353599487242082
 30
0.0
 40
2.1974088053134109
 50
142.8092601042955891
 51
153.7004101183275964
  0
ARC
  5
25D7
  8
0
 10
32.9728619235921769
 20
7.496872335543693
 30
0.0
 40
0.3876812076428023
 50
226.7929785446328026
 51
247.8530922833759007
  0
ARC
  5
25D8
  8
0
 10
32.8890508571552971
 20
7.4052707208882316
 30
0.0
 40
0.263539090782344
 50
204.7416003209498001
 51
226.4396439926485982
  0
ARC
  5
25D9
  8
0
 10
32.8385129099218815
 20
7.4160008968911661
 30
0.0
 40
0.2242696082636794
 50
186.3542158891935969
 51
212.6601804145037988
  0
ARC
  5
25DA
  8
0
 10
32.9591120323234605
 20
7.52102351106321
 30
0.0
 40
0.3831875248207936
 50
216.1515025568523924
 51
258.3769132580777068
  0
ARC
  5
25DB
  8
0
 10
33.0144933035959127
 20
7.702716127014269
 30
0.0
 40
0.5725839628289358
 50
256.6115278031498974
 51
281.882948073018099
  0
ARC
  5
25DC
  8
0
 10
33.0427279007966206
 20
7.6006096139742692
 30
0.0
 40
0.4668984051696309
 50
281.072446927111173
 51
305.5245772839535903
  0
ARC
  5
25DD
  8
0
 10
33.1346876791778868
 20
7.4753013198802751
 30
0.0
 40
0.3114874072518918
 50
305.1507447506335211
 51
330.0423099454794169
  0
ARC
  5
25DE
  8
0
 10
33.1939702588176999
 20
7.4388467624629397
 30
0.0
 40
0.2419294600702313
 50
330.5113905073906153
 51
355.0890244795156718
  0
ARC
  5
25DF
  8
0
 10
33.204096171513882
 20
7.4499360578879097
 30
0.0
 40
0.2312195448576215
 50
336.3639286654599232
 51
357.0274217437633979
  0
ARC
  5
25E0
  8
0
 10
33.1398379047262921
 20
7.4846664208112212
 30
0.0
 40
0.3040717924725045
 50
306.4178573666130774
 51
335.223098108815293
  0
ARC
  5
25E1
  8
0
 10
33.0288244590123696
 20
7.6443043781232323
 30
0.0
 40
0.4984688552962217
 50
275.4431410843711205
 51
305.7926987776880878
  0
ARC
  5
25E2
  8
0
 10
33.0139490992788467
 20
7.7041308911885391
 30
0.0
 40
0.5595111945115315
 50
253.1778568858061931
 51
276.3784590677684037
  0
ARC
  5
25E3
  8
0
 10
32.9649112458089775
 20
7.5572649526370919
 30
0.0
 40
0.404762653697928
 50
228.4686208011613928
 51
253.8058246419454917
  0
ARC
  5
25E4
  8
0
 10
32.8340261428793525
 20
7.4215406996246118
 30
0.0
 40
0.216527182309435
 50
202.5749746912646003
 51
230.5834507094897106
  0
ARC
  5
25E5
  8
0
 10
32.8235974732132476
 20
7.4248217719593654
 30
0.0
 40
0.2082759391538383
 50
183.0731897645837876
 51
204.5101316173758903
  0
ARC
  5
25E6
  8
0
 10
33.1929776036330111
 20
7.4884014631218507
 30
0.0
 40
0.2425477815927981
 50
325.3137139525592261
 51
352.7615700234695737
  0
ARC
  5
25E7
  8
0
 10
33.085784766694033
 20
7.5753060616799859
 30
0.0
 40
0.3802900773953814
 50
292.8888770991612773
 51
323.7378258008395164
  0
ARC
  5
25E8
  8
0
 10
33.0170931734800917
 20
7.7287083956367288
 30
0.0
 40
0.5483428482069383
 50
270.8597559443023215
 51
293.2668993116071192
  0
ARC
  5
25E9
  8
0
 10
33.0121391935290731
 20
7.728109490491156
 30
0.0
 40
0.5478408205124646
 50
251.5652376325832051
 51
271.3787551830860139
  0
ARC
  5
25EA
  8
0
 10
32.9545006826138689
 20
7.5751636476412196
 30
0.0
 40
0.3845686379355735
 50
226.670922502900396
 51
252.5062084631202879
  0
ARC
  5
25EB
  8
0
 10
32.8641044699361871
 20
7.4797189488138631
 30
0.0
 40
0.2531111910588033
 50
203.4165370957092023
 51
226.7305610036789005
  0
ARC
  5
25EC
  8
0
 10
32.8195439009996619
 20
7.4590382733212994
 30
0.0
 40
0.2040058116104417
 50
181.6341823102185913
 51
203.0602788303355908
  0
ARC
  5
25ED
  8
0
 10
32.8222152933265789
 20
7.4735882399002271
 30
0.0
 40
0.2064826106299113
 50
184.1511874977250898
 51
209.633319206771489
  0
ARC
  5
25EE
  8
0
 10
32.9099546639839033
 20
7.5305708562977101
 30
0.0
 40
0.3109820031452231
 50
210.765964751386889
 51
243.0175528505654086
  0
ARC
  5
25EF
  8
0
 10
33.0060346431947309
 20
7.7082411261633501
 30
0.0
 40
0.5129297049434589
 50
242.4580087157328876
 51
266.9608106640170035
  0
ARC
  5
25F0
  8
0
 10
33.0145718245522986
 20
7.760197476313702
 30
0.0
 40
0.5652950646803163
 50
266.3759283624067962
 51
288.2702090342107795
  0
ARC
  5
25F1
  8
0
 10
33.0561643831001106
 20
7.64130844541726
 30
0.0
 40
0.43936580970678
 50
287.9801522472242254
 51
307.8491880212778824
  0
ARC
  5
25F2
  8
0
 10
33.131614053573081
 20
7.5442137085099246
 30
0.0
 40
0.3164022349899027
 50
307.8489484748417908
 51
326.585253459299679
  0
ARC
  5
25F3
  8
0
 10
33.1938019893910408
 20
7.503203753400677
 30
0.0
 40
0.2419095811858136
 50
326.5816154431636278
 51
348.5222600872162957
  0
ARC
  5
25F4
  8
0
 10
33.1228074513637694
 20
7.5829294399510347
 30
0.0
 40
0.324969266959137
 50
297.5201481220374831
 51
333.7337615513113747
  0
ARC
  5
25F5
  8
0
 10
33.0143978639819977
 20
7.7818842487521174
 30
0.0
 40
0.5515199070602363
 50
264.2608404170287031
 51
297.9579023641722983
  0
ARC
  5
25F6
  8
0
 10
32.998723802272238
 20
7.7181480066493036
 30
0.0
 40
0.4866231311933581
 50
239.3765183429439105
 51
265.3467045107183253
  0
ARC
  5
25F7
  8
0
 10
32.9145136021168199
 20
7.5746437681968919
 30
0.0
 40
0.3202373973218231
 50
218.3243406763670009
 51
239.2629898171892933
  0
ARC
  5
25F8
  8
0
 10
32.8481384044807427
 20
7.5209824325960284
 30
0.0
 40
0.2348910064673919
 50
197.3590017816505906
 51
218.0955544374575936
  0
ARC
  5
25F9
  8
0
 10
32.9197444923281068
 20
7.5935261298263166
 30
0.0
 40
0.3192612942758779
 50
210.3555760652660922
 51
243.1903973958415008
  0
ARC
  5
25FA
  8
0
 10
33.0223247056623066
 20
7.7846735766297117
 30
0.0
 40
0.5361554123960233
 50
242.6196045721117116
 51
271.9495297635289148
  0
ARC
  5
25FB
  8
0
 10
33.0295752844870023
 20
7.7881023331251722
 30
0.0
 40
0.5393857835331346
 50
271.1673745833101066
 51
291.2259283354953823
  0
ARC
  5
25FC
  8
0
 10
33.0835638472617717
 20
7.6577820451505474
 30
0.0
 40
0.3983724557439236
 50
290.7737410628650991
 51
311.749833164721224
  0
ARC
  5
25FD
  8
0
 10
33.1669611808652576
 20
7.5653183631254448
 30
0.0
 40
0.2738572609424186
 50
311.6139068800986252
 51
330.8677119212734965
  0
LINE
  5
25FF
  8
0
 10
32.7803210627817379
 20
13.1989053792808306
 30
0.0
 11
32.7803210627817379
 21
13.97512832658078
 31
0.0
  0
LINE
  5
2600
  8
0
 10
33.2703210627817469
 20
13.1826425936807805
 30
0.0
 11
33.2703210627817469
 21
13.97512832658078
 31
0.0
  0
ENDSEC
  0
EOF
