  0
SECTION
  2
HEADER
  9
$ACADVER
  1
AC1009
  9
$INSBASE
 10
4.4130461984
 20
0.6959396179000001
 30
0.0
  9
$EXTMIN
 10
3.4173658840519319
 20
0.687141375258463
 30
-0.0015258207003583
  9
$EXTMAX
 10
5.4083252449917181
 20
8.1209887905082638
 30
0.0000000349246037
  9
$LIMMIN
 10
0.0
 20
0.0
  9
$LIMMAX
 10
11.692913385800001
 20
8.2677165353999982
  9
$ORTHOMODE
 70
     0
  9
$REGENMODE
 70
     1
  9
$FILLMODE
 70
     1
  9
$QTEXTMODE
 70
     0
  9
$MIRRTEXT
 70
     0
  9
$DRAGMODE
 70
     2
  9
$LTSCALE
 40
0.6431102362
  9
$OSMODE
 70
   231
  9
$ATTMODE
 70
     1
  9
$TEXTSIZE
 40
0.2
  9
$TRACEWID
 40
0.05
  9
$TEXTSTYLE
  7
STANDARD
  9
$CLAYER
  8
0
  9
$CELTYPE
  6
BYLAYER
  9
$CECOLOR
 62
   256
  9
$DIMSCALE
 40
1.0
  9
$DIMASZ
 40
0.1875
  9
$DIMEXO
 40
0.0625
  9
$DIMDLI
 40
0.4443307087
  9
$DIMRND
 40
0.0
  9
$DIMDLE
 40
0.0
  9
$DIMEXE
 40
0.125
  9
$DIMTP
 40
0.0
  9
$DIMTM
 40
0.0
  9
$DIMTXT
 40
1.0
  9
$DIMCEN
 40
0.1052362205
  9
$DIMTSZ
 40
0.0
  9
$DIMTOL
 70
     0
  9
$DIMLIM
 70
     0
  9
$DIMTIH
 70
     1
  9
$DIMTOH
 70
     1
  9
$DIMSE1
 70
     0
  9
$DIMSE2
 70
     0
  9
$DIMTAD
 70
     0
  9
$DIMZIN
 70
     0
  9
$DIMBLK
  1

  9
$DIMASO
 70
     1
  9
$DIMSHO
 70
     1
  9
$DIMPOST
  1
\X
  9
$DIMAPOST
  1

  9
$DIMALT
 70
     1
  9
$DIMALTD
 70
     2
  9
$DIMALTF
 40
25.399999999999999
  9
$DIMLFAC
 40
1.0
  9
$DIMTOFL
 70
     0
  9
$DIMTVP
 40
0.0
  9
$DIMTIX
 70
     0
  9
$DIMSOXD
 70
     0
  9
$DIMSAH
 70
     0
  9
$DIMBLK1
  1

  9
$DIMBLK2
  1

  9
$DIMSTYLE
  2
STANDARD
  9
$DIMCLRD
 70
     0
  9
$DIMCLRE
 70
     0
  9
$DIMCLRT
 70
     0
  9
$DIMTFAC
 40
1.0
  9
$DIMGAP
 40
0.09
  9
$LUNITS
 70
     2
  9
$LUPREC
 70
     4
  9
$SKETCHINC
 40
0.1
  9
$FILLETRAD
 40
0.0
  9
$AUNITS
 70
     0
  9
$AUPREC
 70
     0
  9
$MENU
  1
.
  9
$ELEVATION
 40
0.0
  9
$PELEVATION
 40
0.0
  9
$THICKNESS
 40
0.0
  9
$LIMCHECK
 70
     0
  9
$BLIPMODE
 70
     0
  9
$CHAMFERA
 40
0.0
  9
$CHAMFERB
 40
0.0
  9
$SKPOLY
 70
     0
  9
$TDCREATE
 40
2457912.6949776048
  9
$TDUPDATE
 40
2457912.7269654521
  9
$TDINDWG
 40
0.0314939468
  9
$TDUSRTIMER
 40
0.0314939468
  9
$USRTIMER
 70
     1
  9
$ANGBASE
 50
0.0
  9
$ANGDIR
 70
     0
  9
$PDMODE
 70
     0
  9
$PDSIZE
 40
0.3125
  9
$PLINEWID
 40
0.0
  9
$COORDS
 70
     1
  9
$SPLFRAME
 70
     0
  9
$SPLINETYPE
 70
     6
  9
$SPLINESEGS
 70
     8
  9
$ATTDIA
 70
     1
  9
$ATTREQ
 70
     1
  9
$HANDLING
 70
     1
  9
$HANDSEED
  5
CBA
  9
$SURFTAB1
 70
     6
  9
$SURFTAB2
 70
     6
  9
$SURFTYPE
 70
     6
  9
$SURFU
 70
     6
  9
$SURFV
 70
     6
  9
$UCSNAME
  2

  9
$UCSORG
 10
0.0
 20
0.0
 30
0.0
  9
$UCSXDIR
 10
1.0
 20
0.0
 30
0.0
  9
$UCSYDIR
 10
0.0
 20
1.0
 30
0.0
  9
$PUCSNAME
  2

  9
$PUCSORG
 10
0.0
 20
0.0
 30
0.0
  9
$PUCSXDIR
 10
1.0
 20
0.0
 30
0.0
  9
$PUCSYDIR
 10
0.0
 20
1.0
 30
0.0
  9
$USERI1
 70
     0
  9
$USERI2
 70
     0
  9
$USERI3
 70
     0
  9
$USERI4
 70
     0
  9
$USERI5
 70
     0
  9
$USERR1
 40
0.0
  9
$USERR2
 40
0.0
  9
$USERR3
 40
0.0
  9
$USERR4
 40
0.0
  9
$USERR5
 40
0.0
  9
$WORLDVIEW
 70
     1
  9
$SHADEDGE
 70
     3
  9
$SHADEDIF
 70
    70
  9
$TILEMODE
 70
     1
  9
$MAXACTVP
 70
    48
  9
$PLIMCHECK
 70
     0
  9
$PEXTMIN
 10
1.0000000000000000E+020
 20
1.0000000000000000E+020
 30
1.0000000000000000E+020
  9
$PEXTMAX
 10
-1.0000000000000000E+020
 20
-1.0000000000000000E+020
 30
-1.0000000000000000E+020
  9
$PLIMMIN
 10
0.0
 20
0.0
  9
$PLIMMAX
 10
12.0
 20
9.0
  9
$UNITMODE
 70
     0
  9
$VISRETAIN
 70
     1
  9
$PLINEGEN
 70
     0
  9
$PSLTSCALE
 70
     1
  0
ENDSEC
  0
SECTION
  2
TABLES
  0
TABLE
  2
VPORT
 70
     1
  0
VPORT
  2
*ACTIVE
 70
     0
 10
0.0
 20
0.0
 11
1.0
 21
1.0
 12
4.4128455645218256
 22
4.4040650828833634
 13
0.0
 23
0.0
 14
1.0
 24
1.0
 15
0.0
 25
0.0
 16
0.0
 26
0.0
 36
1.0
 17
0.0
 27
0.0
 37
0.0
 40
7.4811465504475718
 41
1.786624203821656
 42
50.0
 43
0.0
 44
0.0
 50
0.0
 51
0.0
 71
     0
 72
   100
 73
     1
 74
     1
 75
     0
 76
     0
 77
     0
 78
     0
  0
ENDTAB
  0
TABLE
  2
LTYPE
 70
     2
  0
LTYPE
  2
CONTINUOUS
 70
     0
  3
Solid line
 72
    65
 73
     0
 40
0.0
  0
LTYPE
  2
PHANTOM2
 70
     0
  3
___ _ _ ___ _ _ ___ _ _ ___ _ _
 72
    65
 73
     6
 40
1.25
 49
0.625
 49
-0.125
 49
0.125
 49
-0.125
 49
0.125
 49
-0.125
  0
ENDTAB
  0
TABLE
  2
LAYER
 70
     3
  0
LAYER
  2
0
 70
     0
 62
     7
  6
CONTINUOUS
  0
LAYER
  2
DEFPOINTS
 70
     0
 62
     7
  6
CONTINUOUS
  0
ENDTAB
  0
TABLE
  2
STYLE
 70
     1
  0
STYLE
  2
STANDARD
 70
     0
 40
0.0
 41
0.8
 50
0.0
 71
     0
 42
0.2
  3
txt
  4

  0
ENDTAB
  0
TABLE
  2
VIEW
 70
     0
  0
ENDTAB
  0
TABLE
  2
UCS
 70
     0
  0
ENDTAB
  0
TABLE
  2
APPID
 70
     7
  0
APPID
  2
ACAD
 70
     0
  0
APPID
  2
ACAD_MLEADERVER
 70
     0
  0
APPID
  2
ACAD_EXEMPT_FROM_CAD_STANDARDS
 70
     0
  0
APPID
  2
ACAD_NAV_VCDISPLAY
 70
     0
  0
APPID
  2
ACAD_DSTYLE_DIMJAG
 70
     0
  0
APPID
  2
ACAD_DSTYLE_DIMTALN
 70
     0
  0
APPID
  2
ACDBATTR
 70
     0
  0
ENDTAB
  0
TABLE
  2
DIMSTYLE
 70
     1
  0
DIMSTYLE
  2
STANDARD
 70
     0
  3

  4

  5

  6

  7

 40
1.0
 41
0.1875
 42
0.0625
 43
0.38
 44
0.125
 45
0.0
 46
0.0
 47
1.5
 48
1.5
140
0.15625
141
0.09
142
0.0
143
25.399999999999999
144
1.0
145
0.0
146
1.0
147
0.09
 71
     0
 72
     0
 73
     1
 74
     1
 75
     0
 76
     0
 77
     0
 78
     4
170
     0
171
     2
172
     0
173
     0
174
     0
175
     0
176
     0
177
     0
178
     0
  0
ENDTAB
  0
ENDSEC
  0
SECTION
  2
BLOCKS
  0
BLOCK
  8
0
  2
$MODEL_SPACE
 70
     0
 10
0.0
 20
0.0
 30
0.0
  3
$MODEL_SPACE
  1

  0
ENDBLK
  5
21
  8
0
  0
BLOCK
 67
     1
  8
0
  2
$PAPER_SPACE
 70
     0
 10
0.0
 20
0.0
 30
0.0
  3
$PAPER_SPACE
  1

  0
ENDBLK
  5
1D
 67
     1
  8
0
  0
BLOCK
  8
0
  2
*U3
 70
     1
 10
0.0
 20
0.0
 30
0.0
  3
*U3
  1

  0
TEXT
  5
CA3
  8
0
 62
     0
 10
14.97222583955007
 20
4.4982220870000011
 30
0.0
 40
1.0
  1
7.4246
 41
0.8
  0
ENDBLK
  5
CA5
  8
0
  0
BLOCK
  8
0
  2
*U4
 70
     1
 10
0.0
 20
0.0
 30
0.0
  3
*U4
  1

  0
TEXT
  5
CA7
  8
0
 62
     0
 10
14.57222583955007
 20
3.318222087000001
 30
0.0
 40
1.0
  1
[188.58]
 41
0.8
  0
ENDBLK
  5
CA9
  8
0
  0
BLOCK
  8
0
  2
*U5
 70
     1
 10
0.0
 20
0.0
 30
0.0
  3
*U5
  1

  0
TEXT
  5
CAB
  8
0
 62
     0
 10
-3.1201835043124708
 20
2.785619211775002
 30
0.0
 40
1.0
  1
3.9994
 41
0.8
  0
ENDBLK
  5
CAD
  8
0
  0
BLOCK
  8
0
  2
*U6
 70
     1
 10
0.0
 20
0.0
 30
0.0
  3
*U6
  1

  0
TEXT
  5
CAF
  8
0
 62
     0
 10
-3.320183504312471
 20
1.6056192117750021
 30
0.0
 40
1.0
  1
[101.58]
 41
0.8
  0
ENDBLK
  5
CB1
  8
0
  0
BLOCK
  8
0
  2
*U7
 70
     1
 10
0.0
 20
0.0
 30
0.0
  3
*U7
  1

  0
TEXT
  5
CB3
  8
0
 62
     0
 10
6.0856211175999997
 20
-1.3194333566480561
 30
0.0
 40
1.0
  1
1.9901
 41
0.8
  0
ENDBLK
  5
CB5
  8
0
  0
BLOCK
  8
0
  2
*U8
 70
     1
 10
0.0
 20
0.0
 30
0.0
  3
*U8
  1

  0
TEXT
  5
CB7
  8
0
 62
     0
 10
5.6856211176000002
 20
-2.4994333566480562
 30
0.0
 40
1.0
  1
[50.55]
 41
0.8
  0
ENDBLK
  5
CB9
  8
0
  0
ENDSEC
  0
SECTION
  2
ENTITIES
  0
LINE
  5
222
  8
0
 10
3.4179712792000001
 20
0.6959396179000001
 30
0.0
 11
5.4081211175999986
 21
0.6959396179000001
 31
0.0
  0
LINE
  5
224
  8
0
 10
5.3874086387000002
 20
0.7359396179000001
 30
0.0
 11
3.4386837580999989
 21
0.7359396179000001
 31
0.0
  0
LINE
  5
240
  8
0
 10
3.4186940688999989
 20
0.7166376079000001
 30
0.0
 11
3.4179712792000001
 21
0.6959396179000001
 31
0.0
  0
LINE
  5
27A
  8
0
 10
4.1129402936000004
 20
4.694871374199999
 30
0.0
 11
4.1084280397999997
 21
4.7252658466000002
 31
0.0
  0
LINE
  5
294
  8
0
 10
4.7131521294000001
 20
4.694871374199999
 30
0.0
 11
4.7176594538999987
 21
4.7252326429
 31
0.0
  0
LINE
  5
2F8
  8
0
 10
3.7123546143000001
 20
5.7565887038000003
 30
0.0
 11
3.7546014479999998
 21
5.7565887038000003
 31
0.0
  0
LINE
  5
2FB
  8
0
 10
3.7116931254000001
 20
5.8687855522000003
 30
0.0
 11
3.766658910599999
 21
5.8687855537999987
 31
0.0
  0
ARC
  5
59B
  8
0
 10
4.4130462115000002
 20
5.4065887037999989
 30
0.0
 40
0.8050621094
 50
144.95861225519999
 51
152.48447162279999
  0
ARC
  5
59D
  8
0
 10
3.4386818854999999
 20
0.7159396179000001
 30
0.0
 40
0.02
 50
90.0
 51
178.0
  0
ARC
  5
59F
  8
0
 10
3.7123514586000002
 20
5.7715887037999991
 30
0.0
 40
0.015
 50
152.48447162260001
 51
270.0
  0
ARC
  5
697
  8
0
 10
3.4523826053459601
 20
0.7675570769275378
 30
0.0
 40
0.0316283056658814
 50
180.2087998360519
 51
268.49941825533818
  0
ARC
  5
698
  8
0
 10
-444.37778375884648
 20
27.374411253289569
 30
0.0
 40
448.58829835839572
 50
356.59964370615609
 51
357.23398945473008
  0
ARC
  5
699
  8
0
 10
3.717882021647493
 20
5.7265886908960848
 30
0.0
 40
0.0300000129039317
 50
90.000058341388979
 51
179.63964093211629
  0
ARC
  5
69A
  8
0
 10
3.712654775629368
 20
5.8930657722885753
 30
0.0
 40
0.024299256340746
 50
174.4143580981393
 51
267.73191033235071
  0
ARC
  5
69B
  8
0
 10
6.5557362360562088
 20
5.3669803092375554
 30
0.0
 40
2.9155566464357521
 50
156.77869509499459
 51
169.5573038199168
  0
ARC
  5
69C
  8
0
 10
1.6749016003979851
 20
7.435171221739024
 30
0.0
 40
2.3854481723723899
 50
337.35009071237238
 51
343.90274054342001
  0
ARC
  5
69D
  8
0
 10
1.2219501110535711
 20
7.2140273977120053
 30
0.0
 40
2.77996037130068
 50
350.88760492654808
 51
357.11163403609248
  0
ARC
  5
69E
  8
0
 10
3.7314836143996049
 20
4.7553395256027304
 30
0.0
 40
0.0325121334904158
 50
174.830992847278
 51
224.36453256889851
  0
ARC
  5
6A6
  8
0
 10
-37.52721185542471
 20
8.6932625323680117
 30
0.0
 40
41.413684584565289
 50
354.54771591630941
 51
356.5044449036526
  0
ARC
  5
6A7
  8
0
 10
3.9383632194266469
 20
4.9652215894677028
 30
0.0
 40
0.3272296563620234
 50
225.46501768550871
 51
251.6045287677604
  0
ARC
  5
6A8
  8
0
 10
4.3544025031076732
 20
6.4890216288555989
 30
0.0
 40
1.9064010788033841
 50
254.19284373147059
 51
271.76278102161251
  0
ARC
  5
6A9
  8
0
 10
4.0240729520463869
 20
4.6714897531430397
 30
0.0
 40
0.0210255593497989
 50
120.2106655957738
 51
238.58689051919589
  0
ARC
  5
6AA
  8
0
 10
4.2388720987703321
 20
5.0873135456819387
 30
0.0
 40
0.4889999608705656
 50
242.5049246695304
 51
269.4494658927955
  0
ARC
  5
6AB
  8
0
 10
4.394646410898539
 20
6.1553819910023986
 30
0.0
 40
1.565293347657515
 50
264.11573542266308
 51
270.6735192478701
  0
ARC
  5
6AC
  8
0
 10
4.2418221962884877
 20
4.2454283903234034
 30
0.0
 40
0.4994752201269188
 50
90.330239973119518
 51
117.20255562524061
  0
ARC
  5
6AD
  8
0
 10
4.4088850372935111
 20
2.8947933857254271
 30
0.0
 40
1.8578905570348769
 50
89.871672785955539
 51
95.248194339093317
  0
ARC
  5
6AE
  8
0
 10
4.4195929198315849
 20
5.0248412190900007
 30
0.0
 40
0.425155193356868
 50
232.96170908392389
 51
269.48789359656013
  0
ARC
  5
6AF
  8
0
 10
4.3667345248963452
 20
4.2144180230870116
 30
0.0
 40
0.5130224893734514
 50
84.417486753312716
 51
113.3376416694942
  0
ARC
  5
6B0
  8
0
 10
4.171011374836409
 20
4.6689601377123147
 30
0.0
 40
0.018136138682625
 50
114.4623864902948
 51
172.1263928919887
  0
ARC
  5
6B1
  8
0
 10
4.1738537260590434
 20
4.6750487176000597
 30
0.0
 40
0.0211173506917829
 50
189.82689648660079
 51
247.459066093769
  0
ARC
  5
6B2
  8
0
 10
4.2833889495516484
 20
4.9015859342029442
 30
0.0
 40
0.2727145943009959
 50
244.44790395822619
 51
265.6731333624208
  0
ARC
  5
6B3
  8
0
 10
4.3681226087326221
 20
5.474785160367218
 30
0.0
 40
0.9045264082889939
 50
87.153215036199896
 51
126.11545223974279
  0
ARC
  5
6B4
  8
0
 10
3.9337443566677819
 20
6.1103828491627237
 30
0.0
 40
0.1371175641425676
 50
136.09624482862449
 51
178.99933208540861
  0
ARC
  5
6B5
  8
0
 10
12.232208571855629
 20
4.9521325639666331
 30
0.0
 40
8.5150328109725262
 50
172.1658886449878
 51
173.8200682872889
  0
ARC
  5
6B6
  8
0
 10
49.452381665549503
 20
0.9427570971097683
 30
0.0
 40
45.95052796212719
 50
173.84590179327961
 51
176.2116759193363
  0
ARC
  5
6B7
  8
0
 10
-6.7592563157688792
 20
4.3160635941274981
 30
0.0
 40
10.367003665251159
 50
355.70121210413151
 51
358.1353385522616
  0
ARC
  5
6B8
  8
0
 10
-9.0647651486045824
 20
6.8746380100140003
 30
0.0
 40
13.06466433749692
 50
0.8741043629401023
 51
2.4930983820347001
  0
ARC
  5
6B9
  8
0
 10
5.5939866169368182
 20
7.5085817449108569
 30
0.0
 40
1.607794150833415
 50
173.32285718793261
 51
182.339932591875
  0
ARC
  5
6BA
  8
0
 10
4.6355949969738983
 20
7.5875203222212297
 30
0.0
 40
0.6475162391120002
 50
141.31479199629891
 51
170.4500864692393
  0
ARC
  5
6BB
  8
0
 10
4.4043077579828829
 20
7.7636734603503212
 30
0.0
 40
0.3569421904903726
 50
88.598756602313614
 51
140.18140261926379
  0
LINE
  5
77A
  8
0
 10
5.4081211176000004
 20
0.6959396066074994
 30
0.0
 11
3.4179712792000001
 21
0.6959396291925025
 31
0.0
  0
LINE
  5
77B
  8
0
 10
3.4386837585539358
 20
0.735939628957449
 30
0.0
 11
5.3874086391539349
 21
0.7359396068425527
 31
0.0
  0
LINE
  5
77C
  8
0
 10
5.4073983281348887
 20
0.716637596615702
 30
0.0
 11
5.4081211176000004
 21
0.6959396066074994
 31
0.0
  0
LINE
  5
77E
  8
0
 10
5.113737839930236
 20
5.7565886958482757
 30
0.0
 11
5.071491006230235
 21
5.7565886963277091
 31
0.0
  0
LINE
  5
77F
  8
0
 10
5.11439933010349
 20
5.8687855442407688
 30
0.0
 11
5.0594335449034897
 21
5.868785546464542
 31
0.0
  0
ARC
  5
781
  8
0
 10
4.413046238758298
 20
5.4065887037999989
 30
0.0
 40
0.8050621094
 50
27.51552772698496
 51
35.041387094584977
  0
ARC
  5
782
  8
0
 10
5.3874105115269666
 20
0.7159396068425316
 30
0.0
 40
0.02
 50
1.999999349784968
 51
89.999999349785014
  0
ARC
  5
783
  8
0
 10
5.1137409958004616
 20
5.7715886958482399
 30
0.0
 40
0.015
 50
269.99999934978501
 51
27.51552772718496
  0
ARC
  5
785
  8
0
 10
5.3737097922667827
 20
0.7675570660255504
 30
0.0
 40
0.0316283056658814
 50
271.50058109444672
 51
359.79119951373309
  0
ARC
  5
786
  8
0
 10
453.2038764584043
 20
27.37440616023472
 30
0.0
 40
448.58829835839572
 50
182.76600989505479
 51
183.40035564362881
  0
ARC
  5
787
  8
0
 10
5.1082104322422914
 20
5.7265886830070887
 30
0.0
 40
0.0300000129039317
 50
0.3603584176686631
 51
89.999941008395979
  0
ARC
  5
788
  8
0
 10
5.113437680149663
 20
5.8930657643402569
 30
0.0
 40
0.024299256340746
 50
272.26808901743419
 51
5.5856412516456251
  0
ARC
  5
789
  8
0
 10
2.270356213752597
 20
5.366980333553645
 30
0.0
 40
2.9155566464357521
 50
10.4426955298681
 51
23.221304254790361
  0
ARC
  5
78A
  8
0
 10
7.1511908728814637
 20
7.435171190665482
 30
0.0
 40
2.3854481723723899
 50
196.09725880636501
 51
202.64990863741261
  0
ARC
  5
78B
  8
0
 10
7.6041423597162519
 20
7.214027361498192
 30
0.0
 40
2.77996037130068
 50
182.8883653136925
 51
189.11239442323691
  0
ARC
  5
78C
  8
0
 10
5.0946088284680613
 20
4.7553395178680891
 30
0.0
 40
0.0325121334904158
 50
315.63546678088647
 51
5.1690065025069067
  0
ARC
  5
78D
  8
0
 10
46.353304342981467
 20
8.6932620564134684
 30
0.0
 40
41.413684584565289
 50
183.4955544461323
 51
185.4522834334756
  0
ARC
  5
78E
  8
0
 10
4.8877292258228433
 20
4.9652215840808136
 30
0.0
 40
0.3272296563620234
 50
288.39547058202459
 51
314.53498166427619
  0
ARC
  5
78F
  8
0
 10
4.4716899594345003
 20
6.4890216281900868
 30
0.0
 40
1.9064010788033841
 50
268.23721832817239
 51
285.80715561831443
  0
ARC
  5
790
  8
0
 10
4.8020194898697177
 20
4.6714897487288187
 30
0.0
 40
0.0210255593497989
 50
301.41310883058901
 51
59.789333754011139
  0
ARC
  5
791
  8
0
 10
4.5872203478647062
 20
5.0873135437053429
 30
0.0
 40
0.4889999608705656
 50
270.55053345698951
 51
297.4950746802545
  0
ARC
  5
792
  8
0
 10
4.4314460478573601
 20
6.1553819907935914
 30
0.0
 40
1.565293347657515
 50
269.3264801019148
 51
275.88426392712182
  0
ARC
  5
793
  8
0
 10
4.584270240792506
 20
4.2454283883802848
 30
0.0
 40
0.4994752201269188
 50
62.797443724544351
 51
89.669759376665525
  0
ARC
  5
794
  8
0
 10
4.417207384459946
 20
2.894793385678204
 30
0.0
 40
1.8578905570348769
 50
84.751805010691697
 51
90.128326563829447
  0
ARC
  5
795
  8
0
 10
4.4060819006671803
 20
5.0256236467978539
 30
0.0
 40
0.4260313314507205
 50
271.30612640307311
 51
307.01974020607071
  0
ARC
  5
796
  8
0
 10
4.4593579118327309
 20
4.2144180225614489
 30
0.0
 40
0.5130224893734514
 50
66.662357680290725
 51
95.582512596472228
  0
ARC
  5
797
  8
0
 10
4.6550810670509888
 20
4.6689601349656087
 30
0.0
 40
0.018136138682625
 50
7.8736064577961962
 51
65.53761285949011
  0
ARC
  5
798
  8
0
 10
4.6522387158974521
 20
4.6750487148856097
 30
0.0
 40
0.0211173506917829
 50
292.54093325601599
 51
350.17310286318411
  0
ARC
  5
799
  8
0
 10
4.5427034949756804
 20
4.9015859327315416
 30
0.0
 40
0.2727145943009959
 50
274.32322395942811
 51
296.05727360491051
  0
ARC
  5
79A
  8
0
 10
4.4579698422995957
 20
5.4747851598574071
 30
0.0
 40
0.9045264082889939
 50
53.884547110042142
 51
92.846784313585076
  0
ARC
  5
79B
  8
0
 10
4.8923481015774479
 20
6.1103828437234178
 30
0.0
 40
0.1371175641425676
 50
1.000667264376319
 51
43.903754521160408
  0
ARC
  5
79C
  8
0
 10
-3.40611612675468
 20
4.9521326527015619
 30
0.0
 40
8.5150328109725262
 50
6.1799310624960526
 51
7.8341107047970997
  0
ARC
  5
79D
  8
0
 10
-40.626289265948529
 20
0.9427576082338615
 30
0.0
 40
45.95052796212719
 50
3.7883234304486231
 51
6.1540975565053202
  0
ARC
  5
79E
  8
0
 10
15.58534875365147
 20
4.3160634673398164
 30
0.0
 40
10.367003665251159
 50
181.8646607975233
 51
184.2987872456535
  0
ARC
  5
79F
  8
0
 10
17.890857615522879
 20
6.8746378570624964
 30
0.0
 40
13.06466433749692
 50
177.5069009677502
 51
179.1258949868448
  0
ARC
  5
7A0
  8
0
 10
3.2321058571757231
 20
7.5085817583126344
 30
0.0
 40
1.607794150833415
 50
357.66006675790999
 51
6.6771421618523661
  0
ARC
  5
7A1
  8
0
 10
4.1904974780344704
 20
7.5875203247468024
 30
0.0
 40
0.6475162391120002
 50
9.5499128805456284
 51
38.685207353486078
  0
ARC
  5
7A2
  8
0
 10
4.4217847190245401
 20
7.7636734602511543
 30
0.0
 40
0.3569421904903726
 50
39.818596730521151
 51
91.4012427474714
  0
ARC
  5
7C2
  8
0
 10
3.7201894994452291
 20
4.7471042252800322
 30
0.0
 40
0.0243799498270713
 50
101.086283075865
 51
148.14673427633201
  0
ARC
  5
7C3
  8
0
 10
4.37024390916587
 20
2.1197185533441232
 30
0.0
 40
2.7309587649180509
 50
89.101966756691368
 51
103.87167745565149
  0
ARC
  5
7C4
  8
0
 10
4.4561710552368794
 20
2.122555138508357
 30
0.0
 40
2.728127605772944
 50
76.120616011507764
 51
90.905740144812896
  0
ARC
  5
7C5
  8
0
 10
5.1066336154803897
 20
4.7486508305381916
 30
0.0
 40
0.0227255769286321
 50
27.458332603898128
 51
79.971712929039725
  0
ARC
  5
7C6
  8
0
 10
4.2648845343813457
 20
4.4251315701976681
 30
0.0
 40
0.3208142716072955
 50
94.638025825777149
 51
115.27142633858701
  0
ARC
  5
7C7
  8
0
 10
4.136759914719808
 20
4.6930460907883473
 30
0.0
 40
0.0238894539457081
 50
111.7004421528225
 51
175.618022161672
  0
ARC
  5
7C8
  8
0
 10
4.1679623729055324
 20
4.7071176776481654
 30
0.0
 40
0.0563684411639079
 50
192.54783375540219
 51
248.67916757261111
  0
ARC
  5
7C9
  8
0
 10
4.3369746890856806
 20
5.1772130085727017
 30
0.0
 40
0.5559045893754576
 50
250.06834485535609
 51
263.7053923279114
  0
ARC
  5
7CA
  8
0
 10
4.6595073617093341
 20
4.7072081733425986
 30
0.0
 40
0.0550450516728822
 50
296.99134247200902
 51
347.0487544812209
  0
ARC
  5
7CB
  8
0
 10
4.5241003744968022
 20
5.0168369382232472
 30
0.0
 40
0.3929054982638631
 50
274.22726875697049
 51
294.09268739278968
  0
ATTDEF
  5
975
  8
DEFPOINTS
 10
4.4062830609658006
 20
0.6879374745960467
 30
0.0
 40
0.001
  1
METAL
  3

  2
MATERIAL
 70
     0
1001
ACDBATTR
1070
     0
1070
     1
  0
ATTDEF
  5
976
  8
DEFPOINTS
 10
4.4062830609658006
 20
0.6896041412627119
 30
0.0
 40
0.001
  1
BATHROOM SINK FAUCET
  3

  2
PRODUCT
 70
     0
1001
ACDBATTR
1070
     0
1070
     1
  0
ATTDEF
  5
977
  8
DEFPOINTS
 10
4.4062830609658006
 20
0.691270807929377
 30
0.0
 40
0.001
  1
ALTEO
  3

  2
TRADENAME
 70
     0
1001
ACDBATTR
1070
     0
1070
     1
  0
ATTDEF
  5
978
  8
DEFPOINTS
 10
4.4062830609658006
 20
0.6929374745960422
 30
0.0
 40
0.001
  1
K-45800-4
  3

  2
MODELNUMBER
 70
     0
1001
ACDBATTR
1070
     0
1070
     1
  0
ENDSEC
  0
EOF
