  0
SECTION
  2
HEADER
  9
$ACADVER
  1
AC1009
  9
$INSBASE
 10
9.6666823870999998
 20
-1.7388912200999991
 30
0.0
  9
$EXTMIN
 10
9.1636729486699053
 20
-2.1788912200999988
 30
0.0
  9
$EXTMAX
 10
10.1666823871
 20
6.8351089716413478
 30
0.0
  9
$LIMMIN
 10
0.0
 20
0.0
  9
$LIMMAX
 10
11.692913385800001
 20
8.2677165353999982
  9
$ORTHOMODE
 70
     1
  9
$REGENMODE
 70
     1
  9
$FILLMODE
 70
     1
  9
$QTEXTMODE
 70
     0
  9
$MIRRTEXT
 70
     0
  9
$DRAGMODE
 70
     2
  9
$LTSCALE
 40
0.6431102362
  9
$OSMODE
 70
  3071
  9
$ATTMODE
 70
     1
  9
$TEXTSIZE
 40
0.2
  9
$TRACEWID
 40
0.05
  9
$TEXTSTYLE
  7
STANDARD
  9
$CLAYER
  8
0
  9
$CELTYPE
  6
BYLAYER
  9
$CECOLOR
 62
   256
  9
$DIMSCALE
 40
1.0
  9
$DIMASZ
 40
0.1875
  9
$DIMEXO
 40
0.0625
  9
$DIMDLI
 40
0.4443307087
  9
$DIMRND
 40
0.0
  9
$DIMDLE
 40
0.0
  9
$DIMEXE
 40
0.125
  9
$DIMTP
 40
0.01
  9
$DIMTM
 40
0.01
  9
$DIMTXT
 40
1.0
  9
$DIMCEN
 40
0.1052362205
  9
$DIMTSZ
 40
0.0
  9
$DIMTOL
 70
     1
  9
$DIMLIM
 70
     0
  9
$DIMTIH
 70
     1
  9
$DIMTOH
 70
     1
  9
$DIMSE1
 70
     0
  9
$DIMSE2
 70
     0
  9
$DIMTAD
 70
     0
  9
$DIMZIN
 70
     0
  9
$DIMBLK
  1

  9
$DIMASO
 70
     1
  9
$DIMSHO
 70
     1
  9
$DIMPOST
  1
\X
  9
$DIMAPOST
  1

  9
$DIMALT
 70
     1
  9
$DIMALTD
 70
     2
  9
$DIMALTF
 40
25.399999999999999
  9
$DIMLFAC
 40
1.0
  9
$DIMTOFL
 70
     0
  9
$DIMTVP
 40
0.0
  9
$DIMTIX
 70
     0
  9
$DIMSOXD
 70
     0
  9
$DIMSAH
 70
     0
  9
$DIMBLK1
  1

  9
$DIMBLK2
  1

  9
$DIMSTYLE
  2
STANDARD
  9
$DIMCLRD
 70
     0
  9
$DIMCLRE
 70
     0
  9
$DIMCLRT
 70
     0
  9
$DIMTFAC
 40
1.0
  9
$DIMGAP
 40
0.09
  9
$LUNITS
 70
     2
  9
$LUPREC
 70
     4
  9
$SKETCHINC
 40
0.1
  9
$FILLETRAD
 40
0.0
  9
$AUNITS
 70
     0
  9
$AUPREC
 70
     0
  9
$MENU
  1
.
  9
$ELEVATION
 40
0.0
  9
$PELEVATION
 40
0.0
  9
$THICKNESS
 40
0.0
  9
$LIMCHECK
 70
     0
  9
$BLIPMODE
 70
     0
  9
$CHAMFERA
 40
0.0
  9
$CHAMFERB
 40
0.0
  9
$SKPOLY
 70
     0
  9
$TDCREATE
 40
2457828.4877597219
  9
$TDUPDATE
 40
2457828.6427924312
  9
$TDINDWG
 40
0.1543390278
  9
$TDUSRTIMER
 40
0.1543390278
  9
$USRTIMER
 70
     1
  9
$ANGBASE
 50
0.0
  9
$ANGDIR
 70
     0
  9
$PDMODE
 70
     0
  9
$PDSIZE
 40
0.3125
  9
$PLINEWID
 40
0.0
  9
$COORDS
 70
     1
  9
$SPLFRAME
 70
     0
  9
$SPLINETYPE
 70
     6
  9
$SPLINESEGS
 70
     8
  9
$ATTDIA
 70
     1
  9
$ATTREQ
 70
     1
  9
$HANDLING
 70
     1
  9
$HANDSEED
  5
18E8
  9
$SURFTAB1
 70
     6
  9
$SURFTAB2
 70
     6
  9
$SURFTYPE
 70
     6
  9
$SURFU
 70
     6
  9
$SURFV
 70
     6
  9
$UCSNAME
  2

  9
$UCSORG
 10
0.0
 20
0.0
 30
0.0
  9
$UCSXDIR
 10
1.0
 20
0.0
 30
0.0
  9
$UCSYDIR
 10
0.0
 20
1.0
 30
0.0
  9
$PUCSNAME
  2

  9
$PUCSORG
 10
0.0
 20
0.0
 30
0.0
  9
$PUCSXDIR
 10
1.0
 20
0.0
 30
0.0
  9
$PUCSYDIR
 10
0.0
 20
1.0
 30
0.0
  9
$USERI1
 70
     0
  9
$USERI2
 70
     0
  9
$USERI3
 70
     0
  9
$USERI4
 70
     0
  9
$USERI5
 70
     0
  9
$USERR1
 40
0.0
  9
$USERR2
 40
0.0
  9
$USERR3
 40
0.0
  9
$USERR4
 40
0.0
  9
$USERR5
 40
0.0
  9
$WORLDVIEW
 70
     1
  9
$SHADEDGE
 70
     3
  9
$SHADEDIF
 70
    70
  9
$TILEMODE
 70
     1
  9
$MAXACTVP
 70
    64
  9
$PLIMCHECK
 70
     0
  9
$PEXTMIN
 10
1.0000000000000000E+020
 20
1.0000000000000000E+020
 30
1.0000000000000000E+020
  9
$PEXTMAX
 10
-1.0000000000000000E+020
 20
-1.0000000000000000E+020
 30
-1.0000000000000000E+020
  9
$PLIMMIN
 10
0.0
 20
0.0
  9
$PLIMMAX
 10
12.0
 20
9.0
  9
$UNITMODE
 70
     0
  9
$VISRETAIN
 70
     1
  9
$PLINEGEN
 70
     0
  9
$PSLTSCALE
 70
     1
  0
ENDSEC
  0
SECTION
  2
TABLES
  0
TABLE
  2
VPORT
 70
     1
  0
VPORT
  2
*ACTIVE
 70
     0
 10
0.0
 20
0.0
 11
1.0
 21
1.0
 12
0.0
 22
0.0
 13
0.0
 23
0.0
 14
1.0
 24
1.0
 15
0.0
 25
0.0
 16
-0.0000000000000053
 26
0.0
 36
21.450634696174831
 17
9.6651722767266861
 27
2.328108875770674
 37
0.0
 40
9.0696333453971381
 41
1.664490861618799
 42
50.0
 43
0.0
 44
0.0
 50
0.0
 51
0.0
 71
     0
 72
   100
 73
     1
 74
     1
 75
     0
 76
     0
 77
     0
 78
     0
  0
ENDTAB
  0
TABLE
  2
LTYPE
 70
     3
  0
LTYPE
  2
CONTINUOUS
 70
     0
  3
Solid line
 72
    65
 73
     0
 40
0.0
  0
LTYPE
  2
PHANTOM2
 70
     0
  3
___ _ _ ___ _ _ ___ _ _ ___ _ _
 72
    65
 73
     6
 40
1.25
 49
0.625
 49
-0.125
 49
0.125
 49
-0.125
 49
0.125
 49
-0.125
  0
ENDTAB
  0
TABLE
  2
LAYER
 70
     3
  0
LAYER
  2
0
 70
     0
 62
     7
  6
CONTINUOUS
  0
LAYER
  2
DEFPOINTS
 70
     0
 62
     7
  6
CONTINUOUS
  0
ENDTAB
  0
TABLE
  2
STYLE
 70
     1
  0
STYLE
  2
STANDARD
 70
     0
 40
0.0
 41
0.8
 50
0.0
 71
     0
 42
0.2
  3
txt
  4

  0
ENDTAB
  0
TABLE
  2
VIEW
 70
     0
  0
ENDTAB
  0
TABLE
  2
UCS
 70
     0
  0
ENDTAB
  0
TABLE
  2
APPID
 70
     7
  0
APPID
  2
ACAD
 70
     0
  0
APPID
  2
ACAD_NAV_VCDISPLAY
 70
     0
  0
APPID
  2
ACAD_EXEMPT_FROM_CAD_STANDARDS
 70
     0
  0
APPID
  2
ACAD_DSTYLE_DIMJAG
 70
     0
  0
APPID
  2
ACAD_DSTYLE_DIMTALN
 70
     0
  0
APPID
  2
ACAD_MLEADERVER
 70
     0
  0
APPID
  2
AcDbAttr
 70
     0
  0
ENDTAB
  0
TABLE
  2
DIMSTYLE
 70
     2
  0
DIMSTYLE
  2
STANDARD
 70
     0
  3

  4

  5

  6

  7

 40
1.0
 41
0.1875
 42
0.0625
 43
0.38
 44
0.125
 45
0.0
 46
0.0
 47
0.01
 48
0.01
140
0.15625
141
0.09
142
0.0
143
25.399999999999999
144
1.0
145
0.0
146
1.0
147
0.09
 71
     1
 72
     0
 73
     1
 74
     1
 75
     0
 76
     0
 77
     0
 78
     4
170
     0
171
     2
172
     0
173
     0
174
     0
175
     0
176
     0
177
     0
178
     0
  0
ENDTAB
  0
ENDSEC
  0
SECTION
  2
BLOCKS
  0
BLOCK
  8
0
  2
$MODEL_SPACE
 70
     0
 10
0.0
 20
0.0
 30
0.0
  3
$MODEL_SPACE
  1

  0
ENDBLK
  5
21
  8
0
  0
BLOCK
 67
     1
  8
0
  2
$PAPER_SPACE
 70
     0
 10
0.0
 20
0.0
 30
0.0
  3
$PAPER_SPACE
  1

  0
ENDBLK
  5
1D
 67
     1
  8
0
  0
ENDSEC
  0
SECTION
  2
ENTITIES
  0
LINE
  5
12A9
  8
0
 10
9.2086810447285732
 20
6.835108971622172
 30
0.0
 11
10.124683729471419
 21
6.8351089716413478
 31
0.0
  0
ARC
  5
12AA
  8
0
 10
10.124683729471419
 20
6.823109188989446
 30
0.0
 40
0.0119997826519018
 50
359.9980467063923
 51
89.999999999999545
  0
LINE
  5
12AB
  8
0
 10
10.136683512116351
 20
6.8231087799000001
 30
0.0
 11
10.13668126208364
 21
6.7571087799383527
 31
0.0
  0
ARC
  5
12AC
  8
0
 10
10.12468085257184
 20
6.7571091890491699
 30
0.0
 40
0.0120004095187745
 50
270.01488701085452
 51
359.9980467063923
  0
LINE
  5
12AD
  8
0
 10
10.136682399868871
 20
3.0771087799610992
 30
0.0
 11
10.136682399868871
 21
6.7331087799227447
 31
0.0
  0
ARC
  5
12AE
  8
0
 10
10.124642525734879
 20
6.7330689111236399
 30
0.0
 40
0.0120399401445131
 50
0.1897283599612317
 51
89.802771368821652
  0
LINE
  5
12AF
  8
0
 10
10.124683970606471
 20
6.745108779935471
 30
0.0
 11
9.2086808035935253
 21
6.7451087799162961
 31
0.0
  0
ARC
  5
12B0
  8
0
 10
9.2086810447285732
 20
6.8231091889702711
 30
0.0
 40
0.0119997826519018
 50
90.000000000000469
 51
180.00195329360761
  0
LINE
  5
12B1
  8
0
 10
9.1966812620836471
 20
6.8231087798808243
 30
0.0
 11
9.1966835121163566
 21
6.7571087799191769
 31
0.0
  0
ARC
  5
12B2
  8
0
 10
9.2086839216281575
 20
6.757109189029995
 30
0.0
 40
0.0120004095187745
 50
180.00195329360781
 51
269.98511298914559
  0
ARC
  5
12B4
  8
0
 10
9.2087224149212101
 20
6.7330689106900277
 30
0.0
 40
0.0120399411330877
 50
90.198020752450077
 51
179.8102697003693
  0
ARC
  5
12BE
  8
0
 10
10.124680140572361
 20
3.077111086310881
 30
0.0
 40
0.0120023065185104
 50
270.0048672810272
 51
359.98898950837008
  0
LINE
  5
12BF
  8
0
 10
10.0491823871
 20
3.065095145457184
 30
0.0
 11
10.0491823871
 21
3.062108779835679
 31
0.0
  0
ARC
  5
12C0
  8
0
 10
10.044182387099999
 20
3.062108779835679
 30
0.0
 40
0.0049999999999999
 50
270.0
 51
0.0
  0
LINE
  5
12C1
  8
0
 10
10.12668244686925
 20
3.0571087798356791
 30
0.0
 11
10.12673036276925
 21
3.017108779835679
 31
0.0
  0
LINE
  5
12C2
  8
0
 10
10.023833312400001
 20
3.017108779835679
 30
0.0
 11
10.023780951199999
 21
3.0111087798356788
 31
0.0
  0
LINE
  5
12CD
  8
0
 10
10.124681160169249
 20
3.0651087798356791
 30
0.0
 11
9.2086823870999996
 21
3.0651087799000001
 31
0.0
  0
ARC
  5
12CE
  8
0
 10
9.2086823871008416
 20
3.077108627201814
 30
0.0
 40
0.0119998473018148
 50
179.99927091059311
 51
269.99999999597838
  0
LINE
  5
12CF
  8
0
 10
9.2066823871000008
 20
3.0171087799
 30
0.0
 11
9.2066823871000008
 21
3.0571087799000001
 31
0.0
  0
LINE
  5
12D0
  8
0
 10
9.2066823871000008
 20
3.0571087799000001
 30
0.0
 11
10.126682387100001
 21
3.0571087799000001
 31
0.0
  0
LINE
  5
12D1
  8
0
 10
9.2066823871000008
 20
3.0171087799
 30
0.0
 11
10.126682387100001
 21
3.0171087799
 31
0.0
  0
LINE
  5
12D2
  8
0
 10
10.1366823871
 20
3.0111087798999998
 30
0.0
 11
10.1366823871
 21
2.8261087799000002
 31
0.0
  0
LINE
  5
12D3
  8
0
 10
10.1366823871
 20
-1.7388912201
 30
0.0
 11
9.1966823870999992
 21
-1.7388912200999991
 31
0.0
  0
ARC
  5
12D4
  8
0
 10
10.116679373249999
 20
-1.758891220100002
 30
0.0
 40
0.0200000000000023
 50
0.0000000000069972
 51
90.0
  0
LINE
  5
12D5
  8
0
 10
10.136679373250001
 20
-1.7588912200999991
 30
0.0
 11
10.136679373250001
 21
-1.8088912200999989
 31
0.0
  0
ARC
  5
12D6
  8
0
 10
10.11667937325001
 20
-1.808891220100002
 30
0.0
 40
0.0199999999999978
 50
269.99999999997448
 51
0.0000000000072262
  0
LINE
  5
12D7
  8
0
 10
10.116679373249999
 20
-1.8288912201
 30
0.0
 11
9.2166793732499972
 21
-1.8288912200995999
 31
0.0
  0
ARC
  5
12D8
  8
0
 10
10.046679373250001
 20
-1.848891220099999
 30
0.0
 40
0.02
 50
90.000000000002515
 51
180.0
  0
LINE
  5
12D9
  8
0
 10
10.026679373249999
 20
-1.848891220099999
 30
0.0
 11
10.026679373249999
 21
-1.9038912201
 31
0.0
  0
LINE
  5
12FC
  8
0
 10
9.1966823870999992
 20
3.0111087798999998
 30
0.0
 11
9.1966823870999992
 21
-1.7388912200999991
 31
0.0
  0
ARC
  5
12FD
  8
0
 10
9.2166793906108389
 20
-1.758891220100002
 30
0.0
 40
0.0200000000000023
 50
90.0
 51
179.99999999999301
  0
LINE
  5
12FE
  8
0
 10
9.1966793906108393
 20
-1.7588912200999991
 30
0.0
 11
9.1966793906108322
 21
-1.8088912200999989
 31
0.0
  0
ARC
  5
12FF
  8
0
 10
9.2166793906108282
 20
-1.808891220100002
 30
0.0
 40
0.0199999999999978
 50
179.99999999999281
 51
270.00000000002552
  0
ARC
  5
1300
  8
0
 10
9.2866793906108391
 20
-1.848891220099999
 30
0.0
 40
0.02
 50
0.000000000000007
 51
89.999999999997456
  0
LINE
  5
1301
  8
0
 10
9.3066793906108387
 20
-1.848891220099999
 30
0.0
 11
9.3066793906108387
 21
-1.9038912201
 31
0.0
  0
LINE
  5
132E
  8
0
 10
9.3066823871000004
 20
-2.1788912200999988
 30
0.0
 11
9.2951485424000015
 21
-2.167356993099999
 31
0.0
  0
LINE
  5
132F
  8
0
 10
9.2951485424000015
 20
-2.167356993099999
 30
0.0
 11
9.3027305451000011
 21
-2.1630700429999998
 31
0.0
  0
LINE
  5
1330
  8
0
 10
9.3027305451000011
 20
-2.1630700429999998
 30
0.0
 11
9.3027305451000011
 21
-2.1518607711999991
 31
0.0
  0
LINE
  5
1331
  8
0
 10
9.3027305451000011
 20
-2.1518607711999991
 30
0.0
 11
9.2569823871000008
 21
-2.1277051650000001
 31
0.0
  0
LINE
  5
1332
  8
0
 10
9.2569823871000008
 20
-2.1277051650000001
 30
0.0
 11
9.2569823871000008
 21
-2.1157964147000001
 31
0.0
  0
LINE
  5
1333
  8
0
 10
9.2569823871000008
 20
-2.1157964147000001
 30
0.0
 11
9.3027304990000008
 21
-2.0916401969999998
 31
0.0
  0
LINE
  5
1334
  8
0
 10
9.3027304990000008
 20
-2.0916401969999998
 30
0.0
 11
9.3027304990000008
 21
-2.0804315807
 31
0.0
  0
LINE
  5
1335
  8
0
 10
9.3027304990000008
 20
-2.0804315807
 30
0.0
 11
9.2569823895999992
 21
-2.0562761052999989
 31
0.0
  0
LINE
  5
1336
  8
0
 10
9.2569823895999992
 20
-2.0562761052999989
 30
0.0
 11
9.2569823871000008
 21
-2.044366571099999
 31
0.0
  0
LINE
  5
1337
  8
0
 10
9.2569823871000008
 20
-2.044366571099999
 30
0.0
 11
9.3027306959000011
 21
-2.0202114945071621
 31
0.0
  0
LINE
  5
1338
  8
0
 10
9.3027306959000011
 20
-2.0202114945071621
 30
0.0
 11
9.3027306959000011
 21
-2.0090022307999988
 31
0.0
  0
LINE
  5
1339
  8
0
 10
9.3027306959000011
 20
-2.0090022307999988
 30
0.0
 11
9.2570274491071451
 21
-1.984678269797856
 31
0.0
  0
LINE
  5
133A
  8
0
 10
9.2570274491071451
 20
-1.984678269797856
 30
0.0
 11
9.2569823871000008
 21
-1.972937751199999
 31
0.0
  0
LINE
  5
133B
  8
0
 10
9.2569823871000008
 20
-1.972937751199999
 30
0.0
 11
9.3027309510999991
 21
-1.948781743999999
 31
0.0
  0
LINE
  5
133C
  8
0
 10
9.3027309510999991
 20
-1.948781743999999
 30
0.0
 11
9.3027309510999991
 21
-1.937573331599999
 31
0.0
  0
LINE
  5
133D
  8
0
 10
9.3027309510999991
 20
-1.937573331599999
 30
0.0
 11
9.2835972483999996
 21
-1.9275960314
 31
0.0
  0
LINE
  5
133E
  8
0
 10
9.2835972483999996
 20
-1.9275960314
 30
0.0
 11
9.3066823871000004
 21
-1.9038912201
 31
0.0
  0
LINE
  5
133F
  8
0
 10
9.3066823871000004
 20
-1.9038912201
 30
0.0
 11
10.0266763594
 21
-1.9038912201
 31
0.0
  0
LINE
  5
1340
  8
0
 10
10.0266763594
 20
-1.9038912201
 30
0.0
 11
10.030634280399999
 21
-1.9078431885999989
 31
0.0
  0
LINE
  5
1341
  8
0
 10
10.030634280399999
 20
-1.9078431885999989
 30
0.0
 11
10.030634280399999
 21
-1.9130678518999991
 31
0.0
  0
LINE
  5
1342
  8
0
 10
10.030634280399999
 20
-1.9130678518999991
 30
0.0
 11
10.0422444177418
 21
-1.9194532507418001
 31
0.0
  0
LINE
  5
1343
  8
0
 10
10.0422444177418
 20
-1.9194532507418001
 30
0.0
 11
10.073450044299999
 21
-1.9506588773
 31
0.0
  0
LINE
  5
1344
  8
0
 10
10.073450044299999
 20
-1.9506588773
 30
0.0
 11
10.030633331700001
 21
-1.9732880815999989
 31
0.0
  0
LINE
  5
1345
  8
0
 10
10.030633331700001
 20
-1.9732880815999989
 30
0.0
 11
10.030633331700001
 21
-1.9844962326
 31
0.0
  0
LINE
  5
1346
  8
0
 10
10.030633331700001
 20
-1.9844962326
 30
0.0
 11
10.07633731711659
 21
-2.0088206887251712
 31
0.0
  0
LINE
  5
1347
  8
0
 10
10.07633731711659
 20
-2.0088206887251712
 30
0.0
 11
10.076382387100001
 21
-2.020561509999999
 31
0.0
  0
LINE
  5
1348
  8
0
 10
10.076382387100001
 20
-2.020561509999999
 30
0.0
 11
10.0306343073
 21
-2.044716983499999
 31
0.0
  0
LINE
  5
1349
  8
0
 10
10.0306343073
 20
-2.044716983499999
 30
0.0
 11
10.0306343073
 21
-2.0559262918999992
 31
0.0
  0
LINE
  5
134A
  8
0
 10
10.0306343073
 20
-2.0559262918999992
 30
0.0
 11
10.0758007651
 21
-2.079475309899999
 31
0.0
  0
LINE
  5
134B
  8
0
 10
10.0758007651
 20
-2.079475309899999
 30
0.0
 11
10.076092095950001
 21
-2.0922933153500001
 31
0.0
  0
LINE
  5
134C
  8
0
 10
10.076092095950001
 20
-2.0922933153500001
 30
0.0
 11
10.0306342474
 21
-2.1161461786999989
 31
0.0
  0
LINE
  5
134D
  8
0
 10
10.0306342474
 20
-2.1161461786999989
 30
0.0
 11
10.0306342474
 21
-2.1273552568999992
 31
0.0
  0
LINE
  5
134E
  8
0
 10
10.0306342474
 20
-2.1273552568999992
 30
0.0
 11
10.061704276031371
 21
-2.1438693311686281
 31
0.0
  0
LINE
  5
134F
  8
0
 10
10.061704276031371
 20
-2.1438693311686281
 30
0.0
 11
10.026682387099999
 21
-2.1788912200999988
 31
0.0
  0
LINE
  5
1350
  8
0
 10
9.3066823871000004
 20
-2.1788912200999988
 30
0.0
 11
10.026682387099999
 21
-2.1788912200999988
 31
0.0
  0
LINE
  5
1351
  8
0
 10
9.3027305451000011
 20
-2.1518607711999991
 30
0.0
 11
10.0306342474
 21
-2.1161461786999989
 31
0.0
  0
LINE
  5
1352
  8
0
 10
10.0306343073
 20
-2.044716983499999
 30
0.0
 11
9.3027304990000008
 21
-2.0804315807
 31
0.0
  0
LINE
  5
1353
  8
0
 10
9.3027306959000011
 20
-2.0090022307999988
 30
0.0
 11
10.030633331700001
 21
-1.9732880815999989
 31
0.0
  0
LINE
  5
1354
  8
0
 10
9.3027309510999991
 20
-1.937573331599999
 30
0.0
 11
10.030634280399999
 21
-1.9130678518999991
 31
0.0
  0
LINE
  5
13A1
  8
0
 10
10.1366823871
 20
3.0111087798999998
 30
0.0
 11
9.1966823870999992
 21
3.0111087798999998
 31
0.0
  0
LINE
  5
13A2
  8
0
 10
9.2841823870999995
 20
3.065095145457184
 30
0.0
 11
9.2841823870999995
 21
3.062108779835679
 31
0.0
  0
ARC
  5
13A3
  8
0
 10
9.2891823870999986
 20
3.062108779835679
 30
0.0
 40
0.0049999999999999
 50
180.0
 51
270.0
  0
LINE
  5
13A4
  8
0
 10
9.3095314617999971
 20
3.017108779835679
 30
0.0
 11
9.3095838229999988
 21
3.0111087798356788
 31
0.0
  0
LINE
  5
13F1
  8
0
 10
9.2137157779999992
 20
6.2525079220000004
 30
0.0
 11
9.199627956093229
 21
6.252137127645641
 31
0.0
  0
ARC
  5
13F2
  8
0
 10
9.1998962285386856
 20
6.2419444847705359
 30
0.0
 40
0.0101961727566976
 50
91.507688549362214
 51
163.4525464739985
  0
ARC
  5
13F3
  8
0
 10
9.5695786109247827
 20
6.1733203095747733
 30
0.0
 40
0.3861390131451992
 50
169.32491253315149
 51
177.77409594616
  0
ARC
  5
13F4
  8
0
 10
9.1944417718647653
 20
6.1867613999933262
 30
0.0
 40
0.0108233048586062
 50
171.7322223352549
 51
255.46185726814849
  0
LINE
  5
13F5
  8
0
 10
9.1917248576056139
 20
6.1762846493056971
 30
0.0
 11
9.2167558052378578
 21
6.1702339469999998
 31
0.0
  0
ARC
  5
13F6
  8
0
 10
9.026139163853216
 20
6.2043690334432053
 30
0.0
 40
0.1936552058543832
 50
349.847582573144
 51
14.393523473253291
  0
LINE
  5
13F7
  8
0
 10
9.1966825060788437
 20
6.1528622271994893
 30
0.0
 11
9.1789930986820334
 21
6.152244499446188
 31
0.0
  0
ARC
  5
13F8
  8
0
 10
9.1793420935247614
 20
6.1422505953040458
 30
0.0
 40
0.009999995870128
 50
92.000000113711707
 51
174.5001107090882
  0
LINE
  5
13F9
  8
0
 10
9.1693881338000001
 20
6.1432090331999989
 30
0.0
 11
9.1639767491039326
 21
6.0870085161427356
 31
0.0
  0
ARC
  5
13FA
  8
0
 10
9.1739307691253451
 20
6.0860500724409921
 30
0.0
 40
0.0100000564456454
 50
174.50011070908789
 51
256.99906512924912
  0
LINE
  5
13FB
  8
0
 10
9.1716810869000014
 20
6.0763063534999997
 30
0.0
 11
9.1966825012943136
 21
6.0705338925010777
 31
0.0
  0
LINE
  5
13FC
  8
0
 10
9.2467365587000003
 20
6.1532201436999996
 30
0.0
 11
9.2185866843999982
 21
6.1522491310999987
 31
0.0
  0
ARC
  5
13FD
  8
0
 10
9.2189690726262121
 20
6.1414656452958036
 30
0.0
 40
0.0107902635206387
 50
92.030888301251125
 51
168.22752496817279
  0
ARC
  5
13FE
  8
0
 10
9.4313702969430366
 20
6.0926048309306973
 30
0.0
 40
0.2287368278099831
 50
167.100826697282
 51
180.563585915902
  0
ARC
  5
13FF
  8
0
 10
9.2151575946450404
 20
6.088376543653613
 30
0.0
 40
0.0126684890079716
 50
171.01565324487399
 51
252.15445300651999
  0
LINE
  5
1400
  8
0
 10
9.2112753095999995
 20
6.0763175852999991
 30
0.0
 11
9.2531355496239058
 21
6.0666283892944657
 31
0.0
  0
ARC
  5
1401
  8
0
 10
9.1593265207525061
 20
6.1032283681761736
 30
0.0
 40
0.1006960394156945
 50
338.68655226793129
 51
29.76621461956746
  0
LINE
  5
1408
  8
0
 10
9.2147279323961975
 20
6.0530414614998334
 30
0.0
 11
9.1989741174000006
 21
6.052351451299999
 31
0.0
  0
ARC
  5
1409
  8
0
 10
9.1994196071247405
 20
6.0421803513540242
 30
0.0
 40
0.0101808513988701
 50
92.507927141076806
 51
163.6532343127725
  0
ARC
  5
140A
  8
0
 10
9.5638232624006534
 20
5.980642729709098
 30
0.0
 40
0.379675057659363
 50
170.2338853816691
 51
178.6999147823671
  0
ARC
  5
140B
  8
0
 10
9.1951384625825874
 20
5.9871249195190472
 30
0.0
 40
0.0110992444906817
 50
168.9245075724539
 51
255.69786270072089
  0
LINE
  5
140C
  8
0
 10
9.1923965589477596
 20
5.976369679274347
 30
0.0
 11
9.2161384771999995
 21
5.9710711521000004
 31
0.0
  0
ARC
  5
140D
  8
0
 10
9.0233109312420083
 20
6.008750267330667
 30
0.0
 40
0.1964743703687417
 50
348.94353851649868
 51
13.028158062638781
  0
LINE
  5
140E
  8
0
 10
9.1966824944984982
 20
5.9535970100278481
 30
0.0
 11
9.1789773104151831
 21
5.9529787313404832
 31
0.0
  0
ARC
  5
140F
  8
0
 10
9.179326305257911
 20
5.9429848271983401
 30
0.0
 40
0.009999995870128
 50
92.000000113711693
 51
174.5001107090882
  0
LINE
  5
1410
  8
0
 10
9.1693723455331497
 20
5.943943265094294
 30
0.0
 11
9.1639609608370822
 21
5.8877427480370299
 31
0.0
  0
ARC
  5
1411
  8
0
 10
9.1739149808584948
 20
5.8867843043352872
 30
0.0
 40
0.0100000564456454
 50
174.50011070908789
 51
256.99906512924912
  0
LINE
  5
1412
  8
0
 10
9.1716652986331511
 20
5.877040585394294
 30
0.0
 11
9.1966824897137265
 21
5.8712644817892103
 31
0.0
  0
LINE
  5
1413
  8
0
 10
9.2475778054753128
 20
5.9540265156154106
 30
0.0
 11
9.2194279311753107
 21
5.9530555030154098
 31
0.0
  0
ARC
  5
1414
  8
0
 10
9.2198103194015264
 20
5.9422720172112147
 30
0.0
 40
0.0107902635206387
 50
92.03088830125111
 51
168.22752496817279
  0
ARC
  5
1415
  8
0
 10
9.4322115437183491
 20
5.8934112028461083
 30
0.0
 40
0.2287368278099831
 50
167.100826697282
 51
180.563585915902
  0
ARC
  5
1416
  8
0
 10
9.2159988414203529
 20
5.8891829155690241
 30
0.0
 40
0.0126684890079716
 50
171.01565324487399
 51
252.15445300651999
  0
LINE
  5
1417
  8
0
 10
9.212116556375312
 20
5.877123957215411
 30
0.0
 11
9.2539767963992183
 21
5.8674347612098767
 31
0.0
  0
ARC
  5
1418
  8
0
 10
9.1601677675278186
 20
5.9040347400915847
 30
0.0
 40
0.1006960394156945
 50
338.68655226793129
 51
29.76621461956746
  0
LINE
  5
1419
  8
0
 10
9.2146581664786904
 20
5.8537263417037391
 30
0.0
 11
9.1989043514824935
 21
5.8530363315039056
 31
0.0
  0
ARC
  5
141A
  8
0
 10
9.1993498412072334
 20
5.8428652315579299
 30
0.0
 40
0.0101808513988701
 50
92.507927141076763
 51
163.6532343127725
  0
ARC
  5
141B
  8
0
 10
9.5637534964831463
 20
5.7813276099130038
 30
0.0
 40
0.379675057659363
 50
170.2338853816691
 51
178.6999147823671
  0
ARC
  5
141C
  8
0
 10
9.1950686966650803
 20
5.787809799722953
 30
0.0
 40
0.0110992444906817
 50
168.9245075724539
 51
255.69786270072089
  0
LINE
  5
141D
  8
0
 10
9.1923267930302526
 20
5.7770545594782527
 30
0.0
 11
9.2160687112824924
 21
5.7717560323039061
 31
0.0
  0
ARC
  5
141E
  8
0
 10
9.0232411653245013
 20
5.8094351475345736
 30
0.0
 40
0.1964743703687417
 50
348.94353851649868
 51
13.028158062638781
  0
LINE
  5
141F
  8
0
 10
9.1966824829179252
 20
5.7543277604742347
 30
0.0
 11
9.1789013914980764
 21
5.7537068310441191
 31
0.0
  0
ARC
  5
1420
  8
0
 10
9.1792503863408044
 20
5.7437129269019769
 30
0.0
 40
0.009999995870128
 50
92.000000113711693
 51
174.5001107090882
  0
LINE
  5
1421
  8
0
 10
9.169296426616043
 20
5.7446713647979299
 30
0.0
 11
9.1638850419199755
 21
5.6884708477406667
 31
0.0
  0
ARC
  5
1422
  8
0
 10
9.1738390619413881
 20
5.6875124040389231
 30
0.0
 40
0.0100000564456454
 50
174.50011070908789
 51
256.99906512924912
  0
LINE
  5
1423
  8
0
 10
9.1715893797160444
 20
5.6777686850979308
 30
0.0
 11
9.1966824781319811
 21
5.67197505559907
 31
0.0
  0
LINE
  5
1424
  8
0
 10
9.2459369018494684
 20
5.7553623786107231
 30
0.0
 11
9.2177870275494662
 21
5.7543913660107231
 31
0.0
  0
ARC
  5
1425
  8
0
 10
9.2181694157756802
 20
5.743607880206528
 30
0.0
 40
0.0107902635206387
 50
92.03088830125111
 51
168.22752496817279
  0
ARC
  5
1426
  8
0
 10
9.4305706400925047
 20
5.6947470658414199
 30
0.0
 40
0.2287368278099831
 50
167.100826697282
 51
180.563585915902
  0
ARC
  5
1427
  8
0
 10
9.2143579377945084
 20
5.6905187785643356
 30
0.0
 40
0.0126684890079716
 50
171.01565324487399
 51
252.15445300651999
  0
LINE
  5
1428
  8
0
 10
9.2104756527494676
 20
5.6784598202107226
 30
0.0
 11
9.2523358927733739
 21
5.6687706242051901
 31
0.0
  0
ARC
  5
1429
  8
0
 10
9.1585268639019741
 20
5.705370603086898
 30
0.0
 40
0.1006960394156945
 50
338.68655226793129
 51
29.76621461956746
  0
LINE
  5
142A
  8
0
 10
9.2164175231961956
 20
5.654669537499835
 30
0.0
 11
9.2006637081999987
 21
5.6539795273000006
 31
0.0
  0
ARC
  5
142B
  8
0
 10
9.2011091979247386
 20
5.643808427354025
 30
0.0
 40
0.0101808513988701
 50
92.507927141076806
 51
163.6532343127725
  0
ARC
  5
142C
  8
0
 10
9.5655128532006515
 20
5.5822708057090988
 30
0.0
 40
0.379675057659363
 50
170.2338853816691
 51
178.6999147823671
  0
ARC
  5
142D
  8
0
 10
9.1968280533825855
 20
5.588752995519048
 30
0.0
 40
0.0110992444906817
 50
168.9245075724539
 51
255.69786270072089
  0
LINE
  5
142E
  8
0
 10
9.1940861497477577
 20
5.5779977552743478
 30
0.0
 11
9.2178280679999975
 21
5.5726992281000021
 31
0.0
  0
ARC
  5
142F
  8
0
 10
9.0250005220420064
 20
5.6103783433306686
 30
0.0
 40
0.1964743703687417
 50
348.94353851649868
 51
13.028158062638781
  0
LINE
  5
1430
  8
0
 10
9.1966824713478452
 20
5.5552391723145824
 30
0.0
 11
9.1820060152820311
 21
5.5547266591461897
 31
0.0
  0
ARC
  5
1431
  8
0
 10
9.1823550101247591
 20
5.5447327550040484
 30
0.0
 40
0.009999995870128
 50
92.000000113711707
 51
174.5001107090882
  0
LINE
  5
1432
  8
0
 10
9.1724010503999978
 20
5.5456911929000006
 30
0.0
 11
9.1669896657039303
 21
5.4894906758427382
 31
0.0
  0
ARC
  5
1433
  8
0
 10
9.1769436857253428
 20
5.4885322321409937
 30
0.0
 40
0.0100000564456454
 50
174.50011070908789
 51
256.99906512924912
  0
LINE
  5
1434
  8
0
 10
9.1746940034999991
 20
5.4787885132000023
 30
0.0
 11
9.1966824666098592
 21
5.4737116985955954
 31
0.0
  0
LINE
  5
1435
  8
0
 10
9.249749475299998
 20
5.5557023034000022
 30
0.0
 11
9.2215996009999959
 21
5.5547312908000013
 31
0.0
  0
ARC
  5
1436
  8
0
 10
9.2219819892262116
 20
5.5439478049958062
 30
0.0
 40
0.0107902635206387
 50
92.03088830125111
 51
168.22752496817279
  0
ARC
  5
1437
  8
0
 10
9.4343832135430343
 20
5.4950869906306981
 30
0.0
 40
0.2287368278099831
 50
167.100826697282
 51
180.563585915902
  0
ARC
  5
1438
  8
0
 10
9.2181705112450381
 20
5.4908587033536138
 30
0.0
 40
0.0126684890079716
 50
171.01565324487399
 51
252.15445300651999
  0
LINE
  5
1439
  8
0
 10
9.2142882261999972
 20
5.4787997450000008
 30
0.0
 11
9.2561484662239035
 21
5.4691105489944682
 31
0.0
  0
ARC
  5
143A
  8
0
 10
9.1623394373525038
 20
5.5057105278761762
 30
0.0
 40
0.1006960394156945
 50
338.68655226793129
 51
29.76621461956746
  0
LINE
  5
143B
  8
0
 10
9.2150795041333016
 20
5.4547139052154794
 30
0.0
 11
9.1970084725000003
 21
5.4529267773000001
 31
0.0
  0
ARC
  5
143C
  8
0
 10
9.1980520921181501
 20
5.4427001830407802
 30
0.0
 40
0.0102797068075941
 50
95.82683880527135
 51
168.16879075672941
  0
ARC
  5
143D
  8
0
 10
9.4938693358571928
 20
5.4037555254431897
 30
0.0
 40
0.3086211089277341
 50
172.3559486757446
 51
183.11479805799419
  0
ARC
  5
143E
  8
0
 10
9.1962453104193926
 20
5.3870541585713703
 30
0.0
 40
0.0105413681114761
 50
180.37008434114139
 51
259.62023896309671
  0
LINE
  5
143F
  8
0
 10
9.1943460542000004
 20
5.3766852980999991
 30
0.0
 11
9.2158713295499997
 21
5.37286449555
 31
0.0
  0
ARC
  5
1440
  8
0
 10
9.0088903918219962
 20
5.4117906608946207
 30
0.0
 40
0.2106094844463377
 50
349.34899629270541
 51
11.75954781093256
  0
LINE
  5
1441
  8
0
 10
9.2503084538000007
 20
5.3566405499999989
 30
0.0
 11
9.2159661280306988
 21
5.3530115726989207
 31
0.0
  0
ARC
  5
1442
  8
0
 10
9.2170821565816023
 20
5.3424501905564652
 30
0.0
 40
0.0106201842020479
 50
96.032099024491075
 51
166.1832825539349
  0
ARC
  5
1443
  8
0
 10
9.4175865660788638
 20
5.308881498981993
 30
0.0
 40
0.2138866537817813
 50
170.28169877697241
 51
185.9105779034555
  0
ARC
  5
1444
  8
0
 10
9.2160940783238985
 20
5.2878538648016997
 30
0.0
 40
0.0113012232565002
 50
185.06427561136931
 51
259.15941165115788
  0
LINE
  5
1445
  8
0
 10
9.2139685767999993
 20
5.2767543202000002
 30
0.0
 11
9.2509821585999994
 21
5.2708713131999989
 31
0.0
  0
ARC
  5
1446
  8
0
 10
9.1545803772431711
 20
5.3130013556452127
 30
0.0
 40
0.1052057219223615
 50
336.39344250138203
 51
24.506638909647918
  0
LINE
  5
1447
  8
0
 10
9.1966824597190797
 20
5.3551406605823662
 30
0.0
 11
9.1763726535994419
 21
5.3530127904786822
 31
0.0
  0
ARC
  5
1448
  8
0
 10
9.1774142636644491
 20
5.3430709719269123
 30
0.0
 40
0.0099962346733078
 50
95.981091006628986
 51
178.51902014432511
  0
LINE
  5
1449
  8
0
 10
9.1674213681363472
 20
5.3433293255765282
 30
0.0
 11
9.165962142641046
 21
5.2868877465697368
 31
0.0
  0
ARC
  5
144A
  8
0
 10
9.1759654582479282
 20
5.2866291235221903
 30
0.0
 40
0.0100066582339768
 50
178.51902014433259
 51
260.85828311867982
  0
LINE
  5
144B
  8
0
 10
9.1743756308256348
 20
5.2767495659521888
 30
0.0
 11
9.1966824549547503
 21
5.2731599314515067
 31
0.0
  0
LINE
  5
144C
  8
0
 10
9.2151937715221575
 20
5.2552454826911186
 30
0.0
 11
9.1963469092999972
 21
5.2530955645999988
 31
0.0
  0
ARC
  5
144D
  8
0
 10
9.1976922463284687
 20
5.2427028443923414
 30
0.0
 40
0.0104794353395039
 50
97.375917720855895
 51
173.75627282123361
  0
ARC
  5
144E
  8
0
 10
9.5545697381187011
 20
5.2094598979558944
 30
0.0
 40
0.3689005460798102
 50
174.6520946813429
 51
183.7650804002246
  0
ARC
  5
144F
  8
0
 10
9.1966050692013575
 20
5.1869848878755
 30
0.0
 40
0.0102894288396655
 50
189.78738946842361
 51
262.01013466369818
  0
LINE
  5
1450
  8
0
 10
9.1951748598202574
 20
5.1767953419105037
 30
0.0
 11
9.2158359422
 21
5.1737046576000001
 31
0.0
  0
ARC
  5
1451
  8
0
 10
9.0223847538205337
 20
5.2129540837066468
 30
0.0
 40
0.1973927043614551
 50
348.53090764644548
 51
12.37153377166805
  0
LINE
  5
1452
  8
0
 10
9.2508764546401743
 20
5.1575616590926563
 30
0.0
 11
9.2165341288708724
 21
5.153932681791578
 31
0.0
  0
ARC
  5
1453
  8
0
 10
9.2176501574217742
 20
5.1433712996491208
 30
0.0
 40
0.0106201842020479
 50
96.032099024491075
 51
166.1832825539349
  0
ARC
  5
1454
  8
0
 10
9.4181545669190374
 20
5.1098026080746504
 30
0.0
 40
0.2138866537817813
 50
170.28169877697241
 51
185.9105779034555
  0
ARC
  5
1455
  8
0
 10
9.2166620791640721
 20
5.0887749738943571
 30
0.0
 40
0.0113012232565002
 50
185.06427561136931
 51
259.15941165115788
  0
LINE
  5
1456
  8
0
 10
9.2145365776401729
 20
5.0776754292926558
 30
0.0
 11
9.251550159440173
 21
5.0717924222926563
 31
0.0
  0
ARC
  5
1457
  8
0
 10
9.1551483780833447
 20
5.11392246473787
 30
0.0
 40
0.1052057219223615
 50
336.39344250138203
 51
24.506638909647918
  0
LINE
  5
1458
  8
0
 10
9.1966824481391676
 20
5.1558828939058898
 30
0.0
 11
9.1762938206804936
 21
5.1537467656450451
 31
0.0
  0
ARC
  5
1459
  8
0
 10
9.1773354307455008
 20
5.1438049470932752
 30
0.0
 40
0.0099962346733078
 50
95.981091006628944
 51
178.51902014432511
  0
LINE
  5
145A
  8
0
 10
9.1673425352173972
 20
5.1440633007428911
 30
0.0
 11
9.1658833097220977
 21
5.0876217217360997
 31
0.0
  0
ARC
  5
145B
  8
0
 10
9.1758866253289781
 20
5.0873630986885532
 30
0.0
 40
0.0100066582339768
 50
178.51902014433259
 51
260.85828311867982
  0
LINE
  5
145C
  8
0
 10
9.1742967979066865
 20
5.0774835411185517
 30
0.0
 11
9.1966824433736232
 21
5.0738812226162402
 31
0.0
  0
LINE
  5
145D
  8
0
 10
9.2155645728999982
 20
5.0557254364999986
 30
0.0
 11
9.1967177106778415
 21
5.0535755184088789
 31
0.0
  0
ARC
  5
145E
  8
0
 10
9.1980630477063112
 20
5.0431827982012214
 30
0.0
 40
0.0104794353395039
 50
97.375917720855881
 51
173.75627282123361
  0
ARC
  5
145F
  8
0
 10
9.5549405394965436
 20
5.0099398517647744
 30
0.0
 40
0.3689005460798102
 50
174.6520946813429
 51
183.7650804002246
  0
ARC
  5
1460
  8
0
 10
9.1969758705791982
 20
4.9874648416843801
 30
0.0
 40
0.0102894288396655
 50
189.78738946842361
 51
262.01013466369818
  0
LINE
  5
1461
  8
0
 10
9.1955456611980981
 20
4.9772752957193838
 30
0.0
 11
9.2162067435778425
 21
4.9741846114088801
 31
0.0
  0
ARC
  5
1462
  8
0
 10
9.0227555551983762
 20
5.0134340375155269
 30
0.0
 40
0.1973927043614551
 50
348.53090764644548
 51
12.37153377166805
  0
LINE
  5
1463
  8
0
 10
9.2503770903945828
 20
4.9576109458427027
 30
0.0
 11
9.2160347646252792
 21
4.9539819685416253
 31
0.0
  0
ARC
  5
1464
  8
0
 10
9.2171507931761845
 20
4.943420586399168
 30
0.0
 40
0.0106201842020479
 50
96.032099024491075
 51
166.1832825539349
  0
ARC
  5
1465
  8
0
 10
9.4176552026734441
 20
4.9098518948246967
 30
0.0
 40
0.2138866537817813
 50
170.28169877697241
 51
185.9105779034555
  0
ARC
  5
1466
  8
0
 10
9.2161627149184806
 20
4.8888242606444043
 30
0.0
 40
0.0113012232565002
 50
185.06427561136931
 51
259.15941165115788
  0
LINE
  5
1467
  8
0
 10
9.2140372133945814
 20
4.8777247160427031
 30
0.0
 11
9.2510507951945815
 21
4.8718417090427026
 31
0.0
  0
ARC
  5
1468
  8
0
 10
9.1546490138377532
 20
4.9139717514879173
 30
0.0
 40
0.1052057219223615
 50
336.39344250138203
 51
24.506638909647918
  0
LINE
  5
1469
  8
0
 10
9.1966824365289668
 20
4.956103862899818
 30
0.0
 11
9.1764412901940222
 21
4.953983186321385
 31
0.0
  0
ARC
  5
146A
  8
0
 10
9.1774829002590312
 20
4.944041367769616
 30
0.0
 40
0.0099962346733078
 50
95.981091006628944
 51
178.51902014432511
  0
LINE
  5
146B
  8
0
 10
9.1674900047309293
 20
4.944299721419231
 30
0.0
 11
9.1660307792356281
 21
4.8878581424124414
 31
0.0
  0
ARC
  5
146C
  8
0
 10
9.1760340948425103
 20
4.887599519364894
 30
0.0
 40
0.0100066582339768
 50
178.51902014433259
 51
260.85828311867982
  0
LINE
  5
146D
  8
0
 10
9.1744442674202151
 20
4.8777199617948934
 30
0.0
 11
9.1966824317656961
 21
4.8741413760892671
 31
0.0
  0
LINE
  5
146E
  8
0
 10
9.2149222295847704
 20
4.8560329702831453
 30
0.0
 11
9.1960753673626119
 21
4.8538830521920246
 31
0.0
  0
ARC
  5
146F
  8
0
 10
9.1974207043910816
 20
4.8434903319843672
 30
0.0
 40
0.0104794353395039
 50
97.375917720855881
 51
173.75627282123361
  0
ARC
  5
1470
  8
0
 10
9.554298196181314
 20
4.8102473855479202
 30
0.0
 40
0.3689005460798102
 50
174.6520946813429
 51
183.7650804002246
  0
ARC
  5
1471
  8
0
 10
9.1963335272639704
 20
4.787772375467525
 30
0.0
 40
0.0102894288396655
 50
189.78738946842361
 51
262.01013466369818
  0
LINE
  5
1472
  8
0
 10
9.1949033178828703
 20
4.7775828295025304
 30
0.0
 11
9.2155644002626111
 21
4.774492145192025
 31
0.0
  0
ARC
  5
1473
  8
0
 10
9.0221132118831466
 20
4.8137415712986726
 30
0.0
 40
0.1973927043614551
 50
348.53090764644548
 51
12.37153377166805
  0
LINE
  5
1474
  8
0
 10
9.2504471183000003
 20
4.7583771631999987
 30
0.0
 11
9.2146369270125206
 21
4.7533235775171701
 31
0.0
  0
ARC
  5
1475
  8
0
 10
9.2169298279187029
 20
4.7416614302149371
 30
0.0
 40
0.0118854143497217
 50
101.1230780708117
 51
179.0472575016521
  0
ARC
  5
1476
  8
0
 10
9.4415467193645881
 20
4.7173805815370997
 30
0.0
 40
0.2377640831139665
 50
174.0907690997289
 51
187.19346163674231
  0
ARC
  5
1477
  8
0
 10
9.2172113836942664
 20
4.6884758895042413
 30
0.0
 40
0.0115898647944336
 50
184.2957221288398
 51
260.51966711469362
  0
LINE
  5
1478
  8
0
 10
9.2153024281000011
 20
4.6770443167999991
 30
0.0
 11
9.2508713591999996
 21
4.6726565291000002
 31
0.0
  0
ARC
  5
1479
  8
0
 10
9.1547242232418036
 20
4.715042053146564
 30
0.0
 40
0.1050752321037919
 50
336.2101856051284
 51
24.356936065566298
  0
LINE
  5
147A
  8
0
 10
9.1966824249214092
 20
4.756370389991849
 30
0.0
 11
9.1750439108990172
 21
4.7533292951886263
 31
0.0
  0
ARC
  5
147B
  8
0
 10
9.176435641900003
 20
4.7434266144999988
 30
0.0
 40
0.01
 50
97.999999950140165
 51
180.50009062709881
  0
LINE
  5
147C
  8
0
 10
9.1664360228074031
 20
4.7433393333282048
 30
0.0
 11
9.1669288408681506
 21
4.6868782113229486
 31
0.0
  0
ARC
  5
147D
  8
0
 10
9.1769284914013198
 20
4.6869654927691711
 30
0.0
 40
0.0100000314417689
 50
180.5000906270958
 51
262.99930548745971
  0
LINE
  5
147E
  8
0
 10
9.1757096738234072
 20
4.677040014818556
 30
0.0
 11
9.1966824201614372
 21
4.6744646273136841
 31
0.0
  0
LINE
  5
147F
  8
0
 10
9.2158359743999991
 20
4.6565129068999989
 30
0.0
 11
9.1950155123999995
 21
4.653397685599999
 31
0.0
  0
ARC
  5
1480
  8
0
 10
9.1965318722278973
 20
4.6432631528863588
 30
0.0
 40
0.0102473460198973
 50
98.509642787721674
 51
174.58247714340899
  0
ARC
  5
1481
  8
0
 10
9.5830568796161941
 20
4.6214256758912198
 30
0.0
 40
0.3973814858487939
 50
176.7100981510126
 51
184.96648734780791
  0
ARC
  5
1482
  8
0
 10
9.1977167281543455
 20
4.587597824875675
 30
0.0
 40
0.0105650089059439
 50
183.1180971171479
 51
262.55027440372999
  0
LINE
  5
1486
  8
0
 10
9.1963469092999972
 20
4.5771219950999988
 30
0.0
 11
9.2151938435999998
 21
4.5749720688000002
 31
0.0
  0
ARC
  5
1487
  8
0
 10
9.0226232486350213
 20
4.6172615018688621
 30
0.0
 40
0.197159403007951
 50
347.61417948952879
 51
11.483435274265441
  0
LINE
  5
1488
  8
0
 10
9.1966824133302101
 20
4.5569183823694042
 30
0.0
 11
9.1743756308253417
 21
4.5534679937477618
 31
0.0
  0
ARC
  5
1489
  8
0
 10
9.1758979722691247
 20
4.5436260474604202
 30
0.0
 40
0.0099589874080849
 50
98.792766176129604
 51
181.70734486735731
  0
LINE
  5
148A
  8
0
 10
9.16594340616418
 20
4.5433293256097791
 30
0.0
 11
9.167421368136333
 21
4.4868882341240637
 31
0.0
  0
ARC
  5
148B
  8
0
 10
9.1774179418452952
 20
4.4871499878200352
 30
0.0
 40
0.0100000000458035
 50
181.4999095086618
 51
263.9999792147853
  0
LINE
  5
148C
  8
0
 10
9.1763726535999997
 20
4.4772047692000001
 30
0.0
 11
9.1966824085735794
 21
4.4750701279605796
 31
0.0
  0
LINE
  5
148D
  8
0
 10
9.2509892674854335
 20
4.5593473763976844
 30
0.0
 11
9.2139689117152201
 21
4.5534632581322132
 31
0.0
  0
ARC
  5
148E
  8
0
 10
9.2162387866897184
 20
4.54218180849342
 30
0.0
 40
0.0115075383272219
 50
101.37625862064699
 51
176.36990538542801
  0
ARC
  5
148F
  8
0
 10
9.4260442663592912
 20
4.5210083308014806
 30
0.0
 40
0.2223711620407629
 50
174.34758418149761
 51
188.8431949752991
  0
ARC
  5
1490
  8
0
 10
9.2175375802624018
 20
4.4884317703025358
 30
0.0
 40
0.0113358315296825
 50
188.15874793608219
 51
262.02812991681162
  0
LINE
  5
1491
  8
0
 10
9.2159654489000005
 20
4.4772054850999989
 30
0.0
 11
9.2502982843394506
 21
4.4735780841015513
 31
0.0
  0
ARC
  5
1492
  8
0
 10
9.1550141875388711
 20
4.517233150915918
 30
0.0
 40
0.1048085109219142
 50
335.38478954210939
 51
23.692046438196371
  0
LINE
  5
1493
  8
0
 10
9.2159174459638642
 20
4.4571451330939471
 30
0.0
 11
9.1945386806446194
 21
4.4535645766570928
 31
0.0
  0
ARC
  5
1494
  8
0
 10
9.1962960858007943
 20
4.4430714722842639
 30
0.0
 40
0.0106392533695759
 50
99.507763728883447
 51
181.5949084315252
  0
ARC
  5
1496
  8
0
 10
9.1983592973051334
 20
4.3880450307088799
 30
0.0
 40
0.0108365119692633
 50
180.88358878557051
 51
262.53582898323549
  0
LINE
  5
1497
  8
0
 10
9.1969515673999993
 20
4.3773003442
 30
0.0
 11
9.2150902784657749
 21
4.3755472296033
 31
0.0
  0
ARC
  5
1498
  8
0
 10
9.0223203328271726
 20
4.4183045053140866
 30
0.0
 40
0.19745489758726
 50
347.49399201848252
 51
11.344419771337
  0
ARC
  5
1499
  8
0
 10
9.6126827017033438
 20
4.4297873690792251
 30
0.0
 40
0.4272192184057896
 50
178.2578703170031
 51
185.6296683567771
  0
LINE
  5
149A
  8
0
 10
9.1966824017495625
 20
4.3576479531974543
 30
0.0
 11
9.1737049984999999
 21
4.3535964170999986
 31
0.0
  0
ARC
  5
149B
  8
0
 10
9.1754414795151256
 20
4.3437483437865723
 30
0.0
 40
0.0099999957151255
 50
99.999999898277096
 51
180.00002054955729
  0
LINE
  5
149C
  8
0
 10
9.1654414838000005
 20
4.3437483401999986
 30
0.0
 11
9.1679114099526267
 21
4.2869595289784614
 31
0.0
  0
ARC
  5
149D
  8
0
 10
9.177904391023139
 20
4.2873418900069771
 30
0.0
 40
0.0100002935272794
 50
182.1912371365658
 51
264.99934370169092
  0
LINE
  5
149E
  8
0
 10
9.1770326938999993
 20
4.2773796606000003
 30
0.0
 11
9.1966823969848477
 21
4.2756605343509824
 31
0.0
  0
LINE
  5
14A2
  8
0
 10
9.2514854977999992
 20
4.360345173699999
 30
0.0
 11
9.2132981565000005
 21
4.3535896261999989
 31
0.0
  0
ARC
  5
14A3
  8
0
 10
9.2158123798396527
 20
4.3422984189460534
 30
0.0
 40
0.0115677430924633
 50
102.5533032479843
 51
177.62122893024051
  0
ARC
  5
14A4
  8
0
 10
9.4210599710647127
 20
4.3249761020609636
 30
0.0
 40
0.2175350401695501
 50
175.30582866055261
 51
190.31748668629919
  0
ARC
  5
14A5
  8
0
 10
9.2178751313824847
 20
4.2884007751426472
 30
0.0
 40
0.0110923506008918
 50
192.42020700765551
 51
263.53192121372501
  0
LINE
  5
14A6
  8
0
 10
9.2166255820000007
 20
4.2773790298999996
 30
0.0
 11
9.2497059665000005
 21
4.2744667683999991
 31
0.0
  0
ARC
  5
14A7
  8
0
 10
9.15486129480065
 20
4.3193897342422156
 30
0.0
 40
0.1049456269785745
 50
334.65553005306202
 51
22.970298268848179
  0
LINE
  5
14A8
  8
0
 10
9.2162017540576038
 20
4.2578329025921349
 30
0.0
 11
9.1935437414431931
 21
4.2536303172453911
 31
0.0
  0
ARC
  5
14A9
  8
0
 10
9.1953838278938846
 20
4.2437095902234647
 30
0.0
 40
0.0100899327445528
 50
100.5077519087735
 51
177.8802255476725
  0
ARC
  5
14AA
  8
0
 10
9.5018354758201991
 20
4.2323666094206462
 30
0.0
 40
0.3167514329858556
 50
177.8802255476725
 51
188.61796399543849
  0
ARC
  5
14AB
  8
0
 10
9.1983840583370764
 20
4.1875947753908029
 30
0.0
 40
0.0100894480136779
 50
195.47410132420109
 51
266.46514472912168
  0
LINE
  5
14AC
  8
0
 10
9.1977619860266042
 20
4.1775245227990734
 30
0.0
 11
9.2147148672999997
 21
4.1761270735
 31
0.0
  0
ARC
  5
14AD
  8
0
 10
9.0228365504482522
 20
4.2204853284568502
 30
0.0
 40
0.1969389328210056
 50
346.98308928178187
 51
10.9317979597982
  0
LINE
  5
14AE
  8
0
 10
9.2523394056663175
 20
4.1614476202934334
 30
0.0
 11
9.2126256112
 21
4.1537056975000004
 31
0.0
  0
ARC
  5
14AF
  8
0
 10
9.2151994374417825
 20
4.1426356831828883
 30
0.0
 40
0.011365289195791
 50
103.0889680583745
 51
176.74986817824029
  0
ARC
  5
14B0
  8
0
 10
9.4229247473056894
 20
4.1284114045648144
 30
0.0
 40
0.2195763124896473
 50
176.11723869948409
 51
190.95464137109391
  0
ARC
  5
14B1
  8
0
 10
9.2184262296834287
 20
4.0887787344229141
 30
0.0
 40
0.0112728199675478
 50
190.70429600718319
 51
264.17748128666079
  0
LINE
  5
14B2
  8
0
 10
9.2172826324999981
 20
4.0775640719000013
 30
0.0
 11
9.2484107921864993
 21
4.0753704222934504
 31
0.0
  0
ARC
  5
14B3
  8
0
 10
9.1559003787553124
 20
4.122720902578962
 30
0.0
 40
0.1039242251665984
 50
332.89484174255148
 51
21.878759681622899
  0
LINE
  5
14B4
  8
0
 10
9.1966823901650105
 20
4.1583102427014333
 30
0.0
 11
9.173032230534595
 21
4.1537131173322139
 31
0.0
  0
ARC
  5
14B5
  8
0
 10
9.1749403205000011
 20
4.1438968454999996
 30
0.0
 40
0.0100000000000004
 50
101.0000000679367
 51
180.0
  0
LINE
  5
14B6
  8
0
 10
9.1649403204999995
 20
4.1438968454999996
 30
0.0
 11
9.1684127998479816
 21
4.08682590219109
 31
0.0
  0
ARC
  5
14B7
  8
0
 10
9.1783871497846228
 20
4.0875416850346609
 30
0.0
 40
0.0100000000868863
 50
184.10464365416911
 51
265.99997908696781
  0
LINE
  5
14B8
  8
0
 10
9.1776895813999992
 20
4.0775660447000002
 30
0.0
 11
9.1966823853953592
 21
4.0762379385007401
 31
0.0
  0
LINE
  5
14EB
  8
0
 10
9.2136461760278277
 20
3.7770247908849628
 30
0.0
 11
9.1995583541210575
 21
3.7773955852393208
 31
0.0
  0
ARC
  5
14EC
  8
0
 10
9.1998266265665141
 20
3.7875882281144269
 30
0.0
 40
0.0101961727566976
 50
196.5474535260015
 51
268.49231145063783
  0
ARC
  5
14ED
  8
0
 10
9.5695090089526111
 20
3.8562124033101912
 30
0.0
 40
0.3861390131451992
 50
182.22590405384
 51
190.6750874668484
  0
ARC
  5
14EE
  8
0
 10
9.1943721698925938
 20
3.8427713128916379
 30
0.0
 40
0.0108233048586062
 50
104.53814273185139
 51
188.26777766474501
  0
LINE
  5
14EF
  8
0
 10
9.1916552556334423
 20
3.8532480635792661
 30
0.0
 11
9.2166862032656862
 21
3.859298765884962
 31
0.0
  0
ARC
  5
14F0
  8
0
 10
9.0260695618810445
 20
3.8251636794417592
 30
0.0
 40
0.1936552058543832
 50
345.60647652674658
 51
10.152417426856161
  0
LINE
  5
14F1
  8
0
 10
9.1966823737973087
 20
3.8766680597502829
 30
0.0
 11
9.1789234967098619
 21
3.8772882134387752
 31
0.0
  0
ARC
  5
14F2
  8
0
 10
9.1792724915525898
 20
3.8872821175809169
 30
0.0
 40
0.009999995870128
 50
185.4998892909118
 51
267.99999988628832
  0
LINE
  5
14F3
  8
0
 10
9.1693185318278285
 20
3.8863236796849638
 30
0.0
 11
9.163907147131761
 21
3.942524196742228
 31
0.0
  0
ARC
  5
14F4
  8
0
 10
9.1738611671531736
 20
3.9434826404439698
 30
0.0
 40
0.0100000564456454
 50
103.0009348707508
 51
185.49988929091211
  0
LINE
  5
14F5
  8
0
 10
9.1716114849278298
 20
3.953226359384963
 30
0.0
 11
9.1966823785829135
 21
3.9590148621292331
 31
0.0
  0
LINE
  5
14F6
  8
0
 10
9.2463636430515752
 20
3.8759153682892409
 30
0.0
 11
9.2182137687515731
 21
3.8768863808892422
 31
0.0
  0
ARC
  5
14F7
  8
0
 10
9.2185961569777888
 20
3.8876698666934368
 30
0.0
 40
0.0107902635206387
 50
191.7724750318273
 51
267.96911169874892
  0
ARC
  5
14F8
  8
0
 10
9.4309973812946115
 20
3.9365306810585432
 30
0.0
 40
0.2287368278099831
 50
179.436414084098
 51
192.89917330271791
  0
ARC
  5
14F9
  8
0
 10
9.2147846789966152
 20
3.9407589683356279
 30
0.0
 40
0.0126684890079716
 50
107.8455469934799
 51
188.9843467551259
  0
LINE
  5
14FA
  8
0
 10
9.2109023939515744
 20
3.9528179266892409
 30
0.0
 11
9.2527626339754807
 21
3.9625071226947739
 31
0.0
  0
ARC
  5
14FB
  8
0
 10
9.1589536051040792
 20
3.9259071438130659
 30
0.0
 40
0.1006960394156945
 50
330.23378538043249
 51
21.313447732068639
  0
LINE
  5
14FC
  8
0
 10
9.2146583304240242
 20
3.9764912513851298
 30
0.0
 11
9.1989045154278291
 21
3.9771812615849642
 31
0.0
  0
ARC
  5
14FD
  8
0
 10
9.1993500051525672
 20
3.987352361530939
 30
0.0
 40
0.0101808513988701
 50
196.34676568722739
 51
267.49207285892322
  0
ARC
  5
14FE
  8
0
 10
9.5637536604284819
 20
4.048889983175866
 30
0.0
 40
0.379675057659363
 50
181.3000852176329
 51
189.7661146183309
  0
ARC
  5
14FF
  8
0
 10
9.1950688606104158
 20
4.0424077933659159
 30
0.0
 40
0.0110992444906817
 50
104.3021372992791
 51
191.0754924275461
  0
LINE
  5
1500
  8
0
 10
9.1923269569755881
 20
4.053163033610617
 30
0.0
 11
9.2160688752278261
 21
4.0584615607849628
 31
0.0
  0
ARC
  5
1501
  8
0
 10
9.0232413292698368
 20
4.0207824455542962
 30
0.0
 40
0.1964743703687417
 50
346.97184193736132
 51
11.05646148350125
  0
LINE
  5
1502
  8
0
 10
9.2134119775659702
 20
3.577639327329984
 30
0.0
 11
9.1993241556592018
 21
3.5780101216843421
 31
0.0
  0
ARC
  5
1503
  8
0
 10
9.1995924281046584
 20
3.5882027645594481
 30
0.0
 40
0.0101961727566976
 50
196.5474535260015
 51
268.49231145063783
  0
ARC
  5
1504
  8
0
 10
9.5692748104907555
 20
3.656826939755212
 30
0.0
 40
0.3861390131451992
 50
182.22590405384
 51
190.6750874668484
  0
ARC
  5
1505
  8
0
 10
9.1941379714307381
 20
3.6433858493366591
 30
0.0
 40
0.0108233048586062
 50
104.53814273185139
 51
188.26777766474501
  0
LINE
  5
1506
  8
0
 10
9.1914210571715866
 20
3.6538626000242869
 30
0.0
 11
9.2164520048038305
 21
3.6599133023299841
 31
0.0
  0
ARC
  5
1507
  8
0
 10
9.0258353634191888
 20
3.62577821588678
 30
0.0
 40
0.1936552058543832
 50
345.60647652674658
 51
10.152417426856161
  0
LINE
  5
1508
  8
0
 10
9.1966823622095042
 20
3.6772744182089938
 30
0.0
 11
9.1786892982480062
 21
3.677902749883796
 31
0.0
  0
ARC
  5
1509
  8
0
 10
9.1790382930907342
 20
3.687896654025939
 30
0.0
 40
0.009999995870128
 50
185.4998892909118
 51
267.99999988628832
  0
LINE
  5
150A
  8
0
 10
9.1690843333659728
 20
3.6869382161299851
 30
0.0
 11
9.1636729486699053
 21
3.7431387331872492
 31
0.0
  0
ARC
  5
150B
  8
0
 10
9.1736269686913179
 20
3.744097176888991
 30
0.0
 40
0.0100000564456454
 50
103.0009348707508
 51
185.49988929091211
  0
LINE
  5
150C
  8
0
 10
9.1713772864659742
 20
3.7538408958299838
 30
0.0
 11
9.1966823669987239
 21
3.7596834688998948
 31
0.0
  0
LINE
  5
150D
  8
0
 10
9.2464327582659731
 20
3.6769271056299848
 30
0.0
 11
9.2182828839659692
 21
3.6778981182299861
 31
0.0
  0
ARC
  5
150E
  8
0
 10
9.2186652721921867
 20
3.6886816040341812
 30
0.0
 40
0.0107902635206387
 50
191.7724750318273
 51
267.96911169874892
  0
ARC
  5
150F
  8
0
 10
9.4310664965090094
 20
3.7375424183992871
 30
0.0
 40
0.2287368278099831
 50
179.436414084098
 51
192.89917330271791
  0
ARC
  5
1510
  8
0
 10
9.2148537942110131
 20
3.7417707056763718
 30
0.0
 40
0.0126684890079716
 50
107.8455469934799
 51
188.9843467551259
  0
LINE
  5
1511
  8
0
 10
9.2109715091659723
 20
3.7538296640299849
 30
0.0
 11
9.2528317491898786
 21
3.7635188600355178
 31
0.0
  0
ARC
  5
1512
  8
0
 10
9.1590227203184789
 20
3.7269188811538099
 30
0.0
 40
0.1006960394156945
 50
330.23378538043249
 51
21.313447732068639
  0
LINE
  5
1513
  8
0
 10
9.1966823273307448
 20
3.0771087798390311
 30
0.0
 11
9.1966823564651783
 21
3.5784306909853538
 31
0.0
  0
LINE
  5
1514
  8
0
 10
9.1966825118182278
 20
6.2516209491933026
 30
0.0
 11
9.1966825398000012
 21
6.7331087799000002
 31
0.0
  0
LINE
  5
1517
  8
0
 10
9.1966825002164203
 20
6.0519863689441724
 30
0.0
 11
9.1966825073703973
 21
6.175086242305559
 31
0.0
  0
LINE
  5
1518
  8
0
 10
9.1966824886342931
 20
5.8526904524438699
 30
0.0
 11
9.1966824957663533
 21
5.9754131789419151
 31
0.0
  0
LINE
  5
1519
  8
0
 10
9.1966824770278741
 20
5.6529765175208571
 30
0.0
 11
9.1966824841822064
 21
5.7760824919440941
 31
0.0
  0
LINE
  5
151A
  8
0
 10
9.1966824653997001
 20
5.4528882395140341
 30
0.0
 11
9.1966824726367946
 21
5.5774183291624908
 31
0.0
  0
LINE
  5
151B
  8
0
 10
9.1966824537909293
 20
5.2531338411663011
 30
0.0
 11
9.1966824609470486
 21
5.3762705787195602
 31
0.0
  0
LINE
  5
151C
  8
0
 10
9.1966824421932838
 20
5.05357089203273
 30
0.0
 11
9.1966824493413935
 21
5.176569822105006
 31
0.0
  0
LINE
  5
151D
  8
0
 10
9.1966824305924035
 20
4.8539523017150898
 30
0.0
 11
9.196682437749466
 21
4.9771052457003551
 31
0.0
  0
LINE
  5
151E
  8
0
 10
9.1966824189516192
 20
4.653647093264186
 30
0.0
 11
9.1966824261387092
 21
4.7773166933015343
 31
0.0
  0
LINE
  5
151F
  8
0
 10
9.196682407344646
 20
4.4539236120981034
 30
0.0
 11
9.1966824145021242
 21
4.5770837230157237
 31
0.0
  0
LINE
  5
1520
  8
0
 10
9.1966823957383905
 20
4.254212471681174
 30
0.0
 11
9.1966824028939165
 21
4.3773390502870031
 31
0.0
  0
LINE
  5
1521
  8
0
 10
9.1966823841108436
 20
4.054135042223689
 30
0.0
 11
9.1966823912889364
 21
4.1776498625969181
 31
0.0
  0
LINE
  5
1522
  8
0
 10
9.1966823725068725
 20
3.8544632627840252
 30
0.0
 11
9.1966823796587622
 21
3.9775272147416709
 31
0.0
  0
LINE
  5
1523
  8
0
 10
9.1966823609228321
 20
3.6551344089548312
 30
0.0
 11
9.1966823680567398
 21
3.7778889715806439
 31
0.0
  0
LINE
  5
1570
  8
0
 10
10.1666823871
 20
2.8261087799000002
 30
0.0
 11
10.134368844600001
 21
2.8261087799000002
 31
0.0
  0
ARC
  5
1571
  8
0
 10
10.290366737447879
 20
2.781463843748389
 30
0.0
 40
0.1622606326160531
 50
164.02944215490169
 51
181.8912676342369
  0
LINE
  5
1572
  8
0
 10
10.128194495100001
 20
2.776108779899999
 30
0.0
 11
10.128194495100001
 21
2.716108779899999
 31
0.0
  0
ARC
  5
1573
  8
0
 10
10.285470982049871
 20
2.7101491539537319
 30
0.0
 40
0.1573893595155424
 50
177.82994818968839
 51
196.24934202117251
  0
LINE
  5
1574
  8
0
 10
10.134368844600001
 20
2.6661087799000001
 30
0.0
 11
10.166681800199999
 21
2.6661087799000001
 31
0.0
  0
LINE
  5
1575
  8
0
 10
10.166681800199999
 20
2.6661087799000001
 30
0.0
 11
10.1666823871
 21
2.8261087799000002
 31
0.0
  0
LINE
  5
1576
  8
0
 10
10.1366823871
 20
2.6661087799000001
 30
0.0
 11
10.1366823871
 21
-1.7388912201
 31
0.0
  0
ATTDEF
  5
1843
  8
DEFPOINTS
 10
9.6622991072605338
 20
-1.752158096659616
 30
0.0
 40
0.001
  1
K-45415-A
  3

  2
MODELNUMBER
 70
     0
1001
AcDbAttr
1070
     0
1070
     1
  0
ATTDEF
  5
1844
  8
DEFPOINTS
 10
9.6622991072605338
 20
-1.753824763326282
 30
0.0
 40
0.001
  1
SHIFT
  3

  2
TRADENAME
 70
     0
1001
AcDbAttr
1070
     0
1070
     1
  0
ATTDEF
  5
1845
  8
DEFPOINTS
 10
9.6622991072605338
 20
-1.7554914299929469
 30
0.0
 40
0.001
  1
HANDSHOWER
  3

  2
PRODUCT
 70
     0
1001
AcDbAttr
1070
     0
1070
     1
  0
ATTDEF
  5
1846
  8
DEFPOINTS
 10
9.6622991072605338
 20
-1.7571580966596121
 30
0.0
 40
0.001
  1
PREMIUM MATERIALS
  3

  2
MATERIAL
 70
     0
1001
AcDbAttr
1070
     0
1070
     1
  0
ENDSEC
  0
EOF
