  0
SECTION
  2
HEADER
  9
$ACADVER
  1
AC1009
  9
$INSBASE
 10
5.8533752819804192
 20
-1.7388912201
 30
0.0
  9
$EXTMIN
 10
5.2982973465608394
 20
-2.1788912200999988
 30
0.0
  9
$EXTMAX
 10
6.4084532173999991
 20
6.8351089716413478
 30
0.0
  9
$LIMMIN
 10
0.0
 20
0.0
  9
$LIMMAX
 10
11.692913385800001
 20
8.2677165353999982
  9
$ORTHOMODE
 70
     1
  9
$REGENMODE
 70
     1
  9
$FILLMODE
 70
     1
  9
$QTEXTMODE
 70
     0
  9
$MIRRTEXT
 70
     0
  9
$DRAGMODE
 70
     2
  9
$LTSCALE
 40
0.6431102362
  9
$OSMODE
 70
  3071
  9
$ATTMODE
 70
     1
  9
$TEXTSIZE
 40
0.2
  9
$TRACEWID
 40
0.05
  9
$TEXTSTYLE
  7
STANDARD
  9
$CLAYER
  8
0
  9
$CELTYPE
  6
BYLAYER
  9
$CECOLOR
 62
   256
  9
$DIMSCALE
 40
1.0
  9
$DIMASZ
 40
0.1875
  9
$DIMEXO
 40
0.0625
  9
$DIMDLI
 40
0.4443307087
  9
$DIMRND
 40
0.0
  9
$DIMDLE
 40
0.0
  9
$DIMEXE
 40
0.125
  9
$DIMTP
 40
0.01
  9
$DIMTM
 40
0.01
  9
$DIMTXT
 40
1.0
  9
$DIMCEN
 40
0.1052362205
  9
$DIMTSZ
 40
0.0
  9
$DIMTOL
 70
     1
  9
$DIMLIM
 70
     0
  9
$DIMTIH
 70
     1
  9
$DIMTOH
 70
     1
  9
$DIMSE1
 70
     0
  9
$DIMSE2
 70
     0
  9
$DIMTAD
 70
     0
  9
$DIMZIN
 70
     0
  9
$DIMBLK
  1

  9
$DIMASO
 70
     1
  9
$DIMSHO
 70
     1
  9
$DIMPOST
  1
\X
  9
$DIMAPOST
  1

  9
$DIMALT
 70
     1
  9
$DIMALTD
 70
     2
  9
$DIMALTF
 40
25.399999999999999
  9
$DIMLFAC
 40
1.0
  9
$DIMTOFL
 70
     0
  9
$DIMTVP
 40
0.0
  9
$DIMTIX
 70
     0
  9
$DIMSOXD
 70
     0
  9
$DIMSAH
 70
     0
  9
$DIMBLK1
  1

  9
$DIMBLK2
  1

  9
$DIMSTYLE
  2
STANDARD
  9
$DIMCLRD
 70
     0
  9
$DIMCLRE
 70
     0
  9
$DIMCLRT
 70
     0
  9
$DIMTFAC
 40
1.0
  9
$DIMGAP
 40
0.09
  9
$LUNITS
 70
     2
  9
$LUPREC
 70
     4
  9
$SKETCHINC
 40
0.1
  9
$FILLETRAD
 40
0.0
  9
$AUNITS
 70
     0
  9
$AUPREC
 70
     0
  9
$MENU
  1
.
  9
$ELEVATION
 40
0.0
  9
$PELEVATION
 40
0.0
  9
$THICKNESS
 40
0.0
  9
$LIMCHECK
 70
     0
  9
$BLIPMODE
 70
     0
  9
$CHAMFERA
 40
0.0
  9
$CHAMFERB
 40
0.0
  9
$SKPOLY
 70
     0
  9
$TDCREATE
 40
2457828.4877597219
  9
$TDUPDATE
 40
2457828.6473135301
  9
$TDINDWG
 40
0.1585126852
  9
$TDUSRTIMER
 40
0.1585126852
  9
$USRTIMER
 70
     1
  9
$ANGBASE
 50
0.0
  9
$ANGDIR
 70
     0
  9
$PDMODE
 70
     0
  9
$PDSIZE
 40
0.3125
  9
$PLINEWID
 40
0.0
  9
$COORDS
 70
     1
  9
$SPLFRAME
 70
     0
  9
$SPLINETYPE
 70
     6
  9
$SPLINESEGS
 70
     8
  9
$ATTDIA
 70
     1
  9
$ATTREQ
 70
     1
  9
$HANDLING
 70
     1
  9
$HANDSEED
  5
1886
  9
$SURFTAB1
 70
     6
  9
$SURFTAB2
 70
     6
  9
$SURFTYPE
 70
     6
  9
$SURFU
 70
     6
  9
$SURFV
 70
     6
  9
$UCSNAME
  2

  9
$UCSORG
 10
0.0
 20
0.0
 30
0.0
  9
$UCSXDIR
 10
1.0
 20
0.0
 30
0.0
  9
$UCSYDIR
 10
0.0
 20
1.0
 30
0.0
  9
$PUCSNAME
  2

  9
$PUCSORG
 10
0.0
 20
0.0
 30
0.0
  9
$PUCSXDIR
 10
1.0
 20
0.0
 30
0.0
  9
$PUCSYDIR
 10
0.0
 20
1.0
 30
0.0
  9
$USERI1
 70
     0
  9
$USERI2
 70
     0
  9
$USERI3
 70
     0
  9
$USERI4
 70
     0
  9
$USERI5
 70
     0
  9
$USERR1
 40
0.0
  9
$USERR2
 40
0.0
  9
$USERR3
 40
0.0
  9
$USERR4
 40
0.0
  9
$USERR5
 40
0.0
  9
$WORLDVIEW
 70
     1
  9
$SHADEDGE
 70
     3
  9
$SHADEDIF
 70
    70
  9
$TILEMODE
 70
     1
  9
$MAXACTVP
 70
    64
  9
$PLIMCHECK
 70
     0
  9
$PEXTMIN
 10
1.0000000000000000E+020
 20
1.0000000000000000E+020
 30
1.0000000000000000E+020
  9
$PEXTMAX
 10
-1.0000000000000000E+020
 20
-1.0000000000000000E+020
 30
-1.0000000000000000E+020
  9
$PLIMMIN
 10
0.0
 20
0.0
  9
$PLIMMAX
 10
12.0
 20
9.0
  9
$UNITMODE
 70
     0
  9
$VISRETAIN
 70
     1
  9
$PLINEGEN
 70
     0
  9
$PSLTSCALE
 70
     1
  0
ENDSEC
  0
SECTION
  2
TABLES
  0
TABLE
  2
VPORT
 70
     1
  0
VPORT
  2
*ACTIVE
 70
     0
 10
0.0
 20
0.0
 11
1.0
 21
1.0
 12
0.0
 22
0.0
 13
0.0
 23
0.0
 14
1.0
 24
1.0
 15
0.0
 25
0.0
 16
-0.0000000000000044
 26
0.0
 36
21.480133327954931
 17
5.8533752819804192
 27
2.328108875770674
 37
0.0
 40
9.0821057863400672
 41
1.664490861618799
 42
50.0
 43
0.0
 44
0.0
 50
0.0
 51
0.0
 71
     0
 72
   100
 73
     1
 74
     1
 75
     0
 76
     0
 77
     0
 78
     0
  0
ENDTAB
  0
TABLE
  2
LTYPE
 70
     2
  0
LTYPE
  2
CONTINUOUS
 70
     0
  3
Solid line
 72
    65
 73
     0
 40
0.0
  0
LTYPE
  2
PHANTOM2
 70
     0
  3
___ _ _ ___ _ _ ___ _ _ ___ _ _
 72
    65
 73
     6
 40
1.25
 49
0.625
 49
-0.125
 49
0.125
 49
-0.125
 49
0.125
 49
-0.125
  0
ENDTAB
  0
TABLE
  2
LAYER
 70
     2
  0
LAYER
  2
0
 70
     0
 62
     7
  6
CONTINUOUS
  0
LAYER
  2
DEFPOINTS
 70
     0
 62
     7
  6
CONTINUOUS
  0
ENDTAB
  0
TABLE
  2
STYLE
 70
     1
  0
STYLE
  2
STANDARD
 70
     0
 40
0.0
 41
0.8
 50
0.0
 71
     0
 42
0.2
  3
txt
  4

  0
ENDTAB
  0
TABLE
  2
VIEW
 70
     0
  0
ENDTAB
  0
TABLE
  2
UCS
 70
     0
  0
ENDTAB
  0
TABLE
  2
APPID
 70
     7
  0
APPID
  2
ACAD
 70
     0
  0
APPID
  2
ACAD_NAV_VCDISPLAY
 70
     0
  0
APPID
  2
ACAD_EXEMPT_FROM_CAD_STANDARDS
 70
     0
  0
APPID
  2
ACAD_DSTYLE_DIMJAG
 70
     0
  0
APPID
  2
ACAD_DSTYLE_DIMTALN
 70
     0
  0
APPID
  2
ACAD_MLEADERVER
 70
     0
  0
APPID
  2
AcDbAttr
 70
     0
  0
ENDTAB
  0
TABLE
  2
DIMSTYLE
 70
     1
  0
DIMSTYLE
  2
STANDARD
 70
     0
  3

  4

  5

  6

  7

 40
1.0
 41
0.1875
 42
0.0625
 43
0.38
 44
0.125
 45
0.0
 46
0.0
 47
0.01
 48
0.01
140
0.15625
141
0.09
142
0.0
143
25.399999999999999
144
1.0
145
0.0
146
1.0
147
0.09
 71
     1
 72
     0
 73
     1
 74
     1
 75
     0
 76
     0
 77
     0
 78
     4
170
     0
171
     2
172
     0
173
     0
174
     0
175
     0
176
     0
177
     0
178
     0
  0
ENDTAB
  0
ENDSEC
  0
SECTION
  2
BLOCKS
  0
BLOCK
  8
0
  2
$MODEL_SPACE
 70
     0
 10
0.0
 20
0.0
 30
0.0
  3
$MODEL_SPACE
  1

  0
ENDBLK
  5
21
  8
0
  0
BLOCK
 67
     1
  8
0
  2
$PAPER_SPACE
 70
     0
 10
0.0
 20
0.0
 30
0.0
  3
$PAPER_SPACE
  1

  0
ENDBLK
  5
1D
 67
     1
  8
0
  0
ENDSEC
  0
SECTION
  2
ENTITIES
  0
LINE
  5
1187
  8
0
 10
5.3153756432430619
 20
6.8351089716413469
 30
0.0
 11
6.3913749033550706
 21
6.8351089716413478
 31
0.0
  0
ARC
  5
1188
  8
0
 10
6.3913749033550706
 20
6.823109188989446
 30
0.0
 40
0.0119997826519018
 50
359.9980467063923
 51
89.999999999999545
  0
LINE
  5
1189
  8
0
 10
6.4033746860000003
 20
6.8231087799000001
 30
0.0
 11
6.403372435967289
 21
6.7571087799383527
 31
0.0
  0
ARC
  5
118A
  8
0
 10
6.3913720264554881
 20
6.7571091890491699
 30
0.0
 40
0.0120004095187745
 50
270.01488701085452
 51
359.9980467063923
  0
LINE
  5
118B
  8
0
 10
6.4083752732999999
 20
3.0771087799000001
 30
0.0
 11
6.4083752732999999
 21
6.733108779861646
 31
0.0
  0
ARC
  5
118C
  8
0
 10
6.3963354154403351
 20
6.7330689178356842
 30
0.0
 40
0.0120399238478517
 50
0.1896963844532248
 51
89.816446643033814
  0
LINE
  5
118D
  8
0
 10
6.3963827329999994
 20
6.7451087798999989
 30
0.0
 11
5.3103678137000001
 21
6.7451087798999989
 31
0.0
  0
ARC
  5
118E
  8
0
 10
6.3963729670031073
 20
3.077111086375202
 30
0.0
 40
0.0120023065185104
 50
270.0048672810272
 51
359.98898950837008
  0
LINE
  5
118F
  8
0
 10
6.3963739865999987
 20
3.0651087799000001
 30
0.0
 11
5.3103765640185578
 21
3.0650165243323442
 31
0.0
  0
LINE
  5
1190
  8
0
 10
6.2358752732999996
 20
3.065095145521505
 30
0.0
 11
6.2358752732999996
 21
3.0621087798999991
 31
0.0
  0
ARC
  5
1191
  8
0
 10
6.2308752732999997
 20
3.0621087798999991
 30
0.0
 40
0.0049999999999999
 50
270.0
 51
0.0
  0
LINE
  5
1192
  8
0
 10
5.3083752733000003
 20
3.0571087799000001
 30
0.0
 11
6.3983752733000001
 21
3.0571087799000001
 31
0.0
  0
LINE
  5
1193
  8
0
 10
6.3983752733000001
 20
3.0571087799000001
 30
0.0
 11
6.398423189199999
 21
3.0171087799
 31
0.0
  0
LINE
  5
1194
  8
0
 10
6.398423189199999
 20
3.0171087799
 30
0.0
 11
5.3083273573999996
 21
3.0171087799
 31
0.0
  0
LINE
  5
1195
  8
0
 10
5.3083273573999996
 20
3.0171087799
 30
0.0
 11
5.3083273573999996
 21
3.0571087799000001
 31
0.0
  0
LINE
  5
1196
  8
0
 10
6.2105261986000002
 20
3.0171087799
 30
0.0
 11
6.2104738374000004
 21
3.0111087798999998
 31
0.0
  0
LINE
  5
1197
  8
0
 10
5.2982973465608394
 20
3.0111087798999989
 30
0.0
 11
6.4084532173999991
 21
3.0111087798999998
 31
0.0
  0
LINE
  5
1198
  8
0
 10
6.4084532173999991
 20
3.0111087798999998
 30
0.0
 11
6.4084532173999991
 21
-1.7388912201
 31
0.0
  0
LINE
  5
1199
  8
0
 10
6.4084532173999991
 20
-1.7388912201
 30
0.0
 11
5.2982973465608394
 21
-1.7388912200999991
 31
0.0
  0
ARC
  5
119A
  8
0
 10
6.3033752733000004
 20
-1.758891220100002
 30
0.0
 40
0.0200000000000023
 50
0.0000000000069972
 51
90.0
  0
LINE
  5
119B
  8
0
 10
6.3233752732999999
 20
-1.7588912200999991
 30
0.0
 11
6.323375273300007
 21
-1.8088912200999989
 31
0.0
  0
ARC
  5
119C
  8
0
 10
6.3033752733000092
 20
-1.808891220100002
 30
0.0
 40
0.0199999999999978
 50
269.99999999997448
 51
0.0000000000072262
  0
LINE
  5
119D
  8
0
 10
6.3033752733000004
 20
-1.8288912201
 30
0.0
 11
5.4033752733
 21
-1.8288912200995999
 31
0.0
  0
ARC
  5
119E
  8
0
 10
6.2333752733000001
 20
-1.848891220099999
 30
0.0
 40
0.02
 50
90.000000000002544
 51
180.0
  0
LINE
  5
119F
  8
0
 10
6.2133752732999996
 20
-1.848891220099999
 30
0.0
 11
6.2133752732999996
 21
-1.9038912201
 31
0.0
  0
LINE
  5
11A0
  8
0
 10
6.2133752732999996
 20
-1.9038912201
 30
0.0
 11
6.2249091179999994
 21
-1.9154254471000001
 31
0.0
  0
LINE
  5
11A2
  8
0
 10
6.2249091179999994
 20
-1.9154254471000001
 30
0.0
 11
6.2173271152999989
 21
-1.919712397199999
 31
0.0
  0
LINE
  5
11A3
  8
0
 10
6.2173271152999989
 20
-1.919712397199999
 30
0.0
 11
6.2173271152999989
 21
-1.9309216689999991
 31
0.0
  0
LINE
  5
11A4
  8
0
 10
6.2173271152999989
 20
-1.9309216689999991
 30
0.0
 11
6.2630752733000001
 21
-1.955077275199999
 31
0.0
  0
LINE
  5
11A5
  8
0
 10
6.2630752733000001
 20
-1.955077275199999
 30
0.0
 11
6.2630752733000001
 21
-1.9669860254999989
 31
0.0
  0
LINE
  5
11A6
  8
0
 10
6.2630752733000001
 20
-1.9669860254999989
 30
0.0
 11
6.2173271614000001
 21
-1.991142243199999
 31
0.0
  0
LINE
  5
11A7
  8
0
 10
6.2173271614000001
 20
-1.991142243199999
 30
0.0
 11
6.2173271614000001
 21
-2.002350859499999
 31
0.0
  0
LINE
  5
11A8
  8
0
 10
6.2173271614000001
 20
-2.002350859499999
 30
0.0
 11
6.263075270799999
 21
-2.0265063349000001
 31
0.0
  0
LINE
  5
11AB
  8
0
 10
6.263075270799999
 20
-2.0265063349000001
 30
0.0
 11
6.2630752733000001
 21
-2.0384158691000001
 31
0.0
  0
LINE
  5
11AC
  8
0
 10
6.2630752733000001
 20
-2.0384158691000001
 30
0.0
 11
6.2173269644999998
 21
-2.0625709456928361
 31
0.0
  0
LINE
  5
11AD
  8
0
 10
6.2173269644999998
 20
-2.0625709456928361
 30
0.0
 11
6.2173269644999998
 21
-2.0737802094000002
 31
0.0
  0
LINE
  5
11AE
  8
0
 10
6.2173269644999998
 20
-2.0737802094000002
 30
0.0
 11
6.2630302112928549
 21
-2.0981041704021428
 31
0.0
  0
LINE
  5
11AF
  8
0
 10
6.2630302112928549
 20
-2.0981041704021428
 30
0.0
 11
6.2630752733000001
 21
-2.1098446889999991
 31
0.0
  0
LINE
  5
11B0
  8
0
 10
6.2630752733000001
 20
-2.1098446889999991
 30
0.0
 11
6.2173267092999991
 21
-2.1340006962000002
 31
0.0
  0
LINE
  5
11B1
  8
0
 10
6.2173267092999991
 20
-2.1340006962000002
 30
0.0
 11
6.2173267092999991
 21
-2.1452091086
 31
0.0
  0
LINE
  5
11B2
  8
0
 10
6.2173267092999991
 20
-2.1452091086
 30
0.0
 11
6.2364604120000013
 21
-2.1551864087999988
 31
0.0
  0
LINE
  5
11B3
  8
0
 10
6.2364604120000013
 20
-2.1551864087999988
 30
0.0
 11
6.2133752732999996
 21
-2.1788912200999988
 31
0.0
  0
LINE
  5
11B4
  8
0
 10
6.2133752732999996
 20
-2.1788912200999988
 30
0.0
 11
5.4933813010000003
 21
-2.1788912200999988
 31
0.0
  0
LINE
  5
11B5
  8
0
 10
5.4933813010000003
 20
-2.1788912200999988
 30
0.0
 11
5.489423379999999
 21
-2.1749392516000001
 31
0.0
  0
LINE
  5
11B6
  8
0
 10
5.489423379999999
 20
-2.1749392516000001
 30
0.0
 11
5.489423379999999
 21
-2.1697145883000002
 31
0.0
  0
LINE
  5
11B7
  8
0
 10
5.489423379999999
 20
-2.1697145883000002
 30
0.0
 11
5.4778132426581987
 21
-2.163329189458199
 31
0.0
  0
LINE
  5
11B8
  8
0
 10
5.4778132426581987
 20
-2.163329189458199
 30
0.0
 11
5.4466076160999997
 21
-2.132123562899999
 31
0.0
  0
LINE
  5
11B9
  8
0
 10
5.4466076160999997
 20
-2.132123562899999
 30
0.0
 11
5.4894243287000002
 21
-2.1094943586000001
 31
0.0
  0
LINE
  5
11BA
  8
0
 10
5.4894243287000002
 20
-2.1094943586000001
 30
0.0
 11
5.4894243287000002
 21
-2.0982862075999988
 31
0.0
  0
LINE
  5
11BB
  8
0
 10
5.4894243287000002
 20
-2.0982862075999988
 30
0.0
 11
5.443720343283406
 21
-2.0739617514748279
 31
0.0
  0
LINE
  5
11BC
  8
0
 10
5.443720343283406
 20
-2.0739617514748279
 30
0.0
 11
5.4436752733000002
 21
-2.0622209302000001
 31
0.0
  0
LINE
  5
11BD
  8
0
 10
5.4436752733000002
 20
-2.0622209302000001
 30
0.0
 11
5.4894233530999994
 21
-2.0380654567000001
 31
0.0
  0
LINE
  5
11BE
  8
0
 10
5.4894233530999994
 20
-2.0380654567000001
 30
0.0
 11
5.4894233530999994
 21
-2.0268561482999998
 31
0.0
  0
LINE
  5
11BF
  8
0
 10
5.4894233530999994
 20
-2.0268561482999998
 30
0.0
 11
5.4442568952999988
 21
-2.0033071303000001
 31
0.0
  0
LINE
  5
11C0
  8
0
 10
5.4442568952999988
 20
-2.0033071303000001
 30
0.0
 11
5.44396556445
 21
-1.9904891248500001
 31
0.0
  0
LINE
  5
11C1
  8
0
 10
5.44396556445
 20
-1.9904891248500001
 30
0.0
 11
5.489423412999999
 21
-1.9666362614999999
 31
0.0
  0
LINE
  5
11C2
  8
0
 10
5.489423412999999
 20
-1.9666362614999999
 30
0.0
 11
5.489423412999999
 21
-1.9554271833000001
 31
0.0
  0
LINE
  5
11C3
  8
0
 10
5.489423412999999
 20
-1.9554271833000001
 30
0.0
 11
5.4583533843686283
 21
-1.9389131090313709
 31
0.0
  0
LINE
  5
11C4
  8
0
 10
5.4583533843686283
 20
-1.9389131090313709
 30
0.0
 11
5.4933752732999999
 21
-1.9038912201
 31
0.0
  0
ARC
  5
11C8
  8
0
 10
5.3153756606057678
 20
6.823109188989446
 30
0.0
 40
0.0119997826519018
 50
90.000000000000483
 51
180.00195329360761
  0
LINE
  5
11C9
  8
0
 10
5.3033758779608391
 20
6.8231087799000001
 30
0.0
 11
5.3033781279935504
 21
6.7571087799383527
 31
0.0
  0
ARC
  5
11CA
  8
0
 10
5.3153785375053513
 20
6.7571091890491699
 30
0.0
 40
0.0120004095187745
 50
180.00195329360781
 51
269.98511298914559
  0
LINE
  5
11CB
  8
0
 10
5.2983752906608386
 20
3.0771087799000001
 30
0.0
 11
5.2983752906608386
 21
6.733108779861646
 31
0.0
  0
ARC
  5
11CC
  8
0
 10
5.3104151485205051
 20
6.7330689178356842
 30
0.0
 40
0.0120399238478517
 50
90.183553356966158
 51
179.81030361554679
  0
ARC
  5
11CD
  8
0
 10
5.310377596957732
 20
3.077111086375202
 30
0.0
 40
0.0120023065185104
 50
180.01101049162989
 51
269.9951327189728
  0
LINE
  5
11CE
  8
0
 10
5.4708752906608389
 20
3.065095145521505
 30
0.0
 11
5.4708752906608389
 21
3.0621087798999991
 31
0.0
  0
ARC
  5
11CF
  8
0
 10
5.4758752906608388
 20
3.0621087798999991
 30
0.0
 40
0.0049999999999999
 50
180.0
 51
270.0
  0
LINE
  5
11D0
  8
0
 10
5.3083752906608401
 20
3.0571087799000001
 30
0.0
 11
5.3083273747608404
 21
3.0171087799
 31
0.0
  0
LINE
  5
11D1
  8
0
 10
5.49622436536084
 20
3.0171087799
 30
0.0
 11
5.496276726560839
 21
3.0111087798999998
 31
0.0
  0
LINE
  5
11D2
  8
0
 10
5.2982973465608403
 20
3.0111087798999998
 30
0.0
 11
5.2982973465608403
 21
-1.7388912201
 31
0.0
  0
ARC
  5
11D3
  8
0
 10
5.403375290660839
 20
-1.758891220100002
 30
0.0
 40
0.0200000000000023
 50
90.0
 51
179.99999999999301
  0
LINE
  5
11D4
  8
0
 10
5.3833752906608394
 20
-1.7588912200999991
 30
0.0
 11
5.3833752906608332
 21
-1.8088912200999989
 31
0.0
  0
ARC
  5
11D5
  8
0
 10
5.4033752906608301
 20
-1.808891220100002
 30
0.0
 40
0.0199999999999978
 50
179.99999999999281
 51
270.00000000002552
  0
ARC
  5
11D6
  8
0
 10
5.4733752906608393
 20
-1.848891220099999
 30
0.0
 40
0.02
 50
0.000000000000007
 51
89.999999999997456
  0
LINE
  5
11D7
  8
0
 10
5.4933752906608388
 20
-1.848891220099999
 30
0.0
 11
5.4933752906608388
 21
-1.9038912201
 31
0.0
  0
LINE
  5
11D8
  8
0
 10
6.2133752732999996
 20
-1.9038912201
 30
0.0
 11
5.4933752732999999
 21
-1.9038912201
 31
0.0
  0
LINE
  5
11D9
  8
0
 10
6.2173271152999989
 20
-1.9309216689999991
 30
0.0
 11
5.489423412999999
 21
-1.9666362614999999
 31
0.0
  0
LINE
  5
11DA
  8
0
 10
5.4894233530999994
 20
-2.0380654567000001
 30
0.0
 11
6.2173271614000001
 21
-2.002350859499999
 31
0.0
  0
LINE
  5
11DB
  8
0
 10
6.2173269644999998
 20
-2.0737802094000002
 30
0.0
 11
5.4894243287000002
 21
-2.1094943586000001
 31
0.0
  0
LINE
  5
11DC
  8
0
 10
6.2173267092999991
 20
-2.1452091086
 30
0.0
 11
5.489423379999999
 21
-2.1697145883000002
 31
0.0
  0
CIRCLE
  5
11DD
  8
0
 10
5.963068123790122
 20
6.2051085767530267
 30
0.0
 40
0.063485446604187
  0
CIRCLE
  5
11DE
  8
0
 10
5.9633824567009022
 20
6.2151445524618083
 30
0.0
 40
0.0144946277877712
  0
CIRCLE
  5
11E0
  8
0
 10
5.963058095700001
 20
6.0081233332958117
 30
0.0
 40
0.063485446604187
  0
CIRCLE
  5
11E1
  8
0
 10
5.9633605792233313
 20
6.015424097301552
 30
0.0
 40
0.0144946277877712
  0
CIRCLE
  5
11E3
  8
0
 10
5.9630580866999994
 20
5.8110942267041858
 30
0.0
 40
0.063485446604187
  0
CIRCLE
  5
11E4
  8
0
 10
5.9633495125018827
 20
5.8155228603134477
 30
0.0
 40
0.0144946277877712
  0
CIRCLE
  5
11E6
  8
0
 10
5.9630580866999994
 20
5.6110942267041857
 30
0.0
 40
0.063485446604187
  0
CIRCLE
  5
11E7
  8
0
 10
5.9633530310292464
 20
5.615634630109124
 30
0.0
 40
0.0144946277877712
  0
CIRCLE
  5
11E9
  8
0
 10
6.0697501734000001
 20
6.1050942265041872
 30
0.0
 40
0.063485446604187
  0
CIRCLE
  5
11EA
  8
0
 10
6.0734460980115337
 20
6.1151725623931394
 30
0.0
 40
0.0144946277877712
  0
CIRCLE
  5
11EC
  8
0
 10
6.0697500093001286
 20
5.9070942293703741
 30
0.0
 40
0.063485446604187
  0
CIRCLE
  5
11ED
  8
0
 10
6.0728254513125721
 20
5.9154260748487424
 30
0.0
 40
0.0144946277877712
  0
CIRCLE
  5
11EF
  8
0
 10
6.0697500093001286
 20
5.7090942293703737
 30
0.0
 40
0.063485446604187
  0
CIRCLE
  5
11F0
  8
0
 10
6.0731783544131996
 20
5.7150010094406669
 30
0.0
 40
0.0144946277877712
  0
CIRCLE
  5
11F2
  8
0
 10
5.9630582507999996
 20
5.4140942268041847
 30
0.0
 40
0.063485446604187
  0
CIRCLE
  5
11F3
  8
0
 10
5.9633531951292467
 20
5.4150898547025559
 30
0.0
 40
0.0144946277877712
  0
CIRCLE
  5
11F5
  8
0
 10
6.0697501734001298
 20
5.5120942294703728
 30
0.0
 40
0.063485446604187
  0
CIRCLE
  5
11F6
  8
0
 10
6.0731109943283528
 20
5.5150478614403404
 30
0.0
 40
0.0144946277877712
  0
CIRCLE
  5
11F8
  8
0
 10
5.9630580866999994
 20
5.2160942267041861
 30
0.0
 40
0.063485446604187
  0
CIRCLE
  5
11F9
  8
0
 10
5.963335635246005
 20
5.2150899327414217
 30
0.0
 40
0.0144946277877712
  0
CIRCLE
  5
11FB
  8
0
 10
6.0697500093001286
 20
5.314094229370375
 30
0.0
 40
0.063485446604187
  0
CIRCLE
  5
11FC
  8
0
 10
6.0730615514596069
 20
5.315048442414434
 30
0.0
 40
0.0144946277877712
  0
CIRCLE
  5
11FE
  8
0
 10
5.9630580866999994
 20
5.0180942267041857
 30
0.0
 40
0.063485446604187
  0
CIRCLE
  5
11FF
  8
0
 10
5.963335635246005
 20
5.0170899327414222
 30
0.0
 40
0.0144946277877712
  0
CIRCLE
  5
1201
  8
0
 10
6.0697500093001286
 20
5.1160942293703737
 30
0.0
 40
0.063485446604187
  0
CIRCLE
  5
1202
  8
0
 10
6.0730615514596069
 20
5.1170484424144336
 30
0.0
 40
0.0144946277877712
  0
CIRCLE
  5
1204
  8
0
 10
5.963057922628396
 20
4.8180955067183229
 30
0.0
 40
0.063485446604187
  0
CIRCLE
  5
1205
  8
0
 10
5.9633293672249721
 20
4.8151058005355303
 30
0.0
 40
0.0144946277877712
  0
CIRCLE
  5
1207
  8
0
 10
6.069749845228527
 20
4.9160955093845109
 30
0.0
 40
0.063485446604187
  0
CIRCLE
  5
1208
  8
0
 10
6.073055283438574
 20
4.9150643102085416
 30
0.0
 40
0.0144946277877712
  0
CIRCLE
  5
120A
  8
0
 10
5.9630579226283977
 20
4.6180955107716164
 30
0.0
 40
0.063485446604187
  0
CIRCLE
  5
120B
  8
0
 10
5.963369404699999
 20
4.61508986918777
 30
0.0
 40
0.0144946277877712
  0
CIRCLE
  5
120D
  8
0
 10
6.0697498452285279
 20
4.7160955134378044
 30
0.0
 40
0.063485446604187
  0
CIRCLE
  5
120E
  8
0
 10
6.0730953209136009
 20
4.7150483788607831
 30
0.0
 40
0.0144946277877712
  0
CIRCLE
  5
1210
  8
0
 10
5.9630580867282603
 20
4.4200955403366287
 30
0.0
 40
0.063485446604187
  0
CIRCLE
  5
1211
  8
0
 10
5.9633695687998607
 20
4.417089898752784
 30
0.0
 40
0.0144946277877712
  0
CIRCLE
  5
1213
  8
0
 10
6.0697500093283896
 20
4.5180955430028167
 30
0.0
 40
0.063485446604187
  0
CIRCLE
  5
1214
  8
0
 10
6.0730954850134626
 20
4.5170484084257962
 30
0.0
 40
0.0144946277877712
  0
CIRCLE
  5
1216
  8
0
 10
5.9630580866998679
 20
4.2220942237379999
 30
0.0
 40
0.063485446604187
  0
CIRCLE
  5
1217
  8
0
 10
5.9633785095705463
 20
4.2151288929488171
 30
0.0
 40
0.0144946277877712
  0
CIRCLE
  5
1219
  8
0
 10
6.0697500092999981
 20
4.3200942264041879
 30
0.0
 40
0.063485446604187
  0
CIRCLE
  5
121A
  8
0
 10
6.0731044257841482
 20
4.3150874026218302
 30
0.0
 40
0.0144946277877712
  0
CIRCLE
  5
121C
  8
0
 10
5.9630580867282692
 20
4.0250955241068764
 30
0.0
 40
0.063485446604187
  0
CIRCLE
  5
121D
  8
0
 10
5.9633856763282074
 20
4.0151287978352306
 30
0.0
 40
0.0144946277877712
  0
CIRCLE
  5
121F
  8
0
 10
6.0697500093283994
 20
4.1230955267730636
 30
0.0
 40
0.063485446604187
  0
CIRCLE
  5
1220
  8
0
 10
6.0731115925418093
 20
4.1150873075082428
 30
0.0
 40
0.0144946277877712
  0
CIRCLE
  5
1222
  8
0
 10
5.9630579226282681
 20
3.827095524006876
 30
0.0
 40
0.063485446604187
  0
CIRCLE
  5
1223
  8
0
 10
5.9633961707344403
 20
3.8150886453917239
 30
0.0
 40
0.0144946277877712
  0
CIRCLE
  5
1225
  8
0
 10
6.0697498452283982
 20
3.9250955266730641
 30
0.0
 40
0.063485446604187
  0
CIRCLE
  5
1226
  8
0
 10
6.0731220869480422
 20
3.915047155064737
 30
0.0
 40
0.0144946277877712
  0
CIRCLE
  5
1228
  8
0
 10
5.9630492194442857
 20
3.6290956794659999
 30
0.0
 40
0.063485446604187
  0
CIRCLE
  5
1229
  8
0
 10
5.963319251134898
 20
3.6150865878333849
 30
0.0
 40
0.0144946277877712
  0
CIRCLE
  5
122B
  8
0
 10
6.0697411420444158
 20
3.7270956821321879
 30
0.0
 40
0.063485446604187
  0
CIRCLE
  5
122C
  8
0
 10
6.0730451673485
 20
3.7150450975063971
 30
0.0
 40
0.0144946277877712
  0
CIRCLE
  5
122E
  8
0
 10
5.8514190878355983
 20
6.107129233704983
 30
0.0
 40
0.063485446604187
  0
CIRCLE
  5
122F
  8
0
 10
5.852745273586125
 20
6.1148006461361044
 30
0.0
 40
0.0144946277877712
  0
CIRCLE
  5
1231
  8
0
 10
5.8514190861355981
 20
5.9081292337049831
 30
0.0
 40
0.063485446604187
  0
CIRCLE
  5
1232
  8
0
 10
5.8533752733000002
 20
5.91510340768777
 30
0.0
 40
0.0144946277877712
  0
CIRCLE
  5
1234
  8
0
 10
5.8514190844355971
 20
5.7101292337176837
 30
0.0
 40
0.063485446604187
  0
CIRCLE
  5
1235
  8
0
 10
5.853375271320969
 20
5.7151034076877716
 30
0.0
 40
0.0144946277877712
  0
CIRCLE
  5
1237
  8
0
 10
5.8514190861355981
 20
5.5121292337049841
 30
0.0
 40
0.063485446604187
  0
CIRCLE
  5
1238
  8
0
 10
5.8533621933999997
 20
5.5151047864877709
 30
0.0
 40
0.0144946277877712
  0
CIRCLE
  5
123A
  8
0
 10
5.8514190861355981
 20
5.3131292337049842
 30
0.0
 40
0.063485446604187
  0
CIRCLE
  5
123B
  8
0
 10
5.8533708108000004
 20
5.3151039038877714
 30
0.0
 40
0.0144946277877712
  0
CIRCLE
  5
123D
  8
0
 10
5.8514190844355971
 20
5.1151292337176839
 30
0.0
 40
0.063485446604187
  0
CIRCLE
  5
123E
  8
0
 10
5.8533751164999988
 20
5.1151034615877711
 30
0.0
 40
0.0144946277877712
  0
CIRCLE
  5
1240
  8
0
 10
5.8542467147633346
 20
4.9152102742039716
 30
0.0
 40
0.063485446604187
  0
CIRCLE
  5
1241
  8
0
 10
5.8533752733000002
 20
4.91510340768777
 30
0.0
 40
0.0144946277877712
  0
CIRCLE
  5
1243
  8
0
 10
5.8514190861355981
 20
4.7151292337049844
 30
0.0
 40
0.063485446604187
  0
CIRCLE
  5
1244
  8
0
 10
5.8533760606598086
 20
4.7151034077014637
 30
0.0
 40
0.0144946277877712
  0
CIRCLE
  5
1246
  8
0
 10
5.8540112284572636
 20
4.5171991678490562
 30
0.0
 40
0.063485446604187
  0
CIRCLE
  5
1247
  8
0
 10
5.8533708108000004
 20
4.5151039038877707
 30
0.0
 40
0.0144946277877712
  0
CIRCLE
  5
1249
  8
0
 10
5.8545820017955847
 20
4.3182274620036623
 30
0.0
 40
0.063485446604187
  0
CIRCLE
  5
124A
  8
0
 10
5.8533621933999997
 20
4.3151047864877707
 30
0.0
 40
0.0144946277877712
  0
CIRCLE
  5
124F
  8
0
 10
5.8546280898138461
 20
4.1202278717293632
 30
0.0
 40
0.063485446604187
  0
CIRCLE
  5
1250
  8
0
 10
5.8533200840278328
 20
4.1151033026189534
 30
0.0
 40
0.0144946277877712
  0
CIRCLE
  5
1252
  8
0
 10
5.8545820017955847
 20
3.922227462003661
 30
0.0
 40
0.063485446604187
  0
CIRCLE
  5
1253
  8
0
 10
5.8533752733000002
 20
3.9151034076877709
 30
0.0
 40
0.0144946277877712
  0
CIRCLE
  5
1255
  8
0
 10
5.8545820034955849
 20
3.7232274619909602
 30
0.0
 40
0.063485446604187
  0
CIRCLE
  5
1256
  8
0
 10
5.8533551395887651
 20
3.7151034218904111
 30
0.0
 40
0.0144946277877712
  0
CIRCLE
  5
1258
  8
0
 10
5.7437603669098758
 20
6.2051085767530267
 30
0.0
 40
0.063485446604187
  0
CIRCLE
  5
1259
  8
0
 10
5.7434460339990974
 20
6.2151445524618083
 30
0.0
 40
0.0144946277877712
  0
CIRCLE
  5
125B
  8
0
 10
5.7437703949999976
 20
6.0081233332958117
 30
0.0
 40
0.063485446604187
  0
CIRCLE
  5
125C
  8
0
 10
5.7434679114766682
 20
6.015424097301552
 30
0.0
 40
0.0144946277877712
  0
CIRCLE
  5
125E
  8
0
 10
5.7437704040000002
 20
5.8110942267041858
 30
0.0
 40
0.063485446604187
  0
CIRCLE
  5
125F
  8
0
 10
5.743478978198115
 20
5.8155228603134477
 30
0.0
 40
0.0144946277877712
  0
CIRCLE
  5
1261
  8
0
 10
5.7437704040000002
 20
5.6110942267041857
 30
0.0
 40
0.063485446604187
  0
CIRCLE
  5
1262
  8
0
 10
5.7434754596707531
 20
5.615634630109124
 30
0.0
 40
0.0144946277877712
  0
CIRCLE
  5
1264
  8
0
 10
5.6370783172999994
 20
6.1050942265041872
 30
0.0
 40
0.063485446604187
  0
CIRCLE
  5
1265
  8
0
 10
5.6333823926884641
 20
6.1151725623931394
 30
0.0
 40
0.0144946277877712
  0
CIRCLE
  5
1267
  8
0
 10
5.63707848139987
 20
5.9070942293703741
 30
0.0
 40
0.063485446604187
  0
CIRCLE
  5
1268
  8
0
 10
5.6340030393874274
 20
5.9154260748487424
 30
0.0
 40
0.0144946277877712
  0
CIRCLE
  5
126A
  8
0
 10
5.63707848139987
 20
5.7090942293703737
 30
0.0
 40
0.063485446604187
  0
CIRCLE
  5
126B
  8
0
 10
5.633650136286799
 20
5.7150010094406669
 30
0.0
 40
0.0144946277877712
  0
CIRCLE
  5
126D
  8
0
 10
5.743770239899999
 20
5.4140942268041847
 30
0.0
 40
0.063485446604187
  0
CIRCLE
  5
126E
  8
0
 10
5.7434752955707511
 20
5.4150898547025559
 30
0.0
 40
0.0144946277877712
  0
CIRCLE
  5
1270
  8
0
 10
5.637078317299868
 20
5.5120942294703728
 30
0.0
 40
0.063485446604187
  0
CIRCLE
  5
1271
  8
0
 10
5.633717496371645
 20
5.5150478614403404
 30
0.0
 40
0.0144946277877712
  0
CIRCLE
  5
1273
  8
0
 10
5.7437704040000002
 20
5.2160942267041861
 30
0.0
 40
0.063485446604187
  0
CIRCLE
  5
1274
  8
0
 10
5.7434928554539928
 20
5.2150899327414217
 30
0.0
 40
0.0144946277877712
  0
CIRCLE
  5
1276
  8
0
 10
5.63707848139987
 20
5.314094229370375
 30
0.0
 40
0.063485446604187
  0
CIRCLE
  5
1277
  8
0
 10
5.6337669392403908
 20
5.315048442414434
 30
0.0
 40
0.0144946277877712
  0
CIRCLE
  5
1279
  8
0
 10
5.7437704040000002
 20
5.0180942267041857
 30
0.0
 40
0.063485446604187
  0
CIRCLE
  5
127A
  8
0
 10
5.7434928554539928
 20
5.0170899327414222
 30
0.0
 40
0.0144946277877712
  0
CIRCLE
  5
127C
  8
0
 10
5.63707848139987
 20
5.1160942293703737
 30
0.0
 40
0.063485446604187
  0
CIRCLE
  5
127D
  8
0
 10
5.6337669392403908
 20
5.1170484424144336
 30
0.0
 40
0.0144946277877712
  0
CIRCLE
  5
127F
  8
0
 10
5.7437705680716018
 20
4.8180955067183229
 30
0.0
 40
0.063485446604187
  0
CIRCLE
  5
1280
  8
0
 10
5.7434991234750266
 20
4.8151058005355303
 30
0.0
 40
0.0144946277877712
  0
CIRCLE
  5
1282
  8
0
 10
5.6370786454714716
 20
4.9160955093845109
 30
0.0
 40
0.063485446604187
  0
CIRCLE
  5
1283
  8
0
 10
5.6337732072614246
 20
4.9150643102085416
 30
0.0
 40
0.0144946277877712
  0
CIRCLE
  5
1285
  8
0
 10
5.7437705680716
 20
4.6180955107716164
 30
0.0
 40
0.063485446604187
  0
CIRCLE
  5
1286
  8
0
 10
5.7434590859999988
 20
4.61508986918777
 30
0.0
 40
0.0144946277877712
  0
CIRCLE
  5
1288
  8
0
 10
5.6370786454714699
 20
4.7160955134378044
 30
0.0
 40
0.063485446604187
  0
CIRCLE
  5
1289
  8
0
 10
5.6337331697863968
 20
4.7150483788607831
 30
0.0
 40
0.0144946277877712
  0
CIRCLE
  5
128B
  8
0
 10
5.7437704039717392
 20
4.4200955403366287
 30
0.0
 40
0.063485446604187
  0
CIRCLE
  5
128C
  8
0
 10
5.7434589219001371
 20
4.417089898752784
 30
0.0
 40
0.0144946277877712
  0
CIRCLE
  5
128E
  8
0
 10
5.6370784813716091
 20
4.5180955430028167
 30
0.0
 40
0.063485446604187
  0
CIRCLE
  5
128F
  8
0
 10
5.633733005686536
 20
4.5170484084257962
 30
0.0
 40
0.0144946277877712
  0
CIRCLE
  5
1291
  8
0
 10
5.7437704040001298
 20
4.2220942237379999
 30
0.0
 40
0.063485446604187
  0
CIRCLE
  5
1292
  8
0
 10
5.7434499811294533
 20
4.2151288929488171
 30
0.0
 40
0.0144946277877712
  0
CIRCLE
  5
1294
  8
0
 10
5.6370784813999997
 20
4.3200942264041879
 30
0.0
 40
0.063485446604187
  0
CIRCLE
  5
1295
  8
0
 10
5.6337240649158513
 20
4.3150874026218302
 30
0.0
 40
0.0144946277877712
  0
CIRCLE
  5
1297
  8
0
 10
5.7437704039717303
 20
4.0250955241068764
 30
0.0
 40
0.063485446604187
  0
CIRCLE
  5
1298
  8
0
 10
5.7434428143717922
 20
4.0151287978352306
 30
0.0
 40
0.0144946277877712
  0
CIRCLE
  5
129A
  8
0
 10
5.6370784813716002
 20
4.1230955267730636
 30
0.0
 40
0.063485446604187
  0
CIRCLE
  5
129B
  8
0
 10
5.6337168981581902
 20
4.1150873075082428
 30
0.0
 40
0.0144946277877712
  0
CIRCLE
  5
129D
  8
0
 10
5.7437705680717306
 20
3.827095524006876
 30
0.0
 40
0.063485446604187
  0
CIRCLE
  5
129E
  8
0
 10
5.7434323199655593
 20
3.8150886453917239
 30
0.0
 40
0.0144946277877712
  0
CIRCLE
  5
12A0
  8
0
 10
5.6370786454716013
 20
3.9250955266730641
 30
0.0
 40
0.063485446604187
  0
CIRCLE
  5
12A1
  8
0
 10
5.6337064037519573
 20
3.915047155064737
 30
0.0
 40
0.0144946277877712
  0
CIRCLE
  5
12A3
  8
0
 10
5.7437792712557121
 20
3.6290956794659999
 30
0.0
 40
0.063485446604187
  0
CIRCLE
  5
12A4
  8
0
 10
5.7435092395650997
 20
3.6150865878333849
 30
0.0
 40
0.0144946277877712
  0
CIRCLE
  5
12A6
  8
0
 10
5.6370873486555819
 20
3.7270956821321879
 30
0.0
 40
0.063485446604187
  0
CIRCLE
  5
12A7
  8
0
 10
5.6337833233514978
 20
3.7150450975063971
 30
0.0
 40
0.0144946277877712
  0
ATTDEF
  5
17AC
  8
DEFPOINTS
 10
5.8493924196746372
 20
-1.724565331604146
 30
0.0
 40
0.001
  1
K-45415-A
  3

  2
MODELNUMBER
 70
     0
1001
AcDbAttr
1070
     0
1070
     1
  0
ATTDEF
  5
17AD
  8
DEFPOINTS
 10
5.8493924196746372
 20
-1.726231998270811
 30
0.0
 40
0.001
  1
SHIFT
  3

  2
TRADENAME
 70
     0
1001
AcDbAttr
1070
     0
1070
     1
  0
ATTDEF
  5
17AE
  8
DEFPOINTS
 10
5.8493924196746372
 20
-1.7278986649374759
 30
0.0
 40
0.001
  1
HANDSHOWER
  3

  2
PRODUCT
 70
     0
1001
AcDbAttr
1070
     0
1070
     1
  0
ATTDEF
  5
17AF
  8
DEFPOINTS
 10
5.8493924196746372
 20
-1.7295653316041411
 30
0.0
 40
0.001
  1
PREMIUM MATERIALS
  3

  2
MATERIAL
 70
     0
1001
AcDbAttr
1070
     0
1070
     1
  0
ENDSEC
  0
EOF
