  0
SECTION
  2
HEADER
  9
$ACADVER
  1
AC1009
  9
$INSBASE
 10
347.75882883075212
 20
23.75448265657603
 30
0.0
  9
$EXTMIN
 10
343.09648823662928
 20
19.092053588792801
 30
0.0
  9
$EXTMAX
 10
348.10056241617838
 20
24.096216242052311
 30
0.0
  9
$LIMMIN
 10
0.0
 20
0.0
  9
$LIMMAX
 10
11.692913385800001
 20
8.2677165353999982
  9
$ORTHOMODE
 70
     0
  9
$REGENMODE
 70
     1
  9
$FILLMODE
 70
     1
  9
$QTEXTMODE
 70
     0
  9
$MIRRTEXT
 70
     0
  9
$DRAGMODE
 70
     2
  9
$LTSCALE
 40
0.6431102362
  9
$OSMODE
 70
  3071
  9
$ATTMODE
 70
     1
  9
$TEXTSIZE
 40
0.2
  9
$TRACEWID
 40
0.05
  9
$TEXTSTYLE
  7
STANDARD
  9
$CLAYER
  8
0
  9
$CELTYPE
  6
BYLAYER
  9
$CECOLOR
 62
   256
  9
$DIMSCALE
 40
1.0
  9
$DIMASZ
 40
0.1875
  9
$DIMEXO
 40
0.0625
  9
$DIMDLI
 40
0.4443307087
  9
$DIMRND
 40
0.0
  9
$DIMDLE
 40
0.0
  9
$DIMEXE
 40
0.125
  9
$DIMTP
 40
0.01
  9
$DIMTM
 40
0.01
  9
$DIMTXT
 40
1.0
  9
$DIMCEN
 40
0.1052362205
  9
$DIMTSZ
 40
0.0
  9
$DIMTOL
 70
     1
  9
$DIMLIM
 70
     0
  9
$DIMTIH
 70
     0
  9
$DIMTOH
 70
     1
  9
$DIMSE1
 70
     0
  9
$DIMSE2
 70
     0
  9
$DIMTAD
 70
     0
  9
$DIMZIN
 70
     0
  9
$DIMBLK
  1

  9
$DIMASO
 70
     1
  9
$DIMSHO
 70
     1
  9
$DIMPOST
  1
\X
  9
$DIMAPOST
  1

  9
$DIMALT
 70
     1
  9
$DIMALTD
 70
     2
  9
$DIMALTF
 40
25.399999999999999
  9
$DIMLFAC
 40
1.0
  9
$DIMTOFL
 70
     0
  9
$DIMTVP
 40
0.0
  9
$DIMTIX
 70
     0
  9
$DIMSOXD
 70
     0
  9
$DIMSAH
 70
     0
  9
$DIMBLK1
  1

  9
$DIMBLK2
  1

  9
$DIMSTYLE
  2
STANDARD
  9
$DIMCLRD
 70
     0
  9
$DIMCLRE
 70
     0
  9
$DIMCLRT
 70
     0
  9
$DIMTFAC
 40
1.0
  9
$DIMGAP
 40
0.09
  9
$LUNITS
 70
     2
  9
$LUPREC
 70
     4
  9
$SKETCHINC
 40
0.1
  9
$FILLETRAD
 40
0.0
  9
$AUNITS
 70
     0
  9
$AUPREC
 70
     0
  9
$MENU
  1
.
  9
$ELEVATION
 40
0.0
  9
$PELEVATION
 40
0.0
  9
$THICKNESS
 40
0.0
  9
$LIMCHECK
 70
     0
  9
$BLIPMODE
 70
     0
  9
$CHAMFERA
 40
0.0
  9
$CHAMFERB
 40
0.0
  9
$SKPOLY
 70
     0
  9
$TDCREATE
 40
2458172.5207663891
  9
$TDUPDATE
 40
2458446.626797766
  9
$TDINDWG
 40
0.0991354977
  9
$TDUSRTIMER
 40
0.0991354977
  9
$USRTIMER
 70
     1
  9
$ANGBASE
 50
0.0
  9
$ANGDIR
 70
     0
  9
$PDMODE
 70
     0
  9
$PDSIZE
 40
0.3125
  9
$PLINEWID
 40
0.0
  9
$COORDS
 70
     2
  9
$SPLFRAME
 70
     0
  9
$SPLINETYPE
 70
     6
  9
$SPLINESEGS
 70
     8
  9
$ATTDIA
 70
     1
  9
$ATTREQ
 70
     1
  9
$HANDLING
 70
     1
  9
$HANDSEED
  5
5457
  9
$SURFTAB1
 70
     6
  9
$SURFTAB2
 70
     6
  9
$SURFTYPE
 70
     6
  9
$SURFU
 70
     6
  9
$SURFV
 70
     6
  9
$UCSNAME
  2

  9
$UCSORG
 10
0.0
 20
0.0
 30
0.0
  9
$UCSXDIR
 10
1.0
 20
0.0
 30
0.0
  9
$UCSYDIR
 10
0.0
 20
1.0
 30
0.0
  9
$PUCSNAME
  2

  9
$PUCSORG
 10
0.0
 20
0.0
 30
0.0
  9
$PUCSXDIR
 10
1.0
 20
0.0
 30
0.0
  9
$PUCSYDIR
 10
0.0
 20
1.0
 30
0.0
  9
$USERI1
 70
     0
  9
$USERI2
 70
     0
  9
$USERI3
 70
     0
  9
$USERI4
 70
     0
  9
$USERI5
 70
     0
  9
$USERR1
 40
0.0
  9
$USERR2
 40
0.0
  9
$USERR3
 40
0.0
  9
$USERR4
 40
0.0
  9
$USERR5
 40
0.0
  9
$WORLDVIEW
 70
     1
  9
$SHADEDGE
 70
     3
  9
$SHADEDIF
 70
    70
  9
$TILEMODE
 70
     1
  9
$MAXACTVP
 70
    64
  9
$PLIMCHECK
 70
     0
  9
$PEXTMIN
 10
1.0000000000000000E+020
 20
1.0000000000000000E+020
 30
1.0000000000000000E+020
  9
$PEXTMAX
 10
-1.0000000000000000E+020
 20
-1.0000000000000000E+020
 30
-1.0000000000000000E+020
  9
$PLIMMIN
 10
0.0
 20
0.0
  9
$PLIMMAX
 10
12.0
 20
9.0
  9
$UNITMODE
 70
     0
  9
$VISRETAIN
 70
     1
  9
$PLINEGEN
 70
     0
  9
$PSLTSCALE
 70
     1
  0
ENDSEC
  0
SECTION
  2
TABLES
  0
TABLE
  2
VPORT
 70
     1
  0
VPORT
  2
*ACTIVE
 70
     0
 10
0.0
 20
0.0
 11
1.0
 21
1.0
 12
0.0
 22
0.0
 13
0.0
 23
0.0
 14
1.0
 24
1.0
 15
0.0
 25
0.0
 16
0.0
 26
0.0
 36
20.391877553356899
 17
345.59852607208092
 27
21.59409747409325
 37
0.0
 40
7.0768363975033006
 41
2.1638418079096038
 42
50.0
 43
0.0
 44
0.0
 50
0.0
 51
0.0
 71
     0
 72
   100
 73
     1
 74
     1
 75
     0
 76
     0
 77
     0
 78
     0
  0
ENDTAB
  0
TABLE
  2
LTYPE
 70
     3
  0
LTYPE
  2
CONTINUOUS
 70
     0
  3
Solid line
 72
    65
 73
     0
 40
0.0
  0
LTYPE
  2
PHANTOM2
 70
     0
  3
___ _ _ ___ _ _ ___ _ _ ___ _ _
 72
    65
 73
     6
 40
1.25
 49
0.625
 49
-0.125
 49
0.125
 49
-0.125
 49
0.125
 49
-0.125
  0
ENDTAB
  0
TABLE
  2
LAYER
 70
     2
  0
LAYER
  2
0
 70
     0
 62
   255
  6
CONTINUOUS
  0
LAYER
  2
DEFPOINTS
 70
     0
 62
     7
  6
CONTINUOUS
  0
ENDTAB
  0
TABLE
  2
STYLE
 70
     1
  0
STYLE
  2
STANDARD
 70
     0
 40
0.0
 41
0.8
 50
0.0
 71
     0
 42
0.2
  3
txt
  4

  0
ENDTAB
  0
TABLE
  2
VIEW
 70
     0
  0
ENDTAB
  0
TABLE
  2
UCS
 70
     0
  0
ENDTAB
  0
TABLE
  2
APPID
 70
    10
  0
APPID
  2
ACAD
 70
     0
  0
APPID
  2
ACAD_MLEADERVER
 70
     0
  0
APPID
  2
ACAD_EXEMPT_FROM_CAD_STANDARDS
 70
     0
  0
APPID
  2
ACAD_DSTYLE_DIMJAG
 70
     0
  0
APPID
  2
ACAD_DSTYLE_DIMTALN
 70
     0
  0
APPID
  2
ACAD_NAV_VCDISPLAY
 70
     0
  0
APPID
  2
ACAECLAYERSTANDARD
 70
     0
  0
APPID
  2
ACCMTRANSPARENCY
 70
     0
  0
APPID
  2
DCO15
 70
     0
  0
APPID
  2
ACDBATTR
 70
     0
  0
ENDTAB
  0
TABLE
  2
DIMSTYLE
 70
     2
  0
DIMSTYLE
  2
STANDARD
 70
     0
  3

  4

  5

  6

  7

 40
1.0
 41
0.1875
 42
0.0625
 43
0.38
 44
0.125
 45
0.0
 46
0.0
 47
0.01
 48
0.01
140
0.15625
141
0.09
142
0.0
143
25.399999999999999
144
1.0
145
0.0
146
1.0
147
0.09
 71
     1
 72
     0
 73
     1
 74
     1
 75
     0
 76
     0
 77
     0
 78
     4
170
     0
171
     2
172
     0
173
     0
174
     0
175
     0
176
     0
177
     0
178
     0
  0
ENDTAB
  0
ENDSEC
  0
SECTION
  2
BLOCKS
  0
BLOCK
  8
0
  2
$MODEL_SPACE
 70
     0
 10
0.0
 20
0.0
 30
0.0
  3
$MODEL_SPACE
  1

  0
ENDBLK
  5
21
  8
0
  0
BLOCK
 67
     1
  8
0
  2
$PAPER_SPACE
 70
     0
 10
0.0
 20
0.0
 30
0.0
  3
$PAPER_SPACE
  1

  0
ENDBLK
  5
1D
 67
     1
  8
0
  0
ENDSEC
  0
SECTION
  2
ENTITIES
  0
ATTDEF
  5
829
  8
DEFPOINTS
 10
347.7533749081548
 20
23.766383761789019
 30
0.0
 40
0.001
  1
K-45215
  3

  2
MODELNUMBER
 70
     0
1001
ACDBATTR
1070
     0
1070
     1
  0
ATTDEF
  5
82A
  8
DEFPOINTS
 10
347.7533749081548
 20
23.764717095122361
 30
0.0
 40
0.001
  1
LOURE
  3

  2
TRADENAME
 70
     0
1001
ACDBATTR
1070
     0
1070
     1
  0
ATTDEF
  5
82B
  8
DEFPOINTS
 10
347.7533749081548
 20
23.763050428455688
 30
0.0
 40
0.001
  1
SHOWERHEAD
  3

  2
PRODUCT
 70
     0
1001
ACDBATTR
1070
     0
1070
     1
  0
ATTDEF
  5
82C
  8
DEFPOINTS
 10
347.7533749081548
 20
23.76138376178903
 30
0.0
 40
0.001
  1
PREMIUM MATERIALS
  3

  2
MATERIAL
 70
     0
1001
ACDBATTR
1070
     0
1070
     1
  0
LINE
  5
5176
  8
0
 10
343.11397426777842
 20
23.564400815052299
 30
0.0
 11
343.24041649897839
 21
23.690843046252301
 31
0.0
  0
LINE
  5
5177
  8
0
 10
346.77206105077829
 20
19.572300193952302
 30
0.0
 11
347.49354491677838
 21
19.1017959162523
 31
0.0
  0
LINE
  5
5178
  8
0
 10
343.10614059257841
 20
23.4892010587523
 30
0.0
 11
343.57664468597829
 21
22.767716810952301
 31
0.0
  0
LINE
  5
5179
  8
0
 10
346.35104696707839
 20
23.411173916652299
 30
0.0
 11
345.68376877227843
 21
22.7889269333523
 31
0.0
  0
LINE
  5
517A
  8
0
 10
344.79626380117838
 20
21.422800129952311
 30
0.0
 11
344.82016933017837
 21
21.4476389105523
 31
0.0
  0
LINE
  5
517B
  8
0
 10
347.39466883837838
 20
24.090358377652311
 30
0.0
 11
346.87764876967839
 21
23.5733383088523
 31
0.0
  0
LINE
  5
517C
  8
0
 10
343.57664468597829
 20
22.767716810952301
 30
0.0
 11
346.77206105077829
 21
19.572300193952302
 31
0.0
  0
LINE
  5
517D
  8
0
 10
344.8720418958784
 20
21.341705532852298
 30
0.0
 11
344.89873629037828
 21
21.364121524252312
 31
0.0
  0
LINE
  5
517E
  8
0
 10
347.49930992805918
 20
23.76772738793311
 30
0.0
 11
347.09128480847829
 21
23.359702268252299
 31
0.0
  0
LINE
  5
517F
  8
0
 10
343.26870077017838
 20
23.690843046252301
 30
0.0
 11
347.69518922037838
 21
19.2643545960523
 31
0.0
  0
LINE
  5
5180
  8
0
 10
347.3640475815784
 20
23.086938034052299
 30
0.0
 11
347.77207336684762
 21
23.494963819321519
 31
0.0
  0
LINE
  5
5181
  8
0
 10
348.09470455177842
 20
23.390322664252299
 30
0.0
 11
347.57768448307837
 21
22.873302595452301
 31
0.0
  0
LINE
  5
5182
  8
0
 10
347.41552009077839
 20
22.346700792952308
 30
0.0
 11
346.7932731074784
 21
21.6794225981523
 31
0.0
  0
LINE
  5
5183
  8
0
 10
346.77286075957841
 20
21.5922810295523
 30
0.0
 11
345.59662720367839
 21
22.768514585452301
 31
0.0
  0
LINE
  5
5184
  8
0
 10
345.59662720367839
 20
22.768514585452301
 30
0.0
 11
343.90440845467839
 21
23.274050308752301
 31
0.0
  0
LINE
  5
5185
  8
0
 10
346.77286075957841
 20
21.5922810295523
 30
0.0
 11
347.27839648297828
 21
19.900062280552302
 31
0.0
  0
LINE
  5
5186
  8
0
 10
346.46217537837327
 20
23.40923416304723
 30
0.0
 11
347.4135803371733
 21
22.457829204247229
 31
0.0
  0
LINE
  5
5187
  8
0
 10
347.49930992805918
 20
23.76772738793311
 30
0.0
 11
347.77207336684762
 21
23.494963819321519
 31
0.0
  0
LINE
  5
5188
  8
0
 10
347.42295310970212
 20
24.090358377676029
 30
0.0
 11
348.09470455180212
 21
23.418606935476031
 31
0.0
  0
LINE
  5
5189
  8
0
 10
347.56874590589513
 20
19.109627013474761
 30
0.0
 11
347.69518922037838
 21
19.236070324752301
 31
0.0
  0
ARC
  5
518A
  8
0
 10
343.85574743527837
 20
23.1111635223523
 30
0.0
 40
0.17
 50
73.366939216299542
 51
125.46385701870101
  0
ARC
  5
518B
  8
0
 10
345.62238891987829
 20
22.8547487664523
 30
0.0
 40
0.09
 50
253.36693921629961
 51
312.99999999999989
  0
ARC
  5
518C
  8
0
 10
346.40560683587842
 20
23.352665620552312
 30
0.0
 40
0.08
 50
44.999999999999851
 51
132.9999999999998
  0
ARC
  5
518D
  8
0
 10
343.7339076854762
 20
23.2822046734601
 30
0.0
 40
0.0400000000075875
 50
225.00000001005949
 51
305.463857014719
  0
ARC
  5
518E
  8
0
 10
343.63408734967828
 20
22.745253653352311
 30
0.0
 40
0.03
 50
190.5352920778617
 51
214.07132174179941
  0
ARC
  5
518F
  8
0
 10
343.25455863457842
 20
23.676700910652301
 30
0.0
 40
0.02
 50
44.999999998700403
 51
135.00000000000011
  0
ARC
  5
5190
  8
0
 10
347.11550969657839
 20
19.851401261152301
 30
0.0
 40
0.17
 50
324.5361429813002
 51
16.633060783700358
  0
ARC
  5
5191
  8
0
 10
346.8590949406784
 20
21.618042745752309
 30
0.0
 40
0.09
 50
137.0000000000006
 51
196.6330607837003
  0
ARC
  5
5192
  8
0
 10
347.28655084783958
 20
19.729561511308031
 30
0.0
 40
0.0400000001570351
 50
144.53614306368439
 51
224.99999979182169
  0
ARC
  5
5193
  8
0
 10
346.74959982757838
 20
19.629741175452299
 30
0.0
 40
0.03
 50
235.92867825819991
 51
259.4641165890805
  0
ARC
  5
5194
  8
0
 10
347.68104708477841
 20
19.2502124604523
 30
0.0
 40
0.02
 50
315.00000000000023
 51
45.000000001299313
  0
ARC
  5
5195
  8
0
 10
346.70524121027842
 20
22.7006407111523
 30
0.0
 40
0.5282513436000001
 50
84.456290450601031
 51
96.453758715746275
  0
ARC
  5
5196
  8
0
 10
346.70523972677842
 20
22.70089355265231
 30
0.0
 40
0.5280000000000001
 50
353.5433119557128
 51
5.5465202009001908
  0
ARC
  5
5197
  8
0
 10
347.04028332937838
 20
23.410703749152312
 30
0.0
 40
0.23
 50
135.00000000000011
 51
202.4596895364997
  0
ARC
  5
5198
  8
0
 10
347.41504992337838
 20
23.0359371551523
 30
0.0
 40
0.23
 50
247.54031046349911
 51
315.00000000000023
  0
ARC
  5
5199
  8
0
 10
347.35701179467839
 20
22.4012606617523
 30
0.0
 40
0.08
 50
317.00000000000063
 51
44.999999999999851
  0
ARC
  5
519A
  8
0
 10
347.30043992077839
 20
22.758692592952301
 30
0.0
 40
0.07
 50
67.54031046369991
 51
185.5465202009002
  0
ARC
  5
519B
  8
0
 10
346.76303856563999
 20
23.29609377153524
 30
0.0
 40
0.0700001766529081
 50
264.45364689011188
 51
22.459607724938479
  0
ARC
  5
519C
  8
0
 10
348.0805624161784
 20
23.404464799852299
 30
0.0
 40
0.02
 50
315.00000000000023
 51
44.999999999999851
  0
ARC
  5
519D
  8
0
 10
347.40881097407839
 20
24.0762162420523
 30
0.0
 40
0.02
 50
44.999999999999851
 51
135.00000000000011
  0
ARC
  5
519E
  8
0
 10
347.30768021732769
 20
23.30197827854829
 30
0.0
 40
0.5060499025744152
 50
24.471740863095231
 51
65.842638834620772
  0
ARC
  5
519F
  8
0
 10
347.50053418845749
 20
23.740648906668891
 30
0.0
 40
0.0271061424975623
 50
58.298826628781882
 51
92.588668751710586
  0
ARC
  5
51A0
  8
0
 10
347.73134272144563
 20
23.494410496134829
 30
0.0
 40
0.0407344036584213
 50
0.7783115866342669
 51
24.970532359596561
  0
ARC
  5
51A1
  8
0
 10
347.17966244668793
 20
23.283361218966309
 30
0.0
 40
0.1167842571578719
 50
139.17938036224871
 51
201.55532863434939
  0
ARC
  5
51A2
  8
0
 10
347.32319634732562
 20
23.324966565391499
 30
0.0
 40
0.2659364500674498
 50
198.52929940593921
 51
225.9318461090474
  0
ARC
  5
51A3
  8
0
 10
347.33144230095331
 20
23.32222684224179
 30
0.0
 40
0.2698167416181084
 50
224.26883452553091
 51
251.26932113609629
  0
ARC
  5
51A4
  8
0
 10
347.28771155517421
 20
23.175289026012329
 30
0.0
 40
0.1167608098100568
 50
248.4367708975611
 51
310.8273011948873
  0
ARC
  5
51A5
  8
0
 10
343.15680616458229
 20
23.521931048762362
 30
0.0
 40
0.0603179279530652
 50
135.2432358841576
 51
212.86248438603471
  0
ARC
  5
51A6
  8
0
 10
347.52631950820142
 20
19.1520539733074
 30
0.0
 40
0.0600003845146
 50
236.8905795359133
 51
314.99962042526062
  0
ARC
  5
51A7
  8
0
 10
344.80711638404091
 20
21.413812187651491
 30
0.0
 40
0.0140911909216868
 50
140.36896814992349
 51
213.26309439194341
  0
ARC
  5
51A8
  8
0
 10
344.97855203883398
 20
21.51835115231945
 30
0.0
 40
0.2148789039431036
 50
211.49807467187281
 51
235.73947572901309
  0
ARC
  5
51A9
  8
0
 10
344.86409483928361
 20
21.352176471723599
 30
0.0
 40
0.0131451994799289
 50
240.3129122926884
 51
307.19715798332243
  0
ARC
  5
51AA
  8
0
 10
344.55346440497721
 20
21.118029029572511
 30
0.0
 40
0.4239978664640943
 50
35.479367265485003
 51
51.021832460593807
  0
ARC
  5
51AB
  8
0
 10
344.77682601526971
 20
21.402558128042681
 30
0.0
 40
0.062537348032656
 50
46.125674500986442
 51
64.281675457423077
  0
ARC
  5
51AC
  8
0
 10
344.86425038661042
 20
21.477520469753848
 30
0.0
 40
0.0713789884921491
 50
197.36649212194061
 51
217.1994550812102
  0
ARC
  5
51AD
  8
0
 10
344.79874647201927
 20
21.457445365861851
 30
0.0
 40
0.0028956252492143
 50
79.735218194123192
 51
205.14295018315079
  0
ARC
  5
51AE
  8
0
 10
344.79756322828172
 20
21.445940675892409
 30
0.0
 40
0.0144541987308364
 50
63.71566032956806
 51
83.248691701946285
  0
ARC
  5
51AF
  8
0
 10
344.60594634469192
 20
21.177472360447531
 30
0.0
 40
0.3472230732939299
 50
28.57112150596986
 51
32.516894692085181
  0
ARC
  5
51B0
  8
0
 10
344.95560404380262
 20
21.43589268509627
 30
0.0
 40
0.1105551718267111
 50
229.59787973119401
 51
241.59116025840621
  0
ARC
  5
51B1
  8
0
 10
344.91047376422182
 20
21.354009458908131
 30
0.0
 40
0.0170775248525422
 50
244.0703586060215
 51
265.70504666370317
  0
ARC
  5
51B2
  8
0
 10
344.90710938229392
 20
21.34101232325029
 30
0.0
 40
0.0045397710513663
 50
297.34640828429349
 51
33.705348207503341
  0
ARC
  5
51B3
  8
0
 10
344.78471824427118
 20
21.336581918744859
 30
0.0
 40
0.0610839917849682
 50
24.123271415024579
 51
61.29617533323065
  0
ARC
  5
51B4
  8
0
 10
344.87338907345389
 20
21.4184328705784
 30
0.0
 40
0.0657253324715778
 50
205.47859525978441
 51
239.94085148871619
  0
LINE
  5
51B5
  8
0
 10
344.67486373985531
 20
21.456235207713888
 30
0.0
 11
344.6987692688553
 21
21.481073988313891
 31
0.0
  0
LINE
  5
51B6
  8
0
 10
344.75064183455532
 20
21.375140610613879
 30
0.0
 11
344.77733622905532
 21
21.397556602013889
 31
0.0
  0
ARC
  5
51B7
  8
0
 10
344.68571632271778
 20
21.447247265413068
 30
0.0
 40
0.0140911909216868
 50
140.36896814992329
 51
213.26309439194341
  0
ARC
  5
51B8
  8
0
 10
344.85715197751102
 20
21.551786230081031
 30
0.0
 40
0.2148789039431036
 50
211.49807467187281
 51
235.73947572901309
  0
ARC
  5
51B9
  8
0
 10
344.74269477796059
 20
21.385611549485191
 30
0.0
 40
0.0131451994799289
 50
240.3129122926884
 51
307.19715798332243
  0
ARC
  5
51BA
  8
0
 10
344.43206434365408
 20
21.151464107334089
 30
0.0
 40
0.4239978664640943
 50
35.479367265485003
 51
51.021832460593807
  0
ARC
  5
51BB
  8
0
 10
344.65542595394658
 20
21.435993205804259
 30
0.0
 40
0.062537348032656
 50
46.125674500986442
 51
64.281675457423077
  0
ARC
  5
51BC
  8
0
 10
344.74285032528729
 20
21.510955547515429
 30
0.0
 40
0.0713789884921491
 50
197.36649212194061
 51
217.1994550812102
  0
ARC
  5
51BD
  8
0
 10
344.6773464106962
 20
21.490880443623428
 30
0.0
 40
0.0028956252492143
 50
79.735218194123192
 51
205.14295018315079
  0
ARC
  5
51BE
  8
0
 10
344.67616316695859
 20
21.479375753654001
 30
0.0
 40
0.0144541987308364
 50
63.71566032956806
 51
83.248691701946285
  0
ARC
  5
51BF
  8
0
 10
344.4845462833689
 20
21.210907438209109
 30
0.0
 40
0.3472230732939299
 50
28.57112150596986
 51
32.516894692085181
  0
ARC
  5
51C0
  8
0
 10
344.83420398247949
 20
21.469327762857851
 30
0.0
 40
0.1105551718267111
 50
229.59787973119401
 51
241.59116025840621
  0
ARC
  5
51C1
  8
0
 10
344.7890737028988
 20
21.387444536669712
 30
0.0
 40
0.0170775248525422
 50
244.0703586060215
 51
265.70504666370317
  0
ARC
  5
51C2
  8
0
 10
344.7857093209708
 20
21.374447401011871
 30
0.0
 40
0.0045397710513663
 50
297.34640828429349
 51
33.705348207503341
  0
ARC
  5
51C3
  8
0
 10
344.6633181829481
 20
21.37001699650644
 30
0.0
 40
0.0610839917849682
 50
24.123271415024579
 51
61.29617533323065
  0
ARC
  5
51C4
  8
0
 10
344.75198901213082
 20
21.451867948339981
 30
0.0
 40
0.0657253324715778
 50
205.47859525978441
 51
239.94085148871619
  0
LINE
  5
51C5
  8
0
 10
344.62684705920122
 20
21.447577904979241
 30
0.0
 11
344.65075258820121
 21
21.47241668557924
 31
0.0
  0
LINE
  5
51C6
  8
0
 10
344.70262515390118
 20
21.366483307879239
 30
0.0
 11
344.72320512170199
 21
21.383764852933069
 31
0.0
  0
ARC
  5
51C7
  8
0
 10
344.63769964206369
 20
21.438589962678432
 30
0.0
 40
0.0140911909216868
 50
140.36896814992329
 51
213.26309439194341
  0
ARC
  5
51C8
  8
0
 10
344.80913529685688
 20
21.543128927346391
 30
0.0
 40
0.2148789039431036
 50
211.49807467187281
 51
235.73947572901309
  0
ARC
  5
51C9
  8
0
 10
344.69467809730639
 20
21.37695424675054
 30
0.0
 40
0.0131451994799289
 50
240.3129122926884
 51
307.19715798332243
  0
ARC
  5
51CA
  8
0
 10
344.38404766299999
 20
21.142806804599449
 30
0.0
 40
0.4239978664640943
 50
47.052723273788807
 51
51.021832460593807
  0
ARC
  5
51CB
  8
0
 10
344.60740927329238
 20
21.427335903069611
 30
0.0
 40
0.062537348032656
 50
46.125674500986442
 51
64.281675457423077
  0
ARC
  5
51CC
  8
0
 10
344.69483364463321
 20
21.502298244780778
 30
0.0
 40
0.0713789884921491
 50
197.36649212194061
 51
217.1994550812102
  0
ARC
  5
51CD
  8
0
 10
344.62932973004212
 20
21.482223140888792
 30
0.0
 40
0.0028956252492143
 50
79.735218194123192
 51
205.14295018315079
  0
ARC
  5
51CE
  8
0
 10
344.6281464863045
 20
21.47071845091935
 30
0.0
 40
0.0144541987308364
 50
63.71566032956806
 51
83.248691701946285
  0
ARC
  5
51CF
  8
0
 10
344.43652960271481
 20
21.202250135474468
 30
0.0
 40
0.3472230732939299
 50
28.57112150596986
 51
29.464416153770589
  0
ARC
  5
51D0
  8
0
 10
344.78618730182541
 20
21.460670460123211
 30
0.0
 40
0.1105551718267111
 50
229.59787973119401
 51
241.59116025840621
  0
ARC
  5
51D1
  8
0
 10
344.7410570222446
 20
21.378787233935071
 30
0.0
 40
0.0170775248525422
 50
244.0703586060215
 51
265.70504666370317
  0
ARC
  5
51D2
  8
0
 10
344.73769264031671
 20
21.36579009827723
 30
0.0
 40
0.0045397710513663
 50
297.34640828429349
 51
33.705348207503341
  0
ARC
  5
51D3
  8
0
 10
344.61530150229402
 20
21.361359693771799
 30
0.0
 40
0.0610839917849682
 50
24.123271415024579
 51
61.29617533323065
  0
ARC
  5
51D4
  8
0
 10
344.70397233147668
 20
21.44321064560533
 30
0.0
 40
0.0657253324715778
 50
205.47859525978441
 51
239.94085148871619
  0
LINE
  5
51D5
  8
0
 10
344.58273868277388
 20
21.451083704579311
 30
0.0
 11
344.60664421177393
 21
21.475922485179311
 31
0.0
  0
LINE
  5
51D6
  8
0
 10
344.65851677747389
 20
21.369989107479309
 30
0.0
 11
344.66984989279609
 21
21.379505825140669
 31
0.0
  0
ARC
  5
51D7
  8
0
 10
344.59359126563652
 20
21.442095762278491
 30
0.0
 40
0.0140911909216868
 50
140.36896814992329
 51
213.26309439194341
  0
ARC
  5
51D8
  8
0
 10
344.76502692042959
 20
21.546634726946451
 30
0.0
 40
0.2148789039431036
 50
211.49807467187281
 51
235.73947572901309
  0
ARC
  5
51D9
  8
0
 10
344.65056972087922
 20
21.38046004635061
 30
0.0
 40
0.0131451994799289
 50
240.3129122926884
 51
307.19715798332243
  0
ARC
  5
51DA
  8
0
 10
344.3399392865727
 20
21.146312604199512
 30
0.0
 40
0.4239978664640943
 50
46.392664790715727
 51
51.021832460593807
  0
ARC
  5
51DB
  8
0
 10
344.5633008968652
 20
21.430841702669682
 30
0.0
 40
0.062537348032656
 50
46.125674500986442
 51
64.281675457423077
  0
ARC
  5
51DC
  8
0
 10
344.65072526820597
 20
21.505804044380842
 30
0.0
 40
0.0713789884921491
 50
197.36649212194061
 51
217.1994550812102
  0
ARC
  5
51DD
  8
0
 10
344.58522135361483
 20
21.485728940488858
 30
0.0
 40
0.0028956252492143
 50
79.735218194123192
 51
205.14295018315079
  0
ARC
  5
51DE
  8
0
 10
344.58403810987721
 20
21.474224250519409
 30
0.0
 40
0.0144541987308364
 50
63.71566032956806
 51
83.248691701946285
  0
ARC
  5
51DF
  8
0
 10
344.57119312586673
 20
21.364865493371859
 30
0.0
 40
0.0610839917849682
 50
24.123271415024579
 51
61.29617533323065
  0
ARC
  5
51E0
  8
0
 10
344.6598639550495
 20
21.4467164452054
 30
0.0
 40
0.0657253324715778
 50
205.47859525978441
 51
239.94085148871619
  0
LINE
  5
51E1
  8
0
 10
345.07056558384272
 20
21.14739064438205
 30
0.0
 11
345.09447111284271
 21
21.172229424982049
 31
0.0
  0
LINE
  5
51E2
  8
0
 10
345.14634367854268
 20
21.066296047282052
 30
0.0
 11
345.17303807304279
 21
21.088712038682051
 31
0.0
  0
ARC
  5
51E3
  8
0
 10
345.08141816670519
 20
21.13840270208124
 30
0.0
 40
0.0140911909216868
 50
140.36896814992349
 51
213.26309439194341
  0
ARC
  5
51E4
  8
0
 10
345.25285382149838
 20
21.242941666749189
 30
0.0
 40
0.2148789039431036
 50
211.49807467187281
 51
235.73947572901309
  0
ARC
  5
51E5
  8
0
 10
345.13839662194789
 20
21.076766986153348
 30
0.0
 40
0.0131451994799289
 50
240.3129122926884
 51
307.19715798332243
  0
ARC
  5
51E6
  8
0
 10
344.82776618764149
 20
20.842619544002261
 30
0.0
 40
0.4239978664640943
 50
35.479367265485003
 51
51.021832460593807
  0
ARC
  5
51E7
  8
0
 10
345.05112779793399
 20
21.12714864247242
 30
0.0
 40
0.062537348032656
 50
46.125674500986442
 51
64.281675457423077
  0
ARC
  5
51E8
  8
0
 10
345.13855216927482
 20
21.202110984183591
 30
0.0
 40
0.0713789884921491
 50
197.36649212194061
 51
217.1994550812102
  0
ARC
  5
51E9
  8
0
 10
345.07304825468361
 20
21.1820358802916
 30
0.0
 40
0.0028956252492143
 50
79.735218194123192
 51
205.14295018315079
  0
ARC
  5
51EA
  8
0
 10
345.071865010946
 20
21.170531190322158
 30
0.0
 40
0.0144541987308364
 50
63.71566032956806
 51
83.248691701946285
  0
ARC
  5
51EB
  8
0
 10
344.88024812735631
 20
20.902062874877281
 30
0.0
 40
0.3472230732939299
 50
28.57112150596986
 51
32.516894692085181
  0
ARC
  5
51EC
  8
0
 10
345.2299058264669
 20
21.16048319952602
 30
0.0
 40
0.1105551718267111
 50
229.59787973119401
 51
241.59116025840621
  0
ARC
  5
51ED
  8
0
 10
345.18477554688621
 20
21.07859997333788
 30
0.0
 40
0.0170775248525422
 50
244.0703586060215
 51
265.70504666370317
  0
ARC
  5
51EE
  8
0
 10
345.18141116495821
 20
21.065602837680039
 30
0.0
 40
0.0045397710513663
 50
297.34640828429349
 51
33.705348207503341
  0
ARC
  5
51EF
  8
0
 10
345.05902002693551
 20
21.061172433174612
 30
0.0
 40
0.0610839917849682
 50
24.123271415024579
 51
61.29617533323065
  0
ARC
  5
51F0
  8
0
 10
345.14769085611817
 20
21.143023385008139
 30
0.0
 40
0.0657253324715778
 50
205.47859525978441
 51
239.94085148871619
  0
LINE
  5
51F1
  8
0
 10
345.02842755867232
 20
21.105203202508239
 30
0.0
 11
345.05233308767231
 21
21.130041983108232
 31
0.0
  0
LINE
  5
51F2
  8
0
 10
345.10420565337228
 20
21.024108605408241
 30
0.0
 11
345.13090004787227
 21
21.04652459680824
 31
0.0
  0
ARC
  5
51F3
  8
0
 10
345.0392801415349
 20
21.096215260207419
 30
0.0
 40
0.0140911909216868
 50
140.36896814992349
 51
213.26309439194341
  0
ARC
  5
51F4
  8
0
 10
345.21071579632797
 20
21.200754224875379
 30
0.0
 40
0.2148789039431036
 50
211.49807467187281
 51
235.73947572901309
  0
ARC
  5
51F5
  8
0
 10
345.0962585967776
 20
21.034579544279541
 30
0.0
 40
0.0131451994799289
 50
240.3129122926884
 51
307.19715798332243
  0
ARC
  5
51F6
  8
0
 10
344.78562816247108
 20
20.80043210212844
 30
0.0
 40
0.4239978664640943
 50
35.479367265485003
 51
51.021832460593807
  0
ARC
  5
51F7
  8
0
 10
345.00898977276358
 20
21.08496120059861
 30
0.0
 40
0.062537348032656
 50
46.125674500986442
 51
64.281675457423077
  0
ARC
  5
51F8
  8
0
 10
345.09641414410441
 20
21.15992354230978
 30
0.0
 40
0.0713789884921491
 50
197.36649212194061
 51
217.1994550812102
  0
ARC
  5
51F9
  8
0
 10
345.03091022951332
 20
21.139848438417779
 30
0.0
 40
0.0028956252492143
 50
79.735218194123192
 51
205.14295018315079
  0
ARC
  5
51FA
  8
0
 10
345.0297269857756
 20
21.128343748448351
 30
0.0
 40
0.0144541987308364
 50
63.71566032956806
 51
83.248691701946285
  0
ARC
  5
51FB
  8
0
 10
344.83811010218591
 20
20.85987543300347
 30
0.0
 40
0.3472230732939299
 50
28.57112150596986
 51
32.516894692085181
  0
ARC
  5
51FC
  8
0
 10
345.18776780129662
 20
21.118295757652209
 30
0.0
 40
0.1105551718267111
 50
229.59787973119401
 51
241.59116025840621
  0
ARC
  5
51FD
  8
0
 10
345.1426375217157
 20
21.03641253146407
 30
0.0
 40
0.0170775248525422
 50
244.0703586060215
 51
265.70504666370317
  0
ARC
  5
51FE
  8
0
 10
345.1392731397878
 20
21.023415395806222
 30
0.0
 40
0.0045397710513663
 50
297.34640828429349
 51
33.705348207503341
  0
ARC
  5
51FF
  8
0
 10
345.01688200176511
 20
21.018984991300801
 30
0.0
 40
0.0610839917849682
 50
24.123271415024579
 51
61.29617533323065
  0
ARC
  5
5200
  8
0
 10
345.10555283094777
 20
21.100835943134332
 30
0.0
 40
0.0657253324715778
 50
205.47859525978441
 51
239.94085148871619
  0
LINE
  5
5201
  8
0
 10
344.99700607412251
 20
21.073901231198409
 30
0.0
 11
345.0209116031225
 21
21.098740011798409
 31
0.0
  0
LINE
  5
5202
  8
0
 10
345.07278416882241
 20
20.992806634098411
 30
0.0
 11
345.09947856332252
 21
21.01522262549841
 31
0.0
  0
ARC
  5
5203
  8
0
 10
345.00785865698498
 20
21.0649132888976
 30
0.0
 40
0.0140911909216868
 50
140.36896814992349
 51
213.26309439194341
  0
ARC
  5
5204
  8
0
 10
345.17929431177822
 20
21.169452253565559
 30
0.0
 40
0.2148789039431036
 50
211.49807467187281
 51
235.73947572901309
  0
ARC
  5
5205
  8
0
 10
345.06483711222768
 20
21.003277572969711
 30
0.0
 40
0.0131451994799289
 50
240.3129122926884
 51
307.19715798332243
  0
ARC
  5
5206
  8
0
 10
344.75420667792127
 20
20.76913013081862
 30
0.0
 40
0.4239978664640943
 50
35.479367265485003
 51
36.528497176561807
  0
ARC
  5
5207
  8
0
 10
344.75420667792127
 20
20.76913013081862
 30
0.0
 40
0.4239978664640943
 50
50.2679325602871
 51
51.021832460593807
  0
ARC
  5
5208
  8
0
 10
344.97756828821377
 20
21.05365922928879
 30
0.0
 40
0.062537348032656
 50
46.125674500986442
 51
64.281675457423077
  0
ARC
  5
5209
  8
0
 10
345.06499265955449
 20
21.12862157099995
 30
0.0
 40
0.0713789884921491
 50
197.36649212194061
 51
217.1994550812102
  0
ARC
  5
520A
  8
0
 10
344.9994887449634
 20
21.10854646710796
 30
0.0
 40
0.0028956252492143
 50
79.735218194123192
 51
205.14295018315079
  0
ARC
  5
520B
  8
0
 10
344.99830550122579
 20
21.097041777138529
 30
0.0
 40
0.0144541987308364
 50
63.71566032956806
 51
83.248691701946285
  0
ARC
  5
520C
  8
0
 10
344.8066886176361
 20
20.82857346169364
 30
0.0
 40
0.3472230732939299
 50
28.57112150596986
 51
32.516894692085181
  0
ARC
  5
520D
  8
0
 10
345.15634631674669
 20
21.086993786342379
 30
0.0
 40
0.1105551718267111
 50
229.59787973119401
 51
241.59116025840621
  0
ARC
  5
520E
  8
0
 10
345.111216037166
 20
21.00511056015424
 30
0.0
 40
0.0170775248525422
 50
244.0703586060215
 51
265.70504666370317
  0
ARC
  5
520F
  8
0
 10
345.10785165523799
 20
20.992113424496399
 30
0.0
 40
0.0045397710513663
 50
297.34640828429349
 51
33.705348207503341
  0
ARC
  5
5210
  8
0
 10
344.9854605172153
 20
20.987683019990971
 30
0.0
 40
0.0610839917849682
 50
24.123271415024579
 51
61.29617533323065
  0
ARC
  5
5211
  8
0
 10
345.07413134639802
 20
21.069533971824509
 30
0.0
 40
0.0657253324715778
 50
205.47859525978441
 51
239.94085148871619
  0
LINE
  5
5212
  8
0
 10
344.97537327292451
 20
21.052326924234201
 30
0.0
 11
344.99927880192439
 21
21.077165704834201
 31
0.0
  0
LINE
  5
5213
  8
0
 10
345.05115136762453
 20
20.971232327134199
 30
0.0
 11
345.07784576212453
 21
20.993648318534198
 31
0.0
  0
ARC
  5
5214
  8
0
 10
344.98622585578698
 20
21.043338981933388
 30
0.0
 40
0.0140911909216868
 50
140.36896814992349
 51
213.26309439194341
  0
ARC
  5
5215
  8
0
 10
345.15766151058011
 20
21.147877946601351
 30
0.0
 40
0.2148789039431036
 50
211.49807467187281
 51
235.73947572901309
  0
ARC
  5
5216
  8
0
 10
345.04320431102968
 20
20.9817032660055
 30
0.0
 40
0.0131451994799289
 50
240.3129122926884
 51
307.19715798332243
  0
ARC
  5
5217
  8
0
 10
344.73257387672322
 20
20.747555823854398
 30
0.0
 40
0.4239978664640943
 50
35.479367265485003
 51
35.83314125684911
  0
ARC
  5
5218
  8
0
 10
344.73257387672322
 20
20.747555823854398
 30
0.0
 40
0.4239978664640943
 50
50.936905568016243
 51
51.021832460593807
  0
ARC
  5
5219
  8
0
 10
344.95593548701572
 20
21.032084922324572
 30
0.0
 40
0.062537348032656
 50
46.125674500986442
 51
64.281675457423077
  0
ARC
  5
521A
  8
0
 10
345.0433598583565
 20
21.107047264035739
 30
0.0
 40
0.0713789884921491
 50
197.36649212194061
 51
217.1994550812102
  0
ARC
  5
521B
  8
0
 10
344.97785594376541
 20
21.086972160143748
 30
0.0
 40
0.0028956252492143
 50
79.735218194123192
 51
205.14295018315079
  0
ARC
  5
521C
  8
0
 10
344.97667270002768
 20
21.07546747017431
 30
0.0
 40
0.0144541987308364
 50
63.71566032956806
 51
83.248691701946285
  0
ARC
  5
521D
  8
0
 10
344.78505581643799
 20
20.806999154729429
 30
0.0
 40
0.3472230732939299
 50
28.57112150596986
 51
32.516894692085181
  0
ARC
  5
521E
  8
0
 10
345.13471351554858
 20
21.065419479378171
 30
0.0
 40
0.1105551718267111
 50
229.59787973119401
 51
241.59116025840621
  0
ARC
  5
521F
  8
0
 10
345.08958323596789
 20
20.983536253190032
 30
0.0
 40
0.0170775248525422
 50
244.0703586060215
 51
265.70504666370317
  0
ARC
  5
5220
  8
0
 10
345.08621885404
 20
20.970539117532191
 30
0.0
 40
0.0045397710513663
 50
297.34640828429349
 51
33.705348207503341
  0
ARC
  5
5221
  8
0
 10
344.96382771601719
 20
20.96610871302676
 30
0.0
 40
0.0610839917849682
 50
24.123271415024579
 51
61.29617533323065
  0
ARC
  5
5222
  8
0
 10
345.05249854520002
 20
21.047959664860301
 30
0.0
 40
0.0657253324715778
 50
205.47859525978441
 51
239.94085148871619
  0
LINE
  5
5223
  8
0
 10
345.34224143675749
 20
20.870355751348939
 30
0.0
 11
345.36614696575748
 21
20.895194531948938
 31
0.0
  0
LINE
  5
5224
  8
0
 10
345.4180195314575
 20
20.78926115424894
 30
0.0
 11
345.4447139259575
 21
20.81167714564894
 31
0.0
  0
ARC
  5
5225
  8
0
 10
345.35309401962007
 20
20.861367809048129
 30
0.0
 40
0.0140911909216868
 50
140.36896814992349
 51
213.26309439194341
  0
ARC
  5
5226
  8
0
 10
345.5245296744132
 20
20.965906773716078
 30
0.0
 40
0.2148789039431036
 50
211.49807467187281
 51
235.73947572901309
  0
ARC
  5
5227
  8
0
 10
345.41007247486272
 20
20.799732093120241
 30
0.0
 40
0.0131451994799289
 50
240.3129122926884
 51
307.19715798332243
  0
ARC
  5
5228
  8
0
 10
345.0994420405562
 20
20.565584650969139
 30
0.0
 40
0.4239978664640943
 50
35.479367265485003
 51
51.021832460593807
  0
ARC
  5
5229
  8
0
 10
345.3228036508487
 20
20.850113749439309
 30
0.0
 40
0.062537348032656
 50
46.125674500986442
 51
64.281675457423077
  0
ARC
  5
522A
  8
0
 10
345.41022802218947
 20
20.92507609115048
 30
0.0
 40
0.0713789884921491
 50
197.36649212194061
 51
217.1994550812102
  0
ARC
  5
522B
  8
0
 10
345.34472410759849
 20
20.905000987258489
 30
0.0
 40
0.0028956252492143
 50
79.735218194123192
 51
205.14295018315059
  0
ARC
  5
522C
  8
0
 10
345.34354086386082
 20
20.893496297289051
 30
0.0
 40
0.0144541987308364
 50
63.71566032956806
 51
83.248691701946285
  0
ARC
  5
522D
  8
0
 10
345.15192398027108
 20
20.62502798184417
 30
0.0
 40
0.3472230732939299
 50
28.57112150596986
 51
32.516894692085181
  0
ARC
  5
522E
  8
0
 10
345.50158167938167
 20
20.883448306492909
 30
0.0
 40
0.1105551718267111
 50
229.59787973119401
 51
241.59116025840621
  0
ARC
  5
522F
  8
0
 10
345.45645139980093
 20
20.801565080304758
 30
0.0
 40
0.0170775248525422
 50
244.0703586060215
 51
265.70504666370317
  0
ARC
  5
5230
  8
0
 10
345.45308701787297
 20
20.788567944646928
 30
0.0
 40
0.0045397710513663
 50
297.34640828429349
 51
33.705348207503341
  0
ARC
  5
5231
  8
0
 10
345.33069587985028
 20
20.784137540141501
 30
0.0
 40
0.0610839917849682
 50
24.123271415024579
 51
61.29617533323065
  0
ARC
  5
5232
  8
0
 10
345.41936670903311
 20
20.865988491975031
 30
0.0
 40
0.0657253324715778
 50
205.47859525978441
 51
239.94085148871619
  0
LINE
  5
5233
  8
0
 10
345.37793974049021
 20
20.74976267428702
 30
0.0
 11
345.4018452694902
 21
20.774601454887019
 31
0.0
  0
LINE
  5
5234
  8
0
 10
345.45371783519022
 20
20.668668077187011
 30
0.0
 11
345.48041222969022
 21
20.691084068587021
 31
0.0
  0
ARC
  5
5235
  8
0
 10
345.38879232335267
 20
20.7407747319862
 30
0.0
 40
0.0140911909216868
 50
140.36896814992349
 51
213.26309439194341
  0
ARC
  5
5236
  8
0
 10
345.56022797814592
 20
20.845313696654159
 30
0.0
 40
0.2148789039431036
 50
211.49807467187281
 51
235.73947572901309
  0
ARC
  5
5237
  8
0
 10
345.44577077859537
 20
20.679139016058318
 30
0.0
 40
0.0131451994799289
 50
240.3129122926884
 51
307.19715798332243
  0
ARC
  5
5238
  8
0
 10
345.13514034428903
 20
20.44499157390722
 30
0.0
 40
0.4239978664640943
 50
35.479367265485003
 51
51.021832460593807
  0
ARC
  5
5239
  8
0
 10
345.35850195458153
 20
20.72952067237739
 30
0.0
 40
0.062537348032656
 50
46.125674500986442
 51
64.281675457423077
  0
ARC
  5
523A
  8
0
 10
345.44592632592219
 20
20.804483014088561
 30
0.0
 40
0.0713789884921491
 50
197.36649212194061
 51
217.1994550812102
  0
ARC
  5
523B
  8
0
 10
345.3804224113311
 20
20.78440791019656
 30
0.0
 40
0.0028956252492143
 50
79.735218194123192
 51
205.14295018315059
  0
ARC
  5
523C
  8
0
 10
345.37923916759348
 20
20.772903220227128
 30
0.0
 40
0.0144541987308364
 50
63.71566032956806
 51
83.248691701946285
  0
ARC
  5
523D
  8
0
 10
345.18762228400379
 20
20.50443490478224
 30
0.0
 40
0.3472230732939299
 50
28.57112150596986
 51
32.516894692085181
  0
ARC
  5
523E
  8
0
 10
345.53727998311439
 20
20.762855229430979
 30
0.0
 40
0.1105551718267111
 50
229.59787973119401
 51
241.59116025840621
  0
ARC
  5
523F
  8
0
 10
345.4921497035337
 20
20.68097200324285
 30
0.0
 40
0.0170775248525422
 50
244.0703586060215
 51
265.70504666370317
  0
ARC
  5
5240
  8
0
 10
345.4887853216058
 20
20.667974867584999
 30
0.0
 40
0.0045397710513663
 50
297.34640828429349
 51
33.705348207503341
  0
ARC
  5
5241
  8
0
 10
345.366394183583
 20
20.663544463079582
 30
0.0
 40
0.0610839917849682
 50
24.123271415024579
 51
61.29617533323065
  0
ARC
  5
5242
  8
0
 10
345.45506501276571
 20
20.745395414913109
 30
0.0
 40
0.0657253324715778
 50
205.47859525978441
 51
239.94085148871619
  0
LINE
  5
5243
  8
0
 10
345.36597924767739
 20
20.699015569294961
 30
0.0
 11
345.38588783255369
 21
20.71970136845874
 31
0.0
  0
LINE
  5
5244
  8
0
 10
345.4417573423774
 20
20.617920972194959
 30
0.0
 11
345.4684517368774
 21
20.640336963594962
 31
0.0
  0
ARC
  5
5245
  8
0
 10
345.37683183054003
 20
20.690027626994141
 30
0.0
 40
0.0140911909216868
 50
140.36896814992349
 51
213.26309439194341
  0
ARC
  5
5246
  8
0
 10
345.54826748533299
 20
20.7945665916621
 30
0.0
 40
0.2148789039431036
 50
211.49807467187281
 51
235.73947572901309
  0
ARC
  5
5247
  8
0
 10
345.43381028578261
 20
20.628391911066249
 30
0.0
 40
0.0131451994799289
 50
240.3129122926884
 51
307.19715798332243
  0
ARC
  5
5248
  8
0
 10
345.12317985147621
 20
20.394244468915161
 30
0.0
 40
0.4239978664640943
 50
35.479367265485003
 51
39.908003497971713
  0
ARC
  5
5249
  8
0
 10
345.3465414617686
 20
20.678773567385331
 30
0.0
 40
0.062537348032656
 50
61.184526956721463
 51
64.281675457423077
  0
ARC
  5
524A
  8
0
 10
345.43396583310943
 20
20.753735909096498
 30
0.0
 40
0.0713789884921491
 50
197.36649212194061
 51
217.1994550812102
  0
ARC
  5
524B
  8
0
 10
345.36846191851828
 20
20.733660805204511
 30
0.0
 40
0.0028956252492143
 50
79.735218194123192
 51
205.14295018315059
  0
ARC
  5
524C
  8
0
 10
345.36727867478061
 20
20.72215611523507
 30
0.0
 40
0.0144541987308364
 50
63.71566032956806
 51
83.248691701946285
  0
ARC
  5
524D
  8
0
 10
345.17566179119098
 20
20.453687799790188
 30
0.0
 40
0.3472230732939299
 50
28.57112150596986
 51
32.516894692085181
  0
ARC
  5
524E
  8
0
 10
345.52531949030163
 20
20.712108124438931
 30
0.0
 40
0.1105551718267111
 50
229.59787973119401
 51
241.59116025840621
  0
ARC
  5
524F
  8
0
 10
345.48018921072082
 20
20.630224898250791
 30
0.0
 40
0.0170775248525422
 50
244.0703586060215
 51
265.70504666370317
  0
ARC
  5
5250
  8
0
 10
345.47682482879293
 20
20.61722776259295
 30
0.0
 40
0.0045397710513663
 50
297.34640828429349
 51
33.705348207503341
  0
ARC
  5
5251
  8
0
 10
345.35443369077018
 20
20.612797358087519
 30
0.0
 40
0.0610839917849682
 50
24.123271415024579
 51
61.29617533323065
  0
ARC
  5
5252
  8
0
 10
345.4431045199529
 20
20.69464830992105
 30
0.0
 40
0.0657253324715778
 50
205.47859525978441
 51
239.94085148871619
  0
LINE
  5
5253
  8
0
 10
345.60368885120403
 20
20.605303213280528
 30
0.0
 11
345.62759438020402
 21
20.630141993880532
 31
0.0
  0
LINE
  5
5254
  8
0
 10
345.67946694590398
 20
20.52420861618053
 30
0.0
 11
345.70616134040398
 21
20.546624607580529
 31
0.0
  0
ARC
  5
5255
  8
0
 10
345.61454143406661
 20
20.596315270979719
 30
0.0
 40
0.0140911909216868
 50
140.36896814992349
 51
213.26309439194341
  0
ARC
  5
5256
  8
0
 10
345.78597708885968
 20
20.700854235647679
 30
0.0
 40
0.2148789039431036
 50
211.49807467187281
 51
235.73947572901309
  0
ARC
  5
5257
  8
0
 10
345.6715198893092
 20
20.534679555051831
 30
0.0
 40
0.0131451994799289
 50
240.3129122926884
 51
307.19715798332243
  0
ARC
  5
5258
  8
0
 10
345.36088945500268
 20
20.30053211290074
 30
0.0
 40
0.4239978664640943
 50
35.479367265485003
 51
51.021832460593807
  0
ARC
  5
5259
  8
0
 10
345.58425106529518
 20
20.585061211370899
 30
0.0
 40
0.062537348032656
 50
46.125674500986442
 51
64.281675457423077
  0
ARC
  5
525A
  8
0
 10
345.67167543663601
 20
20.66002355308208
 30
0.0
 40
0.0713789884921491
 50
197.36649212194061
 51
217.1994550812102
  0
ARC
  5
525B
  8
0
 10
345.60617152204492
 20
20.639948449190079
 30
0.0
 40
0.0028956252492143
 50
79.735218194123192
 51
205.14295018315059
  0
ARC
  5
525C
  8
0
 10
345.6049882783073
 20
20.628443759220652
 30
0.0
 40
0.0144541987308364
 50
63.71566032956806
 51
83.248691701946285
  0
ARC
  5
525D
  8
0
 10
345.41337139471761
 20
20.35997544377576
 30
0.0
 40
0.3472230732939299
 50
28.57112150596986
 51
32.516894692085181
  0
ARC
  5
525E
  8
0
 10
345.76302909382821
 20
20.618395768424509
 30
0.0
 40
0.1105551718267111
 50
229.59787973119401
 51
241.59116025840621
  0
ARC
  5
525F
  8
0
 10
345.71789881424741
 20
20.536512542236359
 30
0.0
 40
0.0170775248525422
 50
244.0703586060215
 51
265.70504666370317
  0
ARC
  5
5260
  8
0
 10
345.71453443231951
 20
20.523515406578522
 30
0.0
 40
0.0045397710513663
 50
297.34640828429349
 51
33.705348207503341
  0
ARC
  5
5261
  8
0
 10
345.59214329429682
 20
20.519085002073091
 30
0.0
 40
0.0610839917849682
 50
24.123271415024579
 51
61.29617533323065
  0
ARC
  5
5262
  8
0
 10
345.68081412347948
 20
20.600935953906632
 30
0.0
 40
0.0657253324715778
 50
205.47859525978441
 51
239.94085148871619
  0
LINE
  5
5263
  8
0
 10
345.68555235530312
 20
20.437164711587879
 30
0.0
 11
345.70945788430311
 21
20.462003492187868
 31
0.0
  0
LINE
  5
5264
  8
0
 10
345.76133045000307
 20
20.356070114487881
 30
0.0
 11
345.78802484450313
 21
20.37848610588788
 31
0.0
  0
ARC
  5
5265
  8
0
 10
345.6964049381657
 20
20.428176769287059
 30
0.0
 40
0.0140911909216868
 50
140.36896814992349
 51
213.26309439194341
  0
ARC
  5
5266
  8
0
 10
345.86784059295883
 20
20.532715733955019
 30
0.0
 40
0.2148789039431036
 50
211.49807467187281
 51
235.73947572901309
  0
ARC
  5
5267
  8
0
 10
345.75338339340828
 20
20.366541053359182
 30
0.0
 40
0.0131451994799289
 50
240.3129122926884
 51
307.19715798332243
  0
ARC
  5
5268
  8
0
 10
345.44275295910188
 20
20.13239361120808
 30
0.0
 40
0.4239978664640943
 50
35.479367265485003
 51
51.021832460593807
  0
ARC
  5
5269
  8
0
 10
345.66611456939438
 20
20.41692270967825
 30
0.0
 40
0.062537348032656
 50
46.125674500986442
 51
64.281675457423077
  0
ARC
  5
526A
  8
0
 10
345.7535389407351
 20
20.491885051389421
 30
0.0
 40
0.0713789884921491
 50
197.36649212194061
 51
217.1994550812102
  0
ARC
  5
526B
  8
0
 10
345.68803502614401
 20
20.47180994749743
 30
0.0
 40
0.0028956252492143
 50
79.735218194123192
 51
205.14295018315059
  0
ARC
  5
526C
  8
0
 10
345.68685178240639
 20
20.460305257527988
 30
0.0
 40
0.0144541987308364
 50
63.71566032956806
 51
83.248691701946285
  0
ARC
  5
526D
  8
0
 10
345.49523489881659
 20
20.191836942083111
 30
0.0
 40
0.3472230732939299
 50
28.57112150596986
 51
32.516894692085181
  0
ARC
  5
526E
  8
0
 10
345.8448925979273
 20
20.45025726673185
 30
0.0
 40
0.1105551718267111
 50
229.59787973119401
 51
241.59116025840621
  0
ARC
  5
526F
  8
0
 10
345.7997623183465
 20
20.36837404054371
 30
0.0
 40
0.0170775248525422
 50
244.0703586060215
 51
265.70504666370317
  0
ARC
  5
5270
  8
0
 10
345.7963979364186
 20
20.355376904885858
 30
0.0
 40
0.0045397710513663
 50
297.34640828429349
 51
33.705348207503341
  0
ARC
  5
5271
  8
0
 10
345.67400679839579
 20
20.350946500380442
 30
0.0
 40
0.0610839917849682
 50
24.123271415024579
 51
61.29617533323065
  0
ARC
  5
5272
  8
0
 10
345.76267762757863
 20
20.432797452213968
 30
0.0
 40
0.0657253324715778
 50
205.47859525978441
 51
239.94085148871619
  0
LINE
  5
5273
  8
0
 10
345.63629957326862
 20
20.424602229332042
 30
0.0
 11
345.66020510226872
 21
20.449441009932048
 31
0.0
  0
LINE
  5
5274
  8
0
 10
345.71207766796857
 20
20.34350763223204
 30
0.0
 11
345.73565444786868
 21
20.363305679926281
 31
0.0
  0
ARC
  5
5275
  8
0
 10
345.6471521561312
 20
20.415614287031229
 30
0.0
 40
0.0140911909216868
 50
140.36896814992349
 51
213.26309439194341
  0
ARC
  5
5276
  8
0
 10
345.81858781092433
 20
20.520153251699188
 30
0.0
 40
0.2148789039431036
 50
211.49807467187281
 51
235.73947572901309
  0
ARC
  5
5277
  8
0
 10
345.7041306113739
 20
20.35397857110334
 30
0.0
 40
0.0131451994799289
 50
240.3129122926884
 51
307.19715798332243
  0
ARC
  5
5278
  8
0
 10
345.39350017706738
 20
20.119831128952249
 30
0.0
 40
0.4239978664640943
 50
47.040056628967001
 51
51.021832460593807
  0
ARC
  5
5279
  8
0
 10
345.61686178735988
 20
20.404360227422419
 30
0.0
 40
0.062537348032656
 50
46.125674500986442
 51
64.281675457423077
  0
ARC
  5
527A
  8
0
 10
345.70428615870071
 20
20.47932256913359
 30
0.0
 40
0.0713789884921491
 50
197.36649212194061
 51
217.1994550812102
  0
ARC
  5
527B
  8
0
 10
345.63878224410951
 20
20.459247465241589
 30
0.0
 40
0.0028956252492143
 50
79.735218194123192
 51
205.14295018315059
  0
ARC
  5
527C
  8
0
 10
345.63759900037189
 20
20.44774277527215
 30
0.0
 40
0.0144541987308364
 50
63.71566032956806
 51
83.248691701946285
  0
ARC
  5
527D
  8
0
 10
345.4459821167822
 20
20.179274459827269
 30
0.0
 40
0.3472230732939299
 50
28.57112150596986
 51
30.760727270526921
  0
ARC
  5
527E
  8
0
 10
345.79563981589291
 20
20.437694784476019
 30
0.0
 40
0.1105551718267111
 50
229.59787973119401
 51
241.59116025840621
  0
ARC
  5
527F
  8
0
 10
345.75050953631211
 20
20.355811558287868
 30
0.0
 40
0.0170775248525422
 50
244.0703586060215
 51
265.70504666370317
  0
ARC
  5
5280
  8
0
 10
345.74714515438421
 20
20.342814422630031
 30
0.0
 40
0.0045397710513663
 50
297.34640828429349
 51
33.705348207503341
  0
ARC
  5
5281
  8
0
 10
345.62475401636141
 20
20.3383840181246
 30
0.0
 40
0.0610839917849682
 50
24.123271415024579
 51
61.29617533323065
  0
ARC
  5
5282
  8
0
 10
345.71342484554418
 20
20.420234969958141
 30
0.0
 40
0.0657253324715778
 50
205.47859525978441
 51
239.94085148871619
  0
LINE
  5
5283
  8
0
 10
345.84002858264569
 20
20.364814727342662
 30
0.0
 11
345.86393411164579
 21
20.389653507942661
 31
0.0
  0
LINE
  5
5284
  8
0
 10
345.91580667734581
 20
20.28372013024266
 30
0.0
 11
345.94250107184581
 21
20.306136121642659
 31
0.0
  0
ARC
  5
5285
  8
0
 10
345.85088116550833
 20
20.355826785041849
 30
0.0
 40
0.0140911909216868
 50
140.36896814992349
 51
213.26309439194341
  0
ARC
  5
5286
  8
0
 10
346.02231682030151
 20
20.460365749709808
 30
0.0
 40
0.2148789039431036
 50
211.49807467187281
 51
235.73947572901309
  0
ARC
  5
5287
  8
0
 10
345.90785962075103
 20
20.29419106911396
 30
0.0
 40
0.0131451994799289
 50
240.3129122926884
 51
307.19715798332243
  0
ARC
  5
5288
  8
0
 10
345.59722918644451
 20
20.060043626962869
 30
0.0
 40
0.4239978664640943
 50
35.479367265485003
 51
51.021832460593807
  0
ARC
  5
5289
  8
0
 10
345.82059079673712
 20
20.344572725433029
 30
0.0
 40
0.062537348032656
 50
46.125674500986442
 51
64.281675457423077
  0
ARC
  5
528A
  8
0
 10
345.90801516807778
 20
20.419535067144199
 30
0.0
 40
0.0713789884921491
 50
197.36649212194061
 51
217.1994550812102
  0
ARC
  5
528B
  8
0
 10
345.84251125348669
 20
20.399459963252209
 30
0.0
 40
0.0028956252492143
 50
79.735218194123192
 51
205.14295018315059
  0
ARC
  5
528C
  8
0
 10
345.84132800974908
 20
20.38795527328277
 30
0.0
 40
0.0144541987308364
 50
63.71566032956806
 51
83.248691701946285
  0
ARC
  5
528D
  8
0
 10
345.64971112615927
 20
20.119486957837889
 30
0.0
 40
0.3472230732939299
 50
28.57112150596986
 51
32.516894692085181
  0
ARC
  5
528E
  8
0
 10
345.99936882526998
 20
20.377907282486628
 30
0.0
 40
0.1105551718267111
 50
229.59787973119401
 51
241.59116025840621
  0
ARC
  5
528F
  8
0
 10
345.95423854568918
 20
20.296024056298489
 30
0.0
 40
0.0170775248525422
 50
244.0703586060215
 51
265.70504666370317
  0
ARC
  5
5290
  8
0
 10
345.95087416376128
 20
20.283026920640651
 30
0.0
 40
0.0045397710513663
 50
297.34640828429349
 51
33.705348207503341
  0
ARC
  5
5291
  8
0
 10
345.82848302573848
 20
20.27859651613522
 30
0.0
 40
0.0610839917849682
 50
24.123271415024579
 51
61.29617533323065
  0
ARC
  5
5292
  8
0
 10
345.91715385492131
 20
20.360447467968751
 30
0.0
 40
0.0657253324715778
 50
205.47859525978441
 51
239.94085148871619
  0
LINE
  5
5293
  8
0
 10
345.91415485697479
 20
20.205375000114831
 30
0.0
 11
345.93806038597478
 21
20.230213780714831
 31
0.0
  0
LINE
  5
5294
  8
0
 10
345.9899329516748
 20
20.124280403014829
 30
0.0
 11
346.0166273461748
 21
20.146696394414828
 31
0.0
  0
ARC
  5
5295
  8
0
 10
345.92500743983737
 20
20.196387057814022
 30
0.0
 40
0.0140911909216868
 50
140.36896814992349
 51
213.26309439194341
  0
ARC
  5
5296
  8
0
 10
346.0964430946305
 20
20.300926022481981
 30
0.0
 40
0.2148789039431036
 50
211.49807467187281
 51
235.73947572901309
  0
ARC
  5
5297
  8
0
 10
345.98198589508002
 20
20.13475134188613
 30
0.0
 40
0.0131451994799289
 50
240.3129122926884
 51
307.19715798332243
  0
ARC
  5
5298
  8
0
 10
345.6713554607735
 20
19.900603899735032
 30
0.0
 40
0.4239978664640943
 50
35.479367265485003
 51
51.021832460593807
  0
ARC
  5
5299
  8
0
 10
345.894717071066
 20
20.185132998205201
 30
0.0
 40
0.062537348032656
 50
46.125674500986442
 51
64.281675457423077
  0
ARC
  5
529A
  8
0
 10
345.98214144240683
 20
20.260095339916369
 30
0.0
 40
0.0713789884921491
 50
197.36649212194061
 51
217.1994550812102
  0
ARC
  5
529B
  8
0
 10
345.91663752781579
 20
20.240020236024382
 30
0.0
 40
0.0028956252492143
 50
79.735218194123192
 51
205.14295018315059
  0
ARC
  5
529C
  8
0
 10
345.91545428407812
 20
20.22851554605494
 30
0.0
 40
0.0144541987308364
 50
63.71566032956806
 51
83.248691701946285
  0
ARC
  5
529D
  8
0
 10
345.72383740048838
 20
19.960047230610058
 30
0.0
 40
0.3472230732939299
 50
28.57112150596986
 51
32.516894692085181
  0
ARC
  5
529E
  8
0
 10
346.07349509959897
 20
20.218467555258801
 30
0.0
 40
0.1105551718267111
 50
229.59787973119401
 51
241.59116025840621
  0
ARC
  5
529F
  8
0
 10
346.02836482001823
 20
20.136584329070661
 30
0.0
 40
0.0170775248525422
 50
244.0703586060215
 51
265.70504666370317
  0
ARC
  5
52A0
  8
0
 10
346.02500043809027
 20
20.123587193412821
 30
0.0
 40
0.0045397710513663
 50
297.34640828429349
 51
33.705348207503341
  0
ARC
  5
52A1
  8
0
 10
345.90260930006758
 20
20.119156788907389
 30
0.0
 40
0.0610839917849682
 50
24.123271415024579
 51
61.29617533323065
  0
ARC
  5
52A2
  8
0
 10
345.9912801292503
 20
20.201007740740931
 30
0.0
 40
0.0657253324715778
 50
205.47859525978441
 51
239.94085148871619
  0
LINE
  5
52A3
  8
0
 10
346.04737723810018
 20
20.157364804324882
 30
0.0
 11
346.07128276710017
 21
20.182203584924881
 31
0.0
  0
LINE
  5
52A4
  8
0
 10
346.1231553328002
 20
20.07627020722488
 30
0.0
 11
346.14984972730019
 21
20.098686198624879
 31
0.0
  0
ARC
  5
52A5
  8
0
 10
346.05822982096271
 20
20.148376862024069
 30
0.0
 40
0.0140911909216868
 50
140.36896814992349
 51
213.26309439194341
  0
ARC
  5
52A6
  8
0
 10
346.22966547575589
 20
20.252915826692028
 30
0.0
 40
0.2148789039431036
 50
211.49807467187281
 51
235.73947572901309
  0
ARC
  5
52A7
  8
0
 10
346.11520827620541
 20
20.08674114609618
 30
0.0
 40
0.0131451994799289
 50
240.3129122926884
 51
307.19715798332243
  0
ARC
  5
52A8
  8
0
 10
345.80457784189889
 20
19.852593703945089
 30
0.0
 40
0.4239978664640943
 50
35.479367265485003
 51
51.021832460593807
  0
ARC
  5
52A9
  8
0
 10
346.0279394521915
 20
20.137122802415249
 30
0.0
 40
0.062537348032656
 50
46.125674500986442
 51
64.281675457423077
  0
ARC
  5
52AA
  8
0
 10
346.11536382353222
 20
20.21208514412643
 30
0.0
 40
0.0713789884921491
 50
197.36649212194061
 51
217.1994550812102
  0
ARC
  5
52AB
  8
0
 10
346.04985990894107
 20
20.192010040234429
 30
0.0
 40
0.0028956252492143
 50
79.735218194123192
 51
205.14295018315059
  0
ARC
  5
52AC
  8
0
 10
346.04867666520352
 20
20.180505350265001
 30
0.0
 40
0.0144541987308364
 50
63.71566032956806
 51
83.248691701946285
  0
ARC
  5
52AD
  8
0
 10
345.85705978161383
 20
19.912037034820109
 30
0.0
 40
0.3472230732939299
 50
28.57112150596986
 51
32.516894692085181
  0
ARC
  5
52AE
  8
0
 10
346.20671748072442
 20
20.170457359468859
 30
0.0
 40
0.1105551718267111
 50
229.59787973119401
 51
241.59116025840621
  0
ARC
  5
52AF
  8
0
 10
346.16158720114362
 20
20.088574133280709
 30
0.0
 40
0.0170775248525422
 50
244.0703586060215
 51
265.70504666370317
  0
ARC
  5
52B0
  8
0
 10
346.15822281921572
 20
20.075576997622871
 30
0.0
 40
0.0045397710513663
 50
297.34640828429349
 51
33.705348207503341
  0
ARC
  5
52B1
  8
0
 10
346.03583168119297
 20
20.07114659311744
 30
0.0
 40
0.0610839917849682
 50
24.123271415024579
 51
61.29617533323065
  0
ARC
  5
52B2
  8
0
 10
346.12450251037569
 20
20.152997544950981
 30
0.0
 40
0.0657253324715778
 50
205.47859525978441
 51
239.94085148871619
  0
LINE
  5
52B3
  8
0
 10
346.20454003474703
 20
19.994042702828619
 30
0.0
 11
346.2284455637469
 21
20.018881483428618
 31
0.0
  0
LINE
  5
52B4
  8
0
 10
346.28031812944698
 20
19.912948105728621
 30
0.0
 11
346.30701252394698
 21
19.93536409712862
 31
0.0
  0
ARC
  5
52B5
  8
0
 10
346.2153926176095
 20
19.985054760527809
 30
0.0
 40
0.0140911909216868
 50
140.36896814992349
 51
213.26309439194341
  0
ARC
  5
52B6
  8
0
 10
346.38682827240262
 20
20.089593725195769
 30
0.0
 40
0.2148789039431036
 50
211.49807467187281
 51
235.73947572901309
  0
ARC
  5
52B7
  8
0
 10
346.2723710728522
 20
19.923419044599921
 30
0.0
 40
0.0131451994799289
 50
240.3129122926884
 51
307.19715798332243
  0
ARC
  5
52B8
  8
0
 10
345.96174063854568
 20
19.68927160244883
 30
0.0
 40
0.4239978664640943
 50
35.479367265485003
 51
51.021832460593807
  0
ARC
  5
52B9
  8
0
 10
346.18510224883818
 20
19.973800700918989
 30
0.0
 40
0.062537348032656
 50
46.125674500986442
 51
64.281675457423077
  0
ARC
  5
52BA
  8
0
 10
346.27252662017901
 20
20.04876304263016
 30
0.0
 40
0.0713789884921491
 50
197.36649212194061
 51
217.1994550812102
  0
ARC
  5
52BB
  8
0
 10
346.20702270558792
 20
20.02868793873817
 30
0.0
 40
0.0028956252492143
 50
79.735218194123192
 51
205.14295018315059
  0
ARC
  5
52BC
  8
0
 10
346.2058394618503
 20
20.017183248768731
 30
0.0
 40
0.0144541987308364
 50
63.71566032956806
 51
83.248691701946285
  0
ARC
  5
52BD
  8
0
 10
346.01422257826061
 20
19.74871493332385
 30
0.0
 40
0.3472230732939299
 50
28.57112150596986
 51
32.516894692085181
  0
ARC
  5
52BE
  8
0
 10
346.36388027737109
 20
20.007135257972589
 30
0.0
 40
0.1105551718267111
 50
229.59787973119401
 51
241.59116025840621
  0
ARC
  5
52BF
  8
0
 10
346.31874999779041
 20
19.925252031784449
 30
0.0
 40
0.0170775248525422
 50
244.0703586060215
 51
265.70504666370317
  0
ARC
  5
52C0
  8
0
 10
346.31538561586251
 20
19.912254896126608
 30
0.0
 40
0.0045397710513663
 50
297.34640828429349
 51
33.705348207503341
  0
ARC
  5
52C1
  8
0
 10
346.19299447783982
 20
19.907824491621181
 30
0.0
 40
0.0610839917849682
 50
24.123271415024579
 51
61.29617533323065
  0
ARC
  5
52C2
  8
0
 10
346.28166530702248
 20
19.989675443454711
 30
0.0
 40
0.0657253324715778
 50
205.47859525978441
 51
239.94085148871619
  0
LINE
  5
52C3
  8
0
 10
346.33299567007731
 20
19.881761290907068
 30
0.0
 11
346.35690119907741
 21
19.906600071507071
 31
0.0
  0
LINE
  5
52C4
  8
0
 10
346.40877376477732
 20
19.80066669380707
 30
0.0
 11
346.43546815927732
 21
19.823082685207069
 31
0.0
  0
ARC
  5
52C5
  8
0
 10
346.34384825293989
 20
19.872773348606259
 30
0.0
 40
0.0140911909216868
 50
140.36896814992349
 51
213.26309439194341
  0
ARC
  5
52C6
  8
0
 10
346.51528390773302
 20
19.977312313274219
 30
0.0
 40
0.2148789039431036
 50
211.4980746718723
 51
235.73947572901309
  0
ARC
  5
52C7
  8
0
 10
346.40082670818248
 20
19.811137632678371
 30
0.0
 40
0.0131451994799289
 50
240.3129122926884
 51
307.19715798332243
  0
ARC
  5
52C8
  8
0
 10
346.09019627387607
 20
19.57699019052728
 30
0.0
 40
0.4239978664640943
 50
35.479367265485003
 51
51.021832460593807
  0
ARC
  5
52C9
  8
0
 10
346.31355788416857
 20
19.861519288997439
 30
0.0
 40
0.062537348032656
 50
46.125674500986442
 51
64.281675457423077
  0
ARC
  5
52CA
  8
0
 10
346.4009822555094
 20
19.93648163070862
 30
0.0
 40
0.0713789884921491
 50
197.36649212194061
 51
217.1994550812102
  0
ARC
  5
52CB
  8
0
 10
346.33547834091831
 20
19.916406526816619
 30
0.0
 40
0.0028956252492143
 50
79.735218194123192
 51
205.14295018315059
  0
ARC
  5
52CC
  8
0
 10
346.33429509718059
 20
19.904901836847191
 30
0.0
 40
0.0144541987308364
 50
63.71566032956806
 51
83.248691701946285
  0
ARC
  5
52CD
  8
0
 10
346.1426782135909
 20
19.636433521402299
 30
0.0
 40
0.3472230732939299
 50
28.57112150596986
 51
32.516894692085181
  0
ARC
  5
52CE
  8
0
 10
346.49233591270149
 20
19.894853846051038
 30
0.0
 40
0.1105551718267111
 50
229.59787973119401
 51
241.59116025840621
  0
ARC
  5
52CF
  8
0
 10
346.44720563312069
 20
19.812970619862899
 30
0.0
 40
0.0170775248525422
 50
244.0703586060215
 51
265.70504666370317
  0
ARC
  5
52D0
  8
0
 10
346.44384125119279
 20
19.799973484205061
 30
0.0
 40
0.0045397710513663
 50
297.34640828429349
 51
33.705348207503341
  0
ARC
  5
52D1
  8
0
 10
346.3214501131701
 20
19.79554307969963
 30
0.0
 40
0.0610839917849682
 50
24.123271415024579
 51
61.29617533323065
  0
ARC
  5
52D2
  8
0
 10
346.41012094235288
 20
19.877394031533171
 30
0.0
 40
0.0657253324715778
 50
205.47859525978441
 51
239.94085148871619
  0
LINE
  5
52D3
  8
0
 10
344.53525130499162
 20
21.687915506290349
 30
0.0
 11
344.55915683399161
 21
21.712754286890348
 31
0.0
  0
LINE
  5
52D4
  8
0
 10
344.61102939969157
 20
21.60682090919035
 30
0.0
 11
344.63772379419157
 21
21.62923690059035
 31
0.0
  0
ARC
  5
52D5
  8
0
 10
344.5461038878542
 20
21.678927563989539
 30
0.0
 40
0.0140911909216868
 50
140.36896814992329
 51
213.26309439194341
  0
ARC
  5
52D6
  8
0
 10
344.71753954264727
 20
21.783466528657499
 30
0.0
 40
0.2148789039431036
 50
211.49807467187281
 51
235.73947572901309
  0
ARC
  5
52D7
  8
0
 10
344.60308234309679
 20
21.617291848061651
 30
0.0
 40
0.0131451994799289
 50
240.3129122926884
 51
307.19715798332243
  0
ARC
  5
52D8
  8
0
 10
344.29245190879038
 20
21.383144405910549
 30
0.0
 40
0.4239978664640943
 50
35.479367265485003
 51
51.021832460593807
  0
ARC
  5
52D9
  8
0
 10
344.51581351908288
 20
21.667673504380719
 30
0.0
 40
0.062537348032656
 50
46.125674500986442
 51
64.281675457423077
  0
ARC
  5
52DA
  8
0
 10
344.6032378904236
 20
21.74263584609189
 30
0.0
 40
0.0713789884921491
 50
197.36649212194061
 51
217.1994550812102
  0
ARC
  5
52DB
  8
0
 10
344.53773397583251
 20
21.722560742199899
 30
0.0
 40
0.0028956252492143
 50
79.735218194123192
 51
205.14295018315079
  0
ARC
  5
52DC
  8
0
 10
344.5365507320949
 20
21.711056052230461
 30
0.0
 40
0.0144541987308364
 50
63.71566032956806
 51
83.248691701946285
  0
ARC
  5
52DD
  8
0
 10
344.34493384850521
 20
21.44258773678558
 30
0.0
 40
0.3472230732939299
 50
28.57112150596986
 51
32.516894692085181
  0
ARC
  5
52DE
  8
0
 10
344.6945915476158
 20
21.701008061434319
 30
0.0
 40
0.1105551718267111
 50
229.59787973119401
 51
241.59116025840621
  0
ARC
  5
52DF
  8
0
 10
344.649461268035
 20
21.619124835246179
 30
0.0
 40
0.0170775248525422
 50
244.0703586060215
 51
265.70504666370317
  0
ARC
  5
52E0
  8
0
 10
344.6460968861071
 20
21.606127699588338
 30
0.0
 40
0.0045397710513663
 50
297.34640828429349
 51
33.705348207503341
  0
ARC
  5
52E1
  8
0
 10
344.52370574808441
 20
21.601697295082911
 30
0.0
 40
0.0610839917849682
 50
24.123271415024579
 51
61.29617533323065
  0
ARC
  5
52E2
  8
0
 10
344.61237657726713
 20
21.683548246916452
 30
0.0
 40
0.0657253324715778
 50
205.47859525978441
 51
239.94085148871619
  0
LINE
  5
52E3
  8
0
 10
344.3693351937938
 20
21.772140201703099
 30
0.0
 11
344.39324072279379
 21
21.796978982303099
 31
0.0
  0
LINE
  5
52E4
  8
0
 10
344.44511328849381
 20
21.691045604603101
 30
0.0
 11
344.47180768299381
 21
21.713461596003089
 31
0.0
  0
ARC
  5
52E5
  8
0
 10
344.38018777665633
 20
21.763152259402279
 30
0.0
 40
0.0140911909216868
 50
140.36896814992329
 51
213.26309439194341
  0
ARC
  5
52E6
  8
0
 10
344.5516234314494
 20
21.867691224070239
 30
0.0
 40
0.2148789039431036
 50
211.49807467187281
 51
235.73947572901309
  0
ARC
  5
52E7
  8
0
 10
344.43716623189903
 20
21.701516543474391
 30
0.0
 40
0.0131451994799289
 50
240.3129122926884
 51
307.19715798332243
  0
ARC
  5
52E8
  8
0
 10
344.12653579759262
 20
21.4673691013233
 30
0.0
 40
0.4239978664640943
 50
35.479367265485003
 51
51.021832460593807
  0
ARC
  5
52E9
  8
0
 10
344.34989740788512
 20
21.75189819979347
 30
0.0
 40
0.062537348032656
 50
46.125674500986442
 51
64.281675457423077
  0
ARC
  5
52EA
  8
0
 10
344.4373217792259
 20
21.82686054150464
 30
0.0
 40
0.0713789884921491
 50
197.36649212194061
 51
217.1994550812102
  0
ARC
  5
52EB
  8
0
 10
344.37181786463469
 20
21.806785437612639
 30
0.0
 40
0.0028956252492143
 50
79.735218194123192
 51
205.14295018315079
  0
ARC
  5
52EC
  8
0
 10
344.37063462089708
 20
21.795280747643201
 30
0.0
 40
0.0144541987308364
 50
63.71566032956806
 51
83.248691701946285
  0
ARC
  5
52ED
  8
0
 10
344.17901773730739
 20
21.52681243219833
 30
0.0
 40
0.3472230732939299
 50
28.57112150596986
 51
32.516894692085181
  0
ARC
  5
52EE
  8
0
 10
344.52867543641798
 20
21.785232756847069
 30
0.0
 40
0.1105551718267111
 50
229.59787973119401
 51
241.59116025840621
  0
ARC
  5
52EF
  8
0
 10
344.48354515683718
 20
21.703349530658919
 30
0.0
 40
0.0170775248525422
 50
244.0703586060215
 51
265.70504666370317
  0
ARC
  5
52F0
  8
0
 10
344.48018077490929
 20
21.690352395001081
 30
0.0
 40
0.0045397710513663
 50
297.34640828429349
 51
33.705348207503341
  0
ARC
  5
52F1
  8
0
 10
344.35778963688659
 20
21.685921990495661
 30
0.0
 40
0.0610839917849682
 50
24.123271415024579
 51
61.29617533323065
  0
ARC
  5
52F2
  8
0
 10
344.44646046606931
 20
21.767772942329191
 30
0.0
 40
0.0657253324715778
 50
205.47859525978441
 51
239.94085148871619
  0
LINE
  5
52F3
  8
0
 10
344.35663720159812
 20
21.722059321018971
 30
0.0
 11
344.37669470898959
 21
21.742899856506849
 31
0.0
  0
LINE
  5
52F4
  8
0
 10
344.43241529629802
 20
21.64096472391897
 30
0.0
 11
344.45910969079802
 21
21.663380715318969
 31
0.0
  0
ARC
  5
52F5
  8
0
 10
344.36748978446059
 20
21.713071378718158
 30
0.0
 40
0.0140911909216868
 50
140.36896814992329
 51
213.26309439194341
  0
ARC
  5
52F6
  8
0
 10
344.53892543925372
 20
21.817610343386121
 30
0.0
 40
0.2148789039431036
 50
211.49807467187281
 51
235.73947572901309
  0
ARC
  5
52F7
  8
0
 10
344.42446823970329
 20
21.65143566279027
 30
0.0
 40
0.0131451994799289
 50
240.3129122926884
 51
307.19715798332243
  0
ARC
  5
52F8
  8
0
 10
344.11383780539683
 20
21.417288220639168
 30
0.0
 40
0.4239978664640943
 50
35.479367265485003
 51
39.785283084203833
  0
ARC
  5
52F9
  8
0
 10
344.33719941568933
 20
21.701817319109342
 30
0.0
 40
0.062537348032656
 50
60.637918093011947
 51
64.281675457423077
  0
ARC
  5
52FA
  8
0
 10
344.4246237870301
 20
21.776779660820509
 30
0.0
 40
0.0713789884921491
 50
197.36649212194061
 51
217.1994550812102
  0
ARC
  5
52FB
  8
0
 10
344.3591198724389
 20
21.756704556928518
 30
0.0
 40
0.0028956252492143
 50
79.735218194123192
 51
205.14295018315079
  0
ARC
  5
52FC
  8
0
 10
344.35793662870128
 20
21.745199866959091
 30
0.0
 40
0.0144541987308364
 50
63.71566032956806
 51
83.248691701946285
  0
ARC
  5
52FD
  8
0
 10
344.16631974511159
 20
21.476731551514199
 30
0.0
 40
0.3472230732939299
 50
28.57112150596986
 51
32.516894692085181
  0
ARC
  5
52FE
  8
0
 10
344.5159774442223
 20
21.735151876162941
 30
0.0
 40
0.1105551718267111
 50
229.59787973119401
 51
241.59116025840621
  0
ARC
  5
52FF
  8
0
 10
344.4708471646415
 20
21.653268649974802
 30
0.0
 40
0.0170775248525422
 50
244.0703586060215
 51
265.70504666370317
  0
ARC
  5
5300
  8
0
 10
344.4674827827136
 20
21.640271514316961
 30
0.0
 40
0.0045397710513663
 50
297.34640828429349
 51
33.705348207503341
  0
ARC
  5
5301
  8
0
 10
344.3450916446908
 20
21.63584110981153
 30
0.0
 40
0.0610839917849682
 50
24.123271415024579
 51
61.29617533323065
  0
ARC
  5
5302
  8
0
 10
344.43376247387363
 20
21.717692061645071
 30
0.0
 40
0.0657253324715778
 50
205.47859525978441
 51
239.94085148871619
  0
LINE
  5
5303
  8
0
 10
344.29839409275928
 20
21.92829518053636
 30
0.0
 11
344.32229962175933
 21
21.953133961136359
 31
0.0
  0
LINE
  5
5304
  8
0
 10
344.37417218745918
 20
21.847200583436361
 30
0.0
 11
344.40086658195918
 21
21.86961657483636
 31
0.0
  0
ARC
  5
5305
  8
0
 10
344.30924667562181
 20
21.91930723823555
 30
0.0
 40
0.0140911909216868
 50
140.36896814992329
 51
213.26309439194341
  0
ARC
  5
5306
  8
0
 10
344.48068233041499
 20
22.023846202903499
 30
0.0
 40
0.2148789039431036
 50
211.49807467187281
 51
235.73947572901309
  0
ARC
  5
5307
  8
0
 10
344.36622513086451
 20
21.857671522307658
 30
0.0
 40
0.0131451994799289
 50
240.3129122926884
 51
307.19715798332243
  0
ARC
  5
5308
  8
0
 10
344.05559469655799
 20
21.623524080156571
 30
0.0
 40
0.4239978664640943
 50
35.479367265485003
 51
51.021832460593807
  0
ARC
  5
5309
  8
0
 10
344.27895630685049
 20
21.90805317862673
 30
0.0
 40
0.062537348032656
 50
46.125674500986442
 51
64.281675457423077
  0
ARC
  5
530A
  8
0
 10
344.36638067819132
 20
21.983015520337901
 30
0.0
 40
0.0713789884921491
 50
197.36649212194061
 51
217.1994550812102
  0
ARC
  5
530B
  8
0
 10
344.30087676360017
 20
21.96294041644591
 30
0.0
 40
0.0028956252492143
 50
79.735218194123192
 51
205.14295018315079
  0
ARC
  5
530C
  8
0
 10
344.29969351986261
 20
21.951435726476468
 30
0.0
 40
0.0144541987308364
 50
63.71566032956806
 51
83.248691701946285
  0
ARC
  5
530D
  8
0
 10
344.10807663627281
 20
21.682967411031591
 30
0.0
 40
0.3472230732939299
 50
28.57112150596986
 51
32.516894692085181
  0
ARC
  5
530E
  8
0
 10
344.45773433538352
 20
21.94138773568033
 30
0.0
 40
0.1105551718267111
 50
229.59787973119401
 51
241.59116025840621
  0
ARC
  5
530F
  8
0
 10
344.41260405580272
 20
21.85950450949219
 30
0.0
 40
0.0170775248525422
 50
244.0703586060215
 51
265.70504666370317
  0
ARC
  5
5310
  8
0
 10
344.40923967387482
 20
21.846507373834349
 30
0.0
 40
0.0045397710513663
 50
297.34640828429349
 51
33.705348207503341
  0
ARC
  5
5311
  8
0
 10
344.28684853585202
 20
21.842076969328922
 30
0.0
 40
0.0610839917849682
 50
24.123271415024579
 51
61.29617533323065
  0
ARC
  5
5312
  8
0
 10
344.37551936503479
 20
21.923927921162448
 30
0.0
 40
0.0657253324715778
 50
205.47859525978441
 51
239.94085148871619
  0
LINE
  5
5313
  8
0
 10
344.14092043463762
 20
22.00416390952633
 30
0.0
 11
344.16482596363761
 21
22.02900269012634
 31
0.0
  0
LINE
  5
5314
  8
0
 10
344.21669852933758
 20
21.923069312426328
 30
0.0
 11
344.24339292383758
 21
21.945485303826331
 31
0.0
  0
ARC
  5
5315
  8
0
 10
344.1517730175002
 20
21.995175967225521
 30
0.0
 40
0.0140911909216868
 50
140.36896814992329
 51
213.26309439194341
  0
ARC
  5
5316
  8
0
 10
344.32320867229328
 20
22.09971493189348
 30
0.0
 40
0.2148789039431036
 50
211.49807467187281
 51
235.73947572901309
  0
ARC
  5
5317
  8
0
 10
344.2087514727429
 20
21.933540251297629
 30
0.0
 40
0.0131451994799289
 50
240.3129122926884
 51
307.19715798332243
  0
ARC
  5
5318
  8
0
 10
343.89812103843639
 20
21.699392809146541
 30
0.0
 40
0.4239978664640943
 50
35.479367265485003
 51
51.021832460593807
  0
ARC
  5
5319
  8
0
 10
344.12148264872889
 20
21.983921907616711
 30
0.0
 40
0.062537348032656
 50
46.125674500986442
 51
64.281675457423077
  0
ARC
  5
531A
  8
0
 10
344.2089070200696
 20
22.058884249327871
 30
0.0
 40
0.0713789884921491
 50
197.36649212194061
 51
217.1994550812102
  0
ARC
  5
531B
  8
0
 10
344.14340310547863
 20
22.038809145435881
 30
0.0
 40
0.0028956252492143
 50
79.735218194123192
 51
205.14295018315079
  0
ARC
  5
531C
  8
0
 10
344.14221986174101
 20
22.027304455466439
 30
0.0
 40
0.0144541987308364
 50
63.71566032956806
 51
83.248691701946285
  0
ARC
  5
531D
  8
0
 10
343.95060297815121
 20
21.758836140021561
 30
0.0
 40
0.3472230732939299
 50
28.57112150596986
 51
32.516894692085181
  0
ARC
  5
531E
  8
0
 10
344.30026067726192
 20
22.0172564646703
 30
0.0
 40
0.1105551718267111
 50
229.59787973119401
 51
241.59116025840621
  0
ARC
  5
531F
  8
0
 10
344.25513039768111
 20
21.93537323848216
 30
0.0
 40
0.0170775248525422
 50
244.0703586060215
 51
265.70504666370317
  0
ARC
  5
5320
  8
0
 10
344.25176601575322
 20
21.92237610282432
 30
0.0
 40
0.0045397710513663
 50
297.34640828429349
 51
33.705348207503341
  0
ARC
  5
5321
  8
0
 10
344.12937487773041
 20
21.917945698318889
 30
0.0
 40
0.0610839917849682
 50
24.123271415024579
 51
61.29617533323065
  0
ARC
  5
5322
  8
0
 10
344.21804570691319
 20
21.99979665015243
 30
0.0
 40
0.0657253324715778
 50
205.47859525978441
 51
239.94085148871619
  0
LINE
  5
5323
  8
0
 10
344.09396920612312
 20
22.13641416225979
 30
0.0
 11
344.11787473512311
 21
22.1612529428598
 31
0.0
  0
LINE
  5
5324
  8
0
 10
344.16974730082308
 20
22.055319565159792
 30
0.0
 11
344.19644169532307
 21
22.077735556559791
 31
0.0
  0
ARC
  5
5325
  8
0
 10
344.1048217889857
 20
22.127426219958981
 30
0.0
 40
0.0140911909216868
 50
140.36896814992329
 51
213.26309439194341
  0
ARC
  5
5326
  8
0
 10
344.27625744377877
 20
22.23196518462694
 30
0.0
 40
0.2148789039431036
 50
211.49807467187281
 51
235.73947572901309
  0
ARC
  5
5327
  8
0
 10
344.16180024422829
 20
22.065790504031089
 30
0.0
 40
0.0131451994799289
 50
240.3129122926884
 51
307.19715798332243
  0
ARC
  5
5328
  8
0
 10
343.85116980992188
 20
21.831643061880001
 30
0.0
 40
0.4239978664640943
 50
35.479367265485003
 51
51.021832460593807
  0
ARC
  5
5329
  8
0
 10
344.07453142021438
 20
22.116172160350171
 30
0.0
 40
0.062537348032656
 50
46.125674500986442
 51
64.281675457423077
  0
ARC
  5
532A
  8
0
 10
344.16195579155522
 20
22.191134502061331
 30
0.0
 40
0.0713789884921491
 50
197.36649212194061
 51
217.1994550812102
  0
ARC
  5
532B
  8
0
 10
344.09645187696401
 20
22.171059398169351
 30
0.0
 40
0.0028956252492143
 50
79.735218194123192
 51
205.14295018315079
  0
ARC
  5
532C
  8
0
 10
344.0952686332264
 20
22.159554708199909
 30
0.0
 40
0.0144541987308364
 50
63.71566032956806
 51
83.248691701946285
  0
ARC
  5
532D
  8
0
 10
343.90365174963659
 20
21.891086392755021
 30
0.0
 40
0.3472230732939299
 50
28.57112150596986
 51
32.516894692085181
  0
ARC
  5
532E
  8
0
 10
344.2533094487473
 20
22.149506717403771
 30
0.0
 40
0.1105551718267111
 50
229.59787973119401
 51
241.59116025840621
  0
ARC
  5
532F
  8
0
 10
344.2081791691665
 20
22.067623491215631
 30
0.0
 40
0.0170775248525422
 50
244.0703586060215
 51
265.70504666370317
  0
ARC
  5
5330
  8
0
 10
344.2048147872386
 20
22.05462635555778
 30
0.0
 40
0.0045397710513663
 50
297.34640828429349
 51
33.705348207503341
  0
ARC
  5
5331
  8
0
 10
344.08242364921591
 20
22.050195951052348
 30
0.0
 40
0.0610839917849682
 50
24.123271415024579
 51
61.29617533323065
  0
ARC
  5
5332
  8
0
 10
344.17109447839857
 20
22.132046902885889
 30
0.0
 40
0.0657253324715778
 50
205.47859525978441
 51
239.94085148871619
  0
LINE
  5
5333
  8
0
 10
344.01936495613791
 20
22.12758617282708
 30
0.0
 11
344.04327048513778
 21
22.152424953427079
 31
0.0
  0
LINE
  5
5334
  8
0
 10
344.09514305083792
 20
22.046491575727082
 30
0.0
 11
344.12183744533792
 21
22.068907567127081
 31
0.0
  0
ARC
  5
5335
  8
0
 10
344.03021753900038
 20
22.11859823052626
 30
0.0
 40
0.0140911909216868
 50
140.36896814992329
 51
213.26309439194341
  0
ARC
  5
5336
  8
0
 10
344.2016531937935
 20
22.223137195194219
 30
0.0
 40
0.2148789039431036
 50
211.49807467187281
 51
235.73947572901309
  0
ARC
  5
5337
  8
0
 10
344.08719599424307
 20
22.056962514598371
 30
0.0
 40
0.0131451994799289
 50
240.3129122926884
 51
307.19715798332243
  0
ARC
  5
5338
  8
0
 10
343.77656555993661
 20
21.82281507244728
 30
0.0
 40
0.4239978664640943
 50
35.479367265485003
 51
51.021832460593807
  0
ARC
  5
5339
  8
0
 10
343.99992717022911
 20
22.10734417091745
 30
0.0
 40
0.062537348032656
 50
46.125674500986442
 51
64.281675457423077
  0
ARC
  5
533A
  8
0
 10
344.08735154156989
 20
22.182306512628621
 30
0.0
 40
0.0713789884921491
 50
197.36649212194061
 51
217.1994550812102
  0
ARC
  5
533B
  8
0
 10
344.0218476269788
 20
22.16223140873662
 30
0.0
 40
0.0028956252492143
 50
79.735218194123192
 51
205.14295018315079
  0
ARC
  5
533C
  8
0
 10
344.02066438324113
 20
22.150726718767181
 30
0.0
 40
0.0144541987308364
 50
63.71566032956806
 51
83.248691701946285
  0
ARC
  5
533D
  8
0
 10
343.82904749965138
 20
21.8822584033223
 30
0.0
 40
0.3472230732939299
 50
28.57112150596986
 51
32.516894692085181
  0
ARC
  5
533E
  8
0
 10
344.17870519876209
 20
22.14067872797105
 30
0.0
 40
0.1105551718267111
 50
229.59787973119401
 51
241.59116025840621
  0
ARC
  5
533F
  8
0
 10
344.13357491918129
 20
22.0587955017829
 30
0.0
 40
0.0170775248525422
 50
244.0703586060215
 51
265.70504666370317
  0
ARC
  5
5340
  8
0
 10
344.13021053725328
 20
22.045798366125059
 30
0.0
 40
0.0045397710513663
 50
297.34640828429349
 51
33.705348207503341
  0
ARC
  5
5341
  8
0
 10
344.00781939923058
 20
22.041367961619638
 30
0.0
 40
0.0610839917849682
 50
24.123271415024579
 51
61.29617533323065
  0
ARC
  5
5342
  8
0
 10
344.09649022841342
 20
22.123218913453169
 30
0.0
 40
0.0657253324715778
 50
205.47859525978441
 51
239.94085148871619
  0
LINE
  5
5343
  8
0
 10
343.93373509902648
 20
22.298616794240822
 30
0.0
 11
343.95764062802652
 21
22.323455574840821
 31
0.0
  0
LINE
  5
5344
  8
0
 10
344.00951319372649
 20
22.21752219714082
 30
0.0
 11
344.0362075882266
 21
22.23993818854083
 31
0.0
  0
ARC
  5
5345
  8
0
 10
343.944587681889
 20
22.289628851940009
 30
0.0
 40
0.0140911909216868
 50
140.36896814992329
 51
213.26309439194341
  0
ARC
  5
5346
  8
0
 10
344.11602333668219
 20
22.394167816607968
 30
0.0
 40
0.2148789039431036
 50
211.49807467187281
 51
235.73947572901309
  0
ARC
  5
5347
  8
0
 10
344.0015661371317
 20
22.22799313601212
 30
0.0
 40
0.0131451994799289
 50
240.3129122926884
 51
307.19715798332243
  0
ARC
  5
5348
  8
0
 10
343.6909357028253
 20
21.993845693861019
 30
0.0
 40
0.4239978664640943
 50
35.479367265485003
 51
51.021832460593807
  0
ARC
  5
5349
  8
0
 10
343.9142973131178
 20
22.278374792331189
 30
0.0
 40
0.062537348032656
 50
46.125674500986442
 51
64.281675457423077
  0
ARC
  5
534A
  8
0
 10
344.00172168445857
 20
22.353337134042359
 30
0.0
 40
0.0713789884921491
 50
197.36649212194061
 51
217.1994550812102
  0
ARC
  5
534B
  8
0
 10
343.93621776986743
 20
22.333262030150369
 30
0.0
 40
0.0028956252492143
 50
79.735218194123192
 51
205.14295018315079
  0
ARC
  5
534C
  8
0
 10
343.93503452612981
 20
22.321757340180941
 30
0.0
 40
0.0144541987308364
 50
63.71566032956806
 51
83.248691701946285
  0
ARC
  5
534D
  8
0
 10
343.74341764254012
 20
22.053289024736049
 30
0.0
 40
0.3472230732939299
 50
28.57112150596986
 51
32.516894692085181
  0
ARC
  5
534E
  8
0
 10
344.09307534165072
 20
22.311709349384788
 30
0.0
 40
0.1105551718267111
 50
229.59787973119401
 51
241.59116025840621
  0
ARC
  5
534F
  8
0
 10
344.04794506207003
 20
22.229826123196649
 30
0.0
 40
0.0170775248525422
 50
244.0703586060215
 51
265.70504666370317
  0
ARC
  5
5350
  8
0
 10
344.04458068014208
 20
22.216828987538811
 30
0.0
 40
0.0045397710513663
 50
297.34640828429349
 51
33.705348207503341
  0
ARC
  5
5351
  8
0
 10
343.92218954211933
 20
22.21239858303338
 30
0.0
 40
0.0610839917849682
 50
24.123271415024579
 51
61.29617533323065
  0
ARC
  5
5352
  8
0
 10
344.01086037130199
 20
22.294249534866921
 30
0.0
 40
0.0657253324715778
 50
205.47859525978441
 51
239.94085148871619
  0
LINE
  5
5353
  8
0
 10
343.80563489475122
 20
22.416072498472069
 30
0.0
 11
343.82954042375121
 21
22.440911279072068
 31
0.0
  0
LINE
  5
5354
  8
0
 10
343.88141298945118
 20
22.334977901372071
 30
0.0
 11
343.90810738395129
 21
22.35739389277207
 31
0.0
  0
ARC
  5
5355
  8
0
 10
343.8164874776138
 20
22.407084556171249
 30
0.0
 40
0.0140911909216868
 50
140.36896814992329
 51
213.26309439194341
  0
ARC
  5
5356
  8
0
 10
343.98792313240688
 20
22.511623520839208
 30
0.0
 40
0.2148789039431036
 50
211.4980746718723
 51
235.73947572901309
  0
ARC
  5
5357
  8
0
 10
343.87346593285639
 20
22.34544884024336
 30
0.0
 40
0.0131451994799289
 50
240.3129122926884
 51
307.19715798332243
  0
ARC
  5
5358
  8
0
 10
343.56283549854999
 20
22.111301398092269
 30
0.0
 40
0.4239978664640943
 50
35.479367265485003
 51
51.021832460593807
  0
ARC
  5
5359
  8
0
 10
343.78619710884249
 20
22.395830496562439
 30
0.0
 40
0.062537348032656
 50
46.125674500986442
 51
64.281675457423077
  0
ARC
  5
535A
  8
0
 10
343.87362148018332
 20
22.47079283827361
 30
0.0
 40
0.0713789884921491
 50
197.36649212194061
 51
217.1994550812102
  0
ARC
  5
535B
  8
0
 10
343.80811756559223
 20
22.45071773438162
 30
0.0
 40
0.0028956252492143
 50
79.735218194123192
 51
205.14295018315079
  0
ARC
  5
535C
  8
0
 10
343.8069343218545
 20
22.439213044412181
 30
0.0
 40
0.0144541987308364
 50
63.71566032956806
 51
83.248691701946285
  0
ARC
  5
535D
  8
0
 10
343.61531743826481
 20
22.170744728967289
 30
0.0
 40
0.3472230732939299
 50
28.57112150596986
 51
32.516894692085181
  0
ARC
  5
535E
  8
0
 10
343.9649751373754
 20
22.429165053616039
 30
0.0
 40
0.1105551718267111
 50
229.59787973119401
 51
241.59116025840621
  0
ARC
  5
535F
  8
0
 10
343.9198448577946
 20
22.347281827427899
 30
0.0
 40
0.0170775248525422
 50
244.0703586060215
 51
265.70504666370317
  0
ARC
  5
5360
  8
0
 10
343.91648047586671
 20
22.334284691770058
 30
0.0
 40
0.0045397710513663
 50
297.34640828429349
 51
33.705348207503341
  0
ARC
  5
5361
  8
0
 10
343.79408933784401
 20
22.32985428726462
 30
0.0
 40
0.0610839917849682
 50
24.123271415024579
 51
61.29617533323065
  0
ARC
  5
5362
  8
0
 10
343.88276016702667
 20
22.411705239098161
 30
0.0
 40
0.0657253324715778
 50
205.47859525978441
 51
239.94085148871619
  0
LINE
  5
5363
  8
0
 10
344.23333097998909
 20
21.83498834563672
 30
0.0
 11
344.25723650898908
 21
21.859827126236731
 31
0.0
  0
LINE
  5
5364
  8
0
 10
344.3091090746891
 20
21.753893748536729
 30
0.0
 11
344.3358034691891
 21
21.776309739936728
 31
0.0
  0
ARC
  5
5365
  8
0
 10
344.24418356285162
 20
21.826000403335911
 30
0.0
 40
0.0140911909216868
 50
140.36896814992329
 51
213.26309439194341
  0
ARC
  5
5366
  8
0
 10
344.4156192176448
 20
21.93053936800387
 30
0.0
 40
0.2148789039431036
 50
211.49807467187281
 51
235.73947572901309
  0
ARC
  5
5367
  8
0
 10
344.30116201809432
 20
21.764364687408019
 30
0.0
 40
0.0131451994799289
 50
240.3129122926884
 51
307.19715798332243
  0
ARC
  5
5368
  8
0
 10
343.9905315837878
 20
21.530217245256932
 30
0.0
 40
0.4239978664640943
 50
35.479367265485003
 51
51.021832460593807
  0
ARC
  5
5369
  8
0
 10
344.21389319408041
 20
21.814746343727101
 30
0.0
 40
0.062537348032656
 50
46.125674500986442
 51
64.281675457423077
  0
ARC
  5
536A
  8
0
 10
344.30131756542107
 20
21.889708685438261
 30
0.0
 40
0.0713789884921491
 50
197.36649212194061
 51
217.1994550812102
  0
ARC
  5
536B
  8
0
 10
344.23581365082998
 20
21.869633581546282
 30
0.0
 40
0.0028956252492143
 50
79.735218194123192
 51
205.14295018315079
  0
ARC
  5
536C
  8
0
 10
344.23463040709242
 20
21.858128891576829
 30
0.0
 40
0.0144541987308364
 50
63.71566032956806
 51
83.248691701946285
  0
ARC
  5
536D
  8
0
 10
344.04301352350268
 20
21.589660576131951
 30
0.0
 40
0.3472230732939299
 50
28.57112150596986
 51
32.516894692085181
  0
ARC
  5
536E
  8
0
 10
344.39267122261327
 20
21.84808090078069
 30
0.0
 40
0.1105551718267111
 50
229.59787973119401
 51
241.59116025840621
  0
ARC
  5
536F
  8
0
 10
344.34754094303253
 20
21.766197674592551
 30
0.0
 40
0.0170775248525422
 50
244.0703586060215
 51
265.70504666370317
  0
ARC
  5
5370
  8
0
 10
344.34417656110458
 20
21.75320053893472
 30
0.0
 40
0.0045397710513663
 50
297.34640828429349
 51
33.705348207503341
  0
ARC
  5
5371
  8
0
 10
344.22178542308188
 20
21.748770134429279
 30
0.0
 40
0.0610839917849682
 50
24.123271415024579
 51
61.29617533323065
  0
ARC
  5
5372
  8
0
 10
344.3104562522646
 20
21.83062108626282
 30
0.0
 40
0.0657253324715778
 50
205.47859525978441
 51
239.94085148871619
  0
ARC
  5
5373
  8
0
 10
353.19495192455599
 20
29.190606077755859
 30
0.0
 40
11.560511633037271
 50
213.98567198422319
 51
215.70745917690741
  0
ARC
  5
5374
  8
0
 10
353.19495192455599
 20
29.190606077755859
 30
0.0
 40
11.560511633037271
 50
216.35519318661301
 51
217.4797831346753
  0
ARC
  5
5375
  8
0
 10
353.19495192455599
 20
29.190606077755859
 30
0.0
 40
11.560511633037271
 50
218.13348444292421
 51
218.44138572710301
  0
ARC
  5
5376
  8
0
 10
353.19495192455599
 20
29.190606077755859
 30
0.0
 40
11.560511633037271
 50
218.96653223873429
 51
219.33013461092111
  0
ARC
  5
5377
  8
0
 10
353.19495192455599
 20
29.190606077755859
 30
0.0
 40
11.560511633037271
 50
220.06317651439321
 51
220.1929316588157
  0
ARC
  5
5378
  8
0
 10
353.19495192455599
 20
29.190606077755859
 30
0.0
 40
11.560511633037271
 50
220.74794938259001
 51
221.87372566807471
  0
ARC
  5
5379
  8
0
 10
353.19495192455599
 20
29.190606077755859
 30
0.0
 40
11.560511633037271
 50
222.56017527708909
 51
224.71447597861891
  0
ARC
  5
537A
  8
0
 10
353.19495192455599
 20
29.190606077755859
 30
0.0
 40
11.560511633037271
 50
225.26922276836541
 51
227.35342850348229
  0
ARC
  5
537B
  8
0
 10
353.19495192455599
 20
29.190606077755859
 30
0.0
 40
11.560511633037271
 50
227.87118607777319
 51
229.2337011231794
  0
ARC
  5
537C
  8
0
 10
353.19495192455599
 20
29.190606077755859
 30
0.0
 40
11.560511633037271
 50
229.9127544837873
 51
230.98371489068131
  0
ARC
  5
537D
  8
0
 10
353.19495192455599
 20
29.190606077755859
 30
0.0
 40
11.560511633037271
 50
231.68579104220939
 51
232.77405509093799
  0
ARC
  5
537E
  8
0
 10
353.19495192455599
 20
29.190606077755859
 30
0.0
 40
11.560511633037271
 50
233.31507907529959
 51
233.60715079283571
  0
ARC
  5
537F
  8
0
 10
353.19495192455599
 20
29.190606077755859
 30
0.0
 40
11.560511633037271
 50
234.28685254184069
 51
236.0140830278566
  0
ENDSEC
  0
EOF
