  0
SECTION
  2
HEADER
  9
$ACADVER
  1
AC1009
  9
$INSBASE
 10
221.7709487622792892
 20
37.5184999077141512
 30
0.0
  9
$EXTMIN
 10
203.1709488406067976
 20
25.7893503182292783
 30
0.0
  9
$EXTMAX
 10
221.7816083120920041
 20
50.7250323908141496
 30
0.0
  9
$LIMMIN
 10
0.0
 20
0.0
  9
$LIMMAX
 10
11.6929133858000007
 20
8.2677165353999982
  9
$ORTHOMODE
 70
     0
  9
$REGENMODE
 70
     1
  9
$FILLMODE
 70
     1
  9
$QTEXTMODE
 70
     0
  9
$MIRRTEXT
 70
     0
  9
$DRAGMODE
 70
     2
  9
$LTSCALE
 40
0.6431102362
  9
$OSMODE
 70
   575
  9
$ATTMODE
 70
     1
  9
$TEXTSIZE
 40
0.2
  9
$TRACEWID
 40
0.05
  9
$TEXTSTYLE
  7
STANDARD
  9
$CLAYER
  8
0
  9
$CELTYPE
  6
BYLAYER
  9
$CECOLOR
 62
   256
  9
$DIMSCALE
 40
1.0
  9
$DIMASZ
 40
0.1875
  9
$DIMEXO
 40
0.0625
  9
$DIMDLI
 40
0.4443307087
  9
$DIMRND
 40
0.0
  9
$DIMDLE
 40
0.0
  9
$DIMEXE
 40
0.125
  9
$DIMTP
 40
0.01
  9
$DIMTM
 40
0.01
  9
$DIMTXT
 40
1.0
  9
$DIMCEN
 40
0.1052362205
  9
$DIMTSZ
 40
0.0
  9
$DIMTOL
 70
     1
  9
$DIMLIM
 70
     0
  9
$DIMTIH
 70
     0
  9
$DIMTOH
 70
     1
  9
$DIMSE1
 70
     0
  9
$DIMSE2
 70
     0
  9
$DIMTAD
 70
     0
  9
$DIMZIN
 70
     0
  9
$DIMBLK
  1

  9
$DIMASO
 70
     1
  9
$DIMSHO
 70
     1
  9
$DIMPOST
  1
\X
  9
$DIMAPOST
  1

  9
$DIMALT
 70
     1
  9
$DIMALTD
 70
     2
  9
$DIMALTF
 40
25.3999999999999986
  9
$DIMLFAC
 40
1.0
  9
$DIMTOFL
 70
     0
  9
$DIMTVP
 40
0.0
  9
$DIMTIX
 70
     0
  9
$DIMSOXD
 70
     0
  9
$DIMSAH
 70
     0
  9
$DIMBLK1
  1

  9
$DIMBLK2
  1

  9
$DIMSTYLE
  2
STANDARD
  9
$DIMCLRD
 70
     0
  9
$DIMCLRE
 70
     0
  9
$DIMCLRT
 70
     0
  9
$DIMTFAC
 40
1.0
  9
$DIMGAP
 40
0.09
  9
$LUNITS
 70
     2
  9
$LUPREC
 70
     4
  9
$SKETCHINC
 40
0.1
  9
$FILLETRAD
 40
0.0
  9
$AUNITS
 70
     0
  9
$AUPREC
 70
     0
  9
$MENU
  1
.
  9
$ELEVATION
 40
0.0
  9
$PELEVATION
 40
0.0
  9
$THICKNESS
 40
0.0
  9
$LIMCHECK
 70
     0
  9
$BLIPMODE
 70
     0
  9
$CHAMFERA
 40
0.0
  9
$CHAMFERB
 40
0.0
  9
$SKPOLY
 70
     0
  9
$TDCREATE
 40
2458172.5207638889551163
  9
$TDUPDATE
 40
2459579.7284027780406177
  9
$TDINDWG
 40
0.2057749421
  9
$TDUSRTIMER
 40
0.2057749421
  9
$USRTIMER
 70
     1
  9
$ANGBASE
 50
0.0
  9
$ANGDIR
 70
     0
  9
$PDMODE
 70
     0
  9
$PDSIZE
 40
0.3125
  9
$PLINEWID
 40
0.0
  9
$COORDS
 70
     1
  9
$SPLFRAME
 70
     0
  9
$SPLINETYPE
 70
     6
  9
$SPLINESEGS
 70
     8
  9
$ATTDIA
 70
     1
  9
$ATTREQ
 70
     1
  9
$HANDLING
 70
     1
  9
$HANDSEED
  5
4B45
  9
$SURFTAB1
 70
     6
  9
$SURFTAB2
 70
     6
  9
$SURFTYPE
 70
     6
  9
$SURFU
 70
     6
  9
$SURFV
 70
     6
  9
$UCSNAME
  2

  9
$UCSORG
 10
0.0
 20
0.0
 30
0.0
  9
$UCSXDIR
 10
1.0
 20
0.0
 30
0.0
  9
$UCSYDIR
 10
0.0
 20
1.0
 30
0.0
  9
$PUCSNAME
  2

  9
$PUCSORG
 10
0.0
 20
0.0
 30
0.0
  9
$PUCSXDIR
 10
1.0
 20
0.0
 30
0.0
  9
$PUCSYDIR
 10
0.0
 20
1.0
 30
0.0
  9
$USERI1
 70
     0
  9
$USERI2
 70
     0
  9
$USERI3
 70
     0
  9
$USERI4
 70
     0
  9
$USERI5
 70
     0
  9
$USERR1
 40
0.0
  9
$USERR2
 40
0.0
  9
$USERR3
 40
0.0
  9
$USERR4
 40
0.0
  9
$USERR5
 40
0.0
  9
$WORLDVIEW
 70
     1
  9
$SHADEDGE
 70
     3
  9
$SHADEDIF
 70
    70
  9
$TILEMODE
 70
     1
  9
$MAXACTVP
 70
    64
  9
$PLIMCHECK
 70
     0
  9
$PEXTMIN
 10
1.0000000000000000E+20
 20
1.0000000000000000E+20
 30
1.0000000000000000E+20
  9
$PEXTMAX
 10
-1.0000000000000000E+20
 20
-1.0000000000000000E+20
 30
-1.0000000000000000E+20
  9
$PLIMMIN
 10
0.0
 20
0.0
  9
$PLIMMAX
 10
12.0
 20
9.0
  9
$UNITMODE
 70
     0
  9
$VISRETAIN
 70
     1
  9
$PLINEGEN
 70
     0
  9
$PSLTSCALE
 70
     1
  0
ENDSEC
  0
SECTION
  2
TABLES
  0
TABLE
  2
VPORT
 70
     1
  0
VPORT
  2
*ACTIVE
 70
     0
 10
0.0
 20
0.0
 11
1.0
 21
1.0
 12
-44.7502757895705869
 22
5.7991218873298527
 13
0.0
 23
0.0
 14
1.0
 24
1.0
 15
0.0
 25
0.0
 16
0.0
 26
0.0
 36
52.8911156380141207
 17
257.2274780273438068
 27
32.4577941363292695
 37
0.0
 40
29.9720059478937202
 41
2.5179738562091498
 42
50.0
 43
0.0
 44
0.0
 50
0.0
 51
0.0
 71
     0
 72
   100
 73
     1
 74
     1
 75
     0
 76
     0
 77
     0
 78
     0
  0
ENDTAB
  0
TABLE
  2
LTYPE
 70
     2
  0
LTYPE
  2
CONTINUOUS
 70
     0
  3
Solid line
 72
    65
 73
     0
 40
0.0
  0
LTYPE
  2
PHANTOM2
 70
     0
  3
___ _ _ ___ _ _ ___ _ _ ___ _ _
 72
    65
 73
     6
 40
1.25
 49
0.625
 49
-0.125
 49
0.125
 49
-0.125
 49
0.125
 49
-0.125
  0
ENDTAB
  0
TABLE
  2
LAYER
 70
     2
  0
LAYER
  2
0
 70
     0
 62
   255
  6
CONTINUOUS
  0
LAYER
  2
DEFPOINTS
 70
     0
 62
     7
  6
CONTINUOUS
  0
ENDTAB
  0
TABLE
  2
STYLE
 70
     1
  0
STYLE
  2
STANDARD
 70
     0
 40
0.0
 41
0.8
 50
0.0
 71
     0
 42
0.2
  3
txt
  4

  0
ENDTAB
  0
TABLE
  2
VIEW
 70
     0
  0
ENDTAB
  0
TABLE
  2
UCS
 70
     0
  0
ENDTAB
  0
TABLE
  2
APPID
 70
    10
  0
APPID
  2
ACAD
 70
     0
  0
APPID
  2
ACAD_MLEADERVER
 70
     0
  0
APPID
  2
ACAD_EXEMPT_FROM_CAD_STANDARDS
 70
     0
  0
APPID
  2
ACAD_DSTYLE_DIMJAG
 70
     0
  0
APPID
  2
ACAD_DSTYLE_DIMTALN
 70
     0
  0
APPID
  2
ACAD_NAV_VCDISPLAY
 70
     0
  0
APPID
  2
ACAECLAYERSTANDARD
 70
     0
  0
APPID
  2
ACCMTRANSPARENCY
 70
     0
  0
APPID
  2
DCO15
 70
     0
  0
APPID
  2
ACDBATTR
 70
     0
  0
ENDTAB
  0
TABLE
  2
DIMSTYLE
 70
     1
  0
DIMSTYLE
  2
STANDARD
 70
     0
  3

  4

  5

  6

  7

 40
1.0
 41
0.1875
 42
0.0625
 43
0.38
 44
0.125
 45
0.0
 46
0.0
 47
0.01
 48
0.01
140
0.15625
141
0.09
142
0.0
143
25.3999999999999986
144
1.0
145
0.0
146
1.0
147
0.09
 71
     1
 72
     0
 73
     1
 74
     1
 75
     0
 76
     0
 77
     0
 78
     4
170
     0
171
     2
172
     0
173
     0
174
     0
175
     0
176
     0
177
     0
178
     0
  0
ENDTAB
  0
ENDSEC
  0
SECTION
  2
BLOCKS
  0
BLOCK
  8
0
  2
$MODEL_SPACE
 70
     0
 10
0.0
 20
0.0
 30
0.0
  3
$MODEL_SPACE
  1

  0
ENDBLK
  5
21
  8
0
  0
BLOCK
 67
     1
  8
0
  2
$PAPER_SPACE
 70
     0
 10
0.0
 20
0.0
 30
0.0
  3
$PAPER_SPACE
  1

  0
ENDBLK
  5
1D
 67
     1
  8
0
  0
BLOCK
  8
0
  2
_FILLED
 70
     0
 10
0.0
 20
0.0
 30
0.0
  3
_FILLED
  1

  0
SOLID
  5
4585
  8
0
  6
BYBLOCK
 62
     0
 10
0.0
 20
0.0
 30
0.0
 11
-1.0
 21
0.1666666667
 31
0.0
 12
-1.0
 22
-0.1666666667
 32
0.0
 13
-1.0
 23
-0.1666666667
 33
0.0
  0
ENDBLK
  5
4586
  8
0
  6
BYBLOCK
 62
     0
  0
ENDSEC
  0
SECTION
  2
ENTITIES
  0
ATTDEF
  5
829
  8
DEFPOINTS
 10
221.7709416454252107
 20
37.5220117634680932
 30
0.0
 40
0.001
  1
K-45212
  3

  2
MODELNUMBER
 70
     0
1001
ACDBATTR
1070
     0
1070
     1
  0
ATTDEF
  5
82A
  8
DEFPOINTS
 10
221.7709416454252107
 20
37.520345096801428
 30
0.0
 40
0.001
  1
HYDRORAIL-R
  3

  2
TRADENAME
 70
     0
1001
ACDBATTR
1070
     0
1070
     1
  0
ATTDEF
  5
82B
  8
DEFPOINTS
 10
221.7709416454252107
 20
37.51867843013477
 30
0.0
 40
0.001
  1
SHOWER COLUMN 
  3

  2
PRODUCT
 70
     0
1001
ACDBATTR
1070
     0
1070
     1
  0
LINE
  5
4913
  8
0
 10
203.1709488410793085
 20
50.6900266365641485
 30
0.0
 11
203.1709488410793085
 21
49.7760381400641378
 31
0.0
  0
LINE
  5
4914
  8
0
 10
221.256602306679298
 20
47.5789759555641396
 30
0.0
 11
221.2689402572792972
 21
47.5860992747641376
 31
0.0
  0
LINE
  5
4915
  8
0
 10
219.7409314495779995
 20
27.2580323883641498
 30
0.0
 11
218.8009324394780037
 21
27.2580323883641498
 31
0.0
  0
LINE
  5
4916
  8
0
 10
218.8159324394781038
 20
27.2660323883641382
 30
0.0
 11
219.7259324394781004
 21
27.2660323883641382
 31
0.0
  0
LINE
  5
4917
  8
0
 10
221.283488609253908
 20
28.3539497597186809
 30
0.0
 11
221.2447965548780076
 21
28.3532743873641486
 31
0.0
  0
LINE
  5
4918
  8
0
 10
218.2897928202779951
 20
28.5616859112641386
 30
0.0
 11
218.300932439478089
 21
28.5618803540641508
 31
0.0
  0
LINE
  5
4919
  8
0
 10
219.7409315364780014
 20
27.8762686087641391
 30
0.0
 11
218.8009324394780037
 21
27.8762686087641391
 31
0.0
  0
LINE
  5
491A
  8
0
 10
218.7209324432780875
 20
27.973032388364139
 30
0.0
 11
219.8209324356818968
 21
27.9730323883641496
 31
0.0
  0
LINE
  5
491B
  8
0
 10
218.281932439478112
 20
28.4830323883641512
 30
0.0
 11
217.4359324394781083
 21
28.4830323883641512
 31
0.0
  0
LINE
  5
491C
  8
0
 10
217.4159324394780981
 20
28.4830323883641512
 30
0.0
 11
217.385932439478097
 21
28.4830323883641512
 31
0.0
  0
LINE
  5
491D
  8
0
 10
218.300932439478089
 20
28.4830323883641512
 30
0.0
 11
218.5809324929780928
 21
28.4830323883641512
 31
0.0
  0
LINE
  5
491E
  8
0
 10
219.9609323713781066
 20
28.4845323883641512
 30
0.0
 11
220.2559324394779878
 21
28.4845323883641512
 31
0.0
  0
LINE
  5
491F
  8
0
 10
221.446742124578094
 20
27.4786911513641492
 30
0.0
 11
221.7709324394780026
 21
27.473032388364139
 31
0.0
  0
LINE
  5
4920
  8
0
 10
220.2952343432781106
 20
28.4143463710641484
 30
0.0
 11
221.085949085278088
 21
28.4005443938641484
 31
0.0
  0
LINE
  5
4921
  8
0
 10
220.2952343432781106
 20
29.5317184055641384
 30
0.0
 11
221.085949085278088
 21
29.5455203827641384
 31
0.0
  0
LINE
  5
4922
  8
0
 10
221.446742124578094
 20
30.4673736253641394
 30
0.0
 11
221.7709324394780026
 21
30.4730323883641496
 31
0.0
  0
LINE
  5
4923
  8
0
 10
218.2909324394780981
 20
29.3580323883641512
 30
0.0
 11
218.281932439478112
 21
29.3580323883641512
 31
0.0
  0
LINE
  5
4924
  8
0
 10
219.9609323716780978
 20
29.4615323883641409
 30
0.0
 11
220.2559324394779878
 21
29.4615323883641409
 31
0.0
  0
LINE
  5
4925
  8
0
 10
218.281932439478112
 20
29.463032388364141
 30
0.0
 11
218.0113405127736996
 21
29.463032388364141
 31
0.0
  0
LINE
  5
4926
  8
0
 10
217.5912891727348892
 20
29.463032388364141
 30
0.0
 11
217.4359324394781083
 21
29.463032388364141
 31
0.0
  0
LINE
  5
4927
  8
0
 10
217.4159324394780981
 20
29.463032388364141
 30
0.0
 11
217.385932439478097
 21
29.463032388364141
 31
0.0
  0
LINE
  5
4928
  8
0
 10
218.300932439478089
 20
29.463032388364141
 30
0.0
 11
218.5809324905779931
 21
29.463032388364141
 31
0.0
  0
LINE
  5
4929
  8
0
 10
219.8209324356805894
 20
29.973032388364139
 30
0.0
 11
218.7209324432780875
 21
29.9730323883641496
 31
0.0
  0
LINE
  5
492A
  8
0
 10
221.2834885554021866
 20
29.5921150179496415
 30
0.0
 11
221.2447965548780076
 21
29.5927903892641417
 31
0.0
  0
LINE
  5
492B
  8
0
 10
218.6867003145792978
 20
38.6764890103641434
 30
0.0
 11
219.0259487622793131
 21
38.6764890103641434
 31
0.0
  0
LINE
  5
492C
  8
0
 10
218.7571006716792965
 20
39.276489010364152
 30
0.0
 11
219.7847974345878868
 21
39.276489010364152
 31
0.0
  0
LINE
  5
492D
  8
0
 10
221.2065859838781137
 20
28.3670888210641401
 30
0.0
 11
221.2189239344779992
 21
28.3599655019641403
 31
0.0
  0
LINE
  5
492E
  8
0
 10
218.7709324394780879
 20
27.7262686088641495
 30
0.0
 11
218.8159324394781038
 21
27.6812686087641389
 31
0.0
  0
LINE
  5
492F
  8
0
 10
219.8003324412761117
 20
40.2364890103661921
 30
0.0
 11
218.7415654640792866
 21
40.2364890103641386
 31
0.0
  0
LINE
  5
4930
  8
0
 10
218.6647080727792911
 20
40.4364890103641414
 30
0.0
 11
219.8771892142792979
 21
40.4364890103641414
 31
0.0
  0
LINE
  5
4931
  8
0
 10
218.6517056452792929
 20
38.7108781760641421
 30
0.0
 11
218.625959424479305
 21
40.187099845264143
 31
0.0
  0
LINE
  5
4932
  8
0
 10
217.3559324394780958
 20
28.5130335951641385
 30
0.0
 11
217.3559324394780958
 21
29.4330311814641483
 31
0.0
  0
LINE
  5
4933
  8
0
 10
217.4359324394781083
 20
29.463032388364141
 30
0.0
 11
217.4359324394781083
 21
28.4830323883641512
 31
0.0
  0
LINE
  5
4934
  8
0
 10
218.281932439478112
 20
28.4830323883641512
 30
0.0
 11
218.281932439478112
 21
29.463032388364141
 31
0.0
  0
LINE
  5
4935
  8
0
 10
218.300932439478089
 20
29.463032388364141
 30
0.0
 11
218.300932439478089
 21
28.4830323883641512
 31
0.0
  0
LINE
  5
4936
  8
0
 10
218.6709324394780936
 20
28.0230323883641397
 30
0.0
 11
218.6709324394780936
 21
28.3930323883641513
 31
0.0
  0
LINE
  5
4937
  8
0
 10
218.6709324394780936
 20
29.5530323883641408
 30
0.0
 11
218.6709324394780936
 21
29.9230323883641383
 31
0.0
  0
LINE
  5
4938
  8
0
 10
218.6709487622792949
 20
46.3730323883641375
 30
0.0
 11
218.6709487622792949
 21
47.5730323883641404
 31
0.0
  0
LINE
  5
4939
  8
0
 10
218.6297122634792913
 20
40.4020998445641411
 30
0.0
 11
218.625959424479305
 21
40.187099845264143
 31
0.0
  0
LINE
  5
493A
  8
0
 10
221.2065859838781137
 20
29.5789759555641396
 30
0.0
 11
221.218923935395992
 21
29.5860992752833383
 31
0.0
  0
LINE
  5
493B
  8
0
 10
218.7221054217793039
 20
39.3108781761641524
 30
0.0
 11
218.7065704140792946
 21
40.2008781759641423
 31
0.0
  0
LINE
  5
493C
  8
0
 10
218.9320840352793027
 20
39.3120998444641501
 30
0.0
 11
218.9165490274793058
 21
40.2020998445641382
 31
0.0
  0
LINE
  5
493D
  8
0
 10
219.9121852611793031
 20
40.4020998445641411
 30
0.0
 11
219.9159381001792894
 21
40.187099845264143
 31
0.0
  0
LINE
  5
493E
  8
0
 10
218.7709324394780879
 20
26.3550677427641418
 30
0.0
 11
218.7709324394780879
 21
27.2280323883641415
 31
0.0
  0
LINE
  5
493F
  8
0
 10
218.7709324394780879
 20
27.7262686088641495
 30
0.0
 11
218.7709324394780879
 21
27.8462686087641416
 31
0.0
  0
LINE
  5
4940
  8
0
 10
218.7789488410793126
 20
47.733032388364137
 30
0.0
 11
218.778948762279299
 21
47.6230323883641304
 31
0.0
  0
LINE
  5
4941
  8
0
 10
218.778948762279299
 20
46.3230323883641404
 30
0.0
 11
218.778948762279299
 21
40.4364890103641414
 31
0.0
  0
LINE
  5
4942
  8
0
 10
218.778948762279299
 20
38.6764890103641434
 30
0.0
 11
218.7789324394780976
 21
29.9730323883641496
 31
0.0
  0
LINE
  5
4943
  8
0
 10
218.8159324394781038
 20
27.2660323883641382
 30
0.0
 11
218.8159324394781038
 21
27.6812686087641389
 31
0.0
  0
LINE
  5
4944
  8
0
 10
218.9134324394781004
 20
27.9430323883641485
 30
0.0
 11
218.9134324394781004
 21
27.8762686087641391
 31
0.0
  0
LINE
  5
4945
  8
0
 10
218.9559324394780901
 20
27.2660323883641382
 30
0.0
 11
218.9559324394780901
 21
27.2580323883641498
 31
0.0
  0
LINE
  5
4946
  8
0
 10
219.585932439478114
 20
27.2660323883641382
 30
0.0
 11
219.585932439478114
 21
27.2580323883641498
 31
0.0
  0
LINE
  5
4947
  8
0
 10
219.6284324394781038
 20
27.9430323883641485
 30
0.0
 11
219.6284324394781038
 21
27.8762686087641391
 31
0.0
  0
LINE
  5
4948
  8
0
 10
219.7259324394781004
 20
27.6812686087641389
 30
0.0
 11
219.7259324394781004
 21
27.2660323883641382
 31
0.0
  0
LINE
  5
4949
  8
0
 10
219.7629487622793079
 20
47.733032388364137
 30
0.0
 11
219.7629487622793079
 21
47.6230323883641375
 31
0.0
  0
LINE
  5
494A
  8
0
 10
219.7629487622793079
 20
46.3230323883641404
 30
0.0
 11
219.7629487622793079
 21
40.4364890103641414
 31
0.0
  0
LINE
  5
494B
  8
0
 10
219.7629487622793079
 20
38.6764890106904176
 30
0.0
 11
219.7629324394779928
 21
29.973032388364139
 31
0.0
  0
LINE
  5
494C
  8
0
 10
219.7709324394780026
 20
26.3550677427641418
 30
0.0
 11
219.7709324394780026
 21
27.2280323883641415
 31
0.0
  0
LINE
  5
494D
  8
0
 10
219.7709324394780026
 20
27.7262686087641406
 30
0.0
 11
219.7709324394780026
 21
27.8462686087641416
 31
0.0
  0
LINE
  5
494E
  8
0
 10
219.8709324394779969
 20
28.0230323883641397
 30
0.0
 11
219.8709324394779969
 21
28.3945323883641407
 31
0.0
  0
LINE
  5
494F
  8
0
 10
219.8709324394779969
 20
29.5515323883641514
 30
0.0
 11
219.8709324394779969
 21
29.9230323883641383
 31
0.0
  0
LINE
  5
4950
  8
0
 10
219.8709487622793119
 20
46.3730323883641375
 30
0.0
 11
219.8709487622793119
 21
46.3945323883641407
 31
0.0
  0
LINE
  5
4951
  8
0
 10
219.8709487622793119
 20
47.5515323883641372
 30
0.0
 11
219.8709487622793119
 21
47.5730323883641404
 31
0.0
  0
LINE
  5
4952
  8
0
 10
220.2559324394779878
 20
28.4543413357641484
 30
0.0
 11
220.2559324394779878
 21
29.4917234408641384
 31
0.0
  0
LINE
  5
4953
  8
0
 10
220.3059487622792858
 20
46.4543413357641413
 30
0.0
 11
220.3059487622792858
 21
47.491723440864142
 31
0.0
  0
LINE
  5
4954
  8
0
 10
219.6253484971792886
 20
40.2020998445641382
 30
0.0
 11
219.6098134893792917
 21
39.3120998444641501
 31
0.0
  0
LINE
  5
4955
  8
0
 10
219.8197921027793029
 20
39.3108781761641524
 30
0.0
 11
219.8353271105792999
 21
40.2008781759641423
 31
0.0
  0
LINE
  5
4956
  8
0
 10
219.8901918793793016
 20
38.7108781760641421
 30
0.0
 11
219.9159381001792894
 21
40.187099845264143
 31
0.0
  0
LINE
  5
4957
  8
0
 10
219.7259324394781004
 20
27.6812686087641389
 30
0.0
 11
219.7709324394780026
 21
27.7262686087641406
 31
0.0
  0
LINE
  5
4958
  8
0
 10
221.2835048773793005
 20
47.6110508446641418
 30
0.0
 11
221.2835048773793005
 21
46.3350006952641422
 31
0.0
  0
LINE
  5
4959
  8
0
 10
221.2834885545780992
 20
29.611064081364141
 30
0.0
 11
221.2834886100781091
 21
28.3349996530641484
 31
0.0
  0
LINE
  5
495A
  8
0
 10
221.3491762099779976
 20
30.3791061266641513
 30
0.0
 11
221.3491762112199126
 21
27.5669586396248292
 31
0.0
  0
LINE
  5
495B
  8
0
 10
221.7709324394780026
 20
27.473032388364139
 30
0.0
 11
221.7709324394780026
 21
30.4730323883641496
 31
0.0
  0
LINE
  5
495C
  8
0
 10
221.7709487622792892
 20
45.473032388364139
 30
0.0
 11
221.7709487622792892
 21
48.4730323883641319
 31
0.0
  0
LINE
  5
495D
  8
0
 10
221.4467584470793042
 20
45.4786911513641385
 30
0.0
 11
221.7709487622792892
 21
45.473032388364139
 31
0.0
  0
LINE
  5
495E
  8
0
 10
220.3452506660792949
 20
47.531718405564142
 30
0.0
 11
221.1359654080793007
 21
47.5455203827641384
 31
0.0
  0
LINE
  5
495F
  8
0
 10
218.7209487660792888
 20
46.3230323883641404
 30
0.0
 11
219.8209487585793056
 21
46.3230323883641404
 31
0.0
  0
LINE
  5
4960
  8
0
 10
220.3059487622792858
 20
46.4845323883641512
 30
0.0
 11
219.9609487072793002
 21
46.484532388364137
 31
0.0
  0
LINE
  5
4961
  8
0
 10
220.3059487622792858
 20
47.4615323883641409
 30
0.0
 11
219.9609487040792999
 21
47.4615323883641409
 31
0.0
  0
LINE
  5
4962
  8
0
 10
220.3452506660792949
 20
46.4143463710641413
 30
0.0
 11
221.1359654080793007
 21
46.4005443938641378
 31
0.0
  0
LINE
  5
4963
  8
0
 10
221.4467584470793042
 20
48.4673736253641465
 30
0.0
 11
221.7709487622792892
 21
48.4730323883641319
 31
0.0
  0
LINE
  5
4964
  8
0
 10
219.8209381149792989
 20
47.6230323883641375
 30
0.0
 11
218.7209512818793087
 21
47.6230323883641375
 31
0.0
  0
LINE
  5
4965
  8
0
 10
221.256602306679298
 20
46.3670888210641365
 30
0.0
 11
221.2689402572792972
 21
46.3599655019641403
 31
0.0
  0
LINE
  5
4966
  8
0
 10
203.2609488410793119
 20
49.7410323883641468
 30
0.0
 11
203.2059488410793051
 21
49.7410323883641468
 31
0.0
  0
LINE
  5
4967
  8
0
 10
203.2709488410793028
 20
49.7410323883641468
 30
0.0
 11
203.5109488410793119
 21
49.7410323883641468
 31
0.0
  0
LINE
  5
4968
  8
0
 10
204.1309488410792881
 20
49.7410323883641468
 30
0.0
 11
216.7709488410793028
 21
49.7410323883641468
 31
0.0
  0
LINE
  5
4969
  8
0
 10
203.260955841091004
 20
50.7250323883641414
 30
0.0
 11
203.2059488410793051
 21
50.7250323883641414
 31
0.0
  0
LINE
  5
496A
  8
0
 10
203.2709488410793028
 20
50.7250323883641414
 30
0.0
 11
216.7709488410793028
 21
50.7250323883641414
 31
0.0
  0
ARC
  5
496B
  8
0
 10
217.3859324394923931
 20
28.513032388402749
 30
0.0
 40
0.0300000000385969
 50
179.9976952555074092
 51
269.9999999726421152
  0
ARC
  5
496C
  8
0
 10
217.3859324394931036
 20
29.4330323883248113
 30
0.0
 40
0.0300000000393332
 50
90.0000000287550677
 51
180.0023049340859984
  0
ARC
  5
496D
  8
0
 10
217.4159324394780981
 20
29.4430323883641485
 30
0.0
 40
0.02
 50
0.0
 51
90.0
  0
ARC
  5
496E
  8
0
 10
217.4159324394780981
 20
28.5030323883641401
 30
0.0
 40
0.02
 50
270.0
 51
0.0
  0
ARC
  5
496F
  8
0
 10
203.2059488413474924
 20
50.6900323876234822
 30
0.0
 40
0.0350000007406663
 50
90.0000004389926858
 51
180.0094146120528933
  0
ARC
  5
4970
  8
0
 10
203.2059488413378006
 20
49.7760323890950787
 30
0.0
 40
0.0350000007309407
 50
179.9905855357139899
 51
269.9999995769009047
  0
ARC
  5
4971
  8
0
 10
219.5205066106832135
 20
26.3550900460077386
 30
0.0
 40
0.2504258297880166
 50
355.666892490392911
 51
359.9948971648398128
  0
ARC
  5
4972
  8
0
 10
221.0815859838781137
 20
29.7954823065641392
 30
0.0
 40
0.25
 50
271.0000000000001137
 51
299.99999703419968
  0
ARC
  5
4973
  8
0
 10
221.0815859837780124
 20
28.1505824693546316
 30
0.0
 40
0.2500000007111468
 50
60.0000000676238372
 51
88.9999999799131984
  0
ARC
  5
4974
  8
0
 10
221.4484873652779982
 20
27.5786759208641499
 30
0.0
 40
0.1
 50
186.7289654660999076
 51
268.9999997804001168
  0
ARC
  5
4975
  8
0
 10
221.2439239344780901
 20
29.5427980045641512
 30
0.0
 40
0.05
 50
89.000000148199419
 51
119.999998785400507
  0
ARC
  5
4976
  8
0
 10
221.2439239344780901
 20
28.4032667720641392
 30
0.0
 40
0.05
 50
240.0000012145993082
 51
270.9999998517989184
  0
ARC
  5
4977
  8
0
 10
218.7209324394781049
 20
28.0230323883641397
 30
0.0
 40
0.05
 50
180.0
 51
270.0000043500999141
  0
ARC
  5
4978
  8
0
 10
219.8209324394780992
 20
28.0230323883641397
 30
0.0
 40
0.05
 50
269.9999956499000859
 51
0.0
  0
ARC
  5
4979
  8
0
 10
220.2959324394867906
 20
29.4917244977415685
 30
0.0
 40
0.0400000000227241
 50
91.0000001530727758
 51
180.0015138653978966
  0
ARC
  5
497A
  8
0
 10
220.2959324394871032
 20
28.4543402788870203
 30
0.0
 40
0.0400000000230352
 50
179.9984861350343976
 51
268.9999998464875262
  0
ARC
  5
497B
  8
0
 10
219.7409324394567136
 20
27.8462686087563611
 30
0.0
 40
0.0300000000213672
 50
0.0000000148595515
 51
90.0017245621566246
  0
ARC
  5
497C
  8
0
 10
218.8009324394780037
 20
27.8462686087641416
 30
0.0
 40
0.03
 50
90.0
 51
180.0
  0
ARC
  5
497D
  8
0
 10
219.7409324394521093
 20
27.2280323883545208
 30
0.0
 40
0.0300000000259502
 50
0.0000000183843185
 51
90.001890520180396
  0
ARC
  5
497E
  8
0
 10
218.8009324394780037
 20
27.2280323883641415
 30
0.0
 40
0.03
 50
90.0
 51
180.0
  0
ARC
  5
497F
  8
0
 10
218.883432439478014
 20
27.9430323883641485
 30
0.0
 40
0.03
 50
0.0
 51
90.0
  0
ARC
  5
4980
  8
0
 10
219.6584324394781049
 20
27.9430323883641485
 30
0.0
 40
0.03
 50
90.0
 51
180.0
  0
ARC
  5
4981
  8
0
 10
218.2909324394780981
 20
29.348032388364139
 30
0.0
 40
0.01
 50
0.0
 51
90.0
  0
ARC
  5
4982
  8
0
 10
218.2899324394780933
 20
28.5536871296641515
 30
0.0
 40
0.008
 50
91.0000000000001563
 51
180.0
  0
ARC
  5
4983
  8
0
 10
218.7209324394781049
 20
29.9230323883641383
 30
0.0
 40
0.05
 50
89.9999956483986665
 51
180.0
  0
ARC
  5
4984
  8
0
 10
219.8209324394780992
 20
29.9230323883641383
 30
0.0
 40
0.05
 50
0.0
 51
90.0000043515996992
  0
ARC
  5
4985
  8
0
 10
218.7571000911869987
 20
39.3114890103670689
 30
0.0
 40
0.0350000000077373
 50
181.0000000045673971
 51
270.000950278842879
  0
ARC
  5
4986
  8
0
 10
218.8970893658793102
 20
39.3114890103641414
 30
0.0
 40
0.035
 50
270.0
 51
0.9999999127000174
  0
ARC
  5
4987
  8
0
 10
218.6867003145792978
 20
38.7114890103641471
 30
0.0
 40
0.035
 50
181.0000004758998955
 51
270.0
  0
ARC
  5
4988
  8
0
 10
218.8815543581793008
 20
40.201489010364142
 30
0.0
 40
0.035
 50
1.00000008519989
 51
90.0000000001156337
  0
ARC
  5
4989
  8
0
 10
218.7415650833825111
 20
40.2014890103630407
 30
0.0
 40
0.0350000000031684
 50
89.9993767908297713
 51
180.99999999811061
  0
ARC
  5
498A
  8
0
 10
218.6647069328087127
 20
40.4014890103531883
 30
0.0
 40
0.0350000000295126
 50
89.9981338426347861
 51
178.9999997869192896
  0
ARC
  5
498B
  8
0
 10
219.784797433479298
 20
39.3114890103641414
 30
0.0
 40
0.035
 50
270.000001814799873
 51
358.9999999999997726
  0
ARC
  5
498C
  8
0
 10
219.6448081587793126
 20
39.3114890103641414
 30
0.0
 40
0.035
 50
179.0000001219999035
 51
270.0
  0
ARC
  5
498D
  8
0
 10
219.8551972093511893
 20
38.7114890106109328
 30
0.0
 40
0.0350000007323592
 50
269.9999999999869829
 51
358.9999991409630979
  0
ARC
  5
498E
  8
0
 10
219.8003324412761117
 20
40.2014890103630265
 30
0.0
 40
0.0350000000031626
 50
359.0000000019213076
 51
90.0
  0
ARC
  5
498F
  8
0
 10
219.6603431665793096
 20
40.201489010364142
 30
0.0
 40
0.035
 50
90.0000000001156337
 51
178.9999999415001071
  0
ARC
  5
4990
  8
0
 10
219.8771905918532923
 20
40.401489010396709
 30
0.0
 40
0.034999999994549
 50
0.9999999053918815
 51
90.0022551192749347
  0
ARC
  5
4991
  8
0
 10
221.4484873652997123
 20
30.3673888557093505
 30
0.0
 40
0.1000000000551666
 50
91.0000002314600636
 51
173.2710404366569037
  0
ARC
  5
4992
  8
0
 10
233.2665146981780993
 20
28.973032388364139
 30
0.0
 40
12.0
 50
173.2710345837001
 51
176.952185898200014
  0
ARC
  5
4993
  8
0
 10
233.266514809922711
 20
28.9730323991148815
 30
0.0
 40
12.0000001121331206
 50
183.0478191080154033
 51
186.7289654549151976
  0
ARC
  5
4994
  8
0
 10
233.2658524034530956
 20
46.9731014222651524
 30
0.0
 40
11.9993179681657498
 50
173.2709672243422006
 51
176.9524058915347098
  0
ARC
  5
4995
  8
0
 10
233.2665310209793006
 20
46.973032388364139
 30
0.0
 40
12.0
 50
183.0478141017997871
 51
186.7289804578998087
  0
ARC
  5
4996
  8
0
 10
221.1316023065764114
 20
47.7954823072841535
 30
0.0
 40
0.2500000007216887
 50
271.0000000207122071
 51
299.9999999317537913
  0
ARC
  5
4997
  8
0
 10
221.1316023065778893
 20
46.1505824693496294
 30
0.0
 40
0.2500000007161764
 50
60.0000000679204604
 51
88.9999999796135057
  0
ARC
  5
4998
  8
0
 10
221.4485036880793132
 20
48.3673888557641405
 30
0.0
 40
0.1000000000000055
 50
91.0000002196097313
 51
173.2692358439377927
  0
ARC
  5
4999
  8
0
 10
221.4485036881305859
 20
45.5786759209937173
 30
0.0
 40
0.1000000001304715
 50
186.7307645390046957
 51
268.9999997523426032
  0
ARC
  5
499A
  8
0
 10
221.2939402572793028
 20
47.5427980045641405
 30
0.0
 40
0.05
 50
102.0466249383189989
 51
119.999998785400507
  0
ARC
  5
499B
  8
0
 10
221.2939402572793028
 20
46.4032667720641427
 30
0.0
 40
0.05
 50
240.0000012145993082
 51
257.9533750616809016
  0
ARC
  5
499C
  8
0
 10
218.7209487623817097
 20
47.5730323883251671
 30
0.0
 40
0.0500000001024491
 50
89.9971128684986468
 51
179.9999999553398879
  0
ARC
  5
499D
  8
0
 10
219.8209487622793858
 20
46.3730323883641375
 30
0.0
 40
0.05
 50
269.9999956617991188
 51
0.0
  0
ARC
  5
499E
  8
0
 10
218.7209487622793063
 20
46.3730323883641375
 30
0.0
 40
0.05
 50
180.0
 51
270.0000043381991759
  0
ARC
  5
499F
  8
0
 10
219.8209487603448054
 20
47.5730323875628329
 30
0.0
 40
0.0500000019345493
 50
0.0000009182347876
 51
90.0121986898363389
  0
ARC
  5
49A0
  8
0
 10
220.3459487622880886
 20
47.4917244977415933
 30
0.0
 40
0.0400000000226978
 50
91.0000001530336817
 51
180.0015138654347027
  0
ARC
  5
49A1
  8
0
 10
220.3459487622870938
 20
46.4543402788857804
 30
0.0
 40
0.0400000000217704
 50
179.9984861332544881
 51
268.9999998482675778
  0
ARC
  5
49A2
  8
0
 10
219.9609826435801949
 20
46.3944985070839877
 30
0.0
 40
0.0900338876759274
 50
90.0215963889742596
 51
179.978438625134487
  0
ARC
  5
49A3
  8
0
 10
219.9609823273843006
 20
47.5515659534474224
 30
0.0
 40
0.0900335713616422
 50
180.0213602921195104
 51
269.9786027202619039
  0
ARC
  5
49A4
  8
0
 10
219.9574692289758104
 20
29.548069180470879
 30
0.0
 40
0.0866060606741824
 50
177.7082421862371007
 51
272.2917146509278155
  0
ARC
  5
49A5
  8
0
 10
219.9574692289758104
 20
28.3979955961574113
 30
0.0
 40
0.0866060606741824
 50
87.7082853490722698
 51
182.2917578137625867
  0
ARC
  5
49A6
  8
0
 10
218.5866867455397937
 20
29.5472780855695092
 30
0.0
 40
0.0844419856930357
 50
266.0925809483862849
 51
3.9074515828926821
  0
ARC
  5
49A7
  8
0
 10
218.5843956491542883
 20
28.3964955959817402
 30
0.0
 40
0.0866060614884299
 50
357.7082423903179915
 51
92.2917235505094311
  0
LINE
  5
49A8
  8
0
 10
217.7109338517780941
 20
30.3730323932641504
 30
0.0
 11
217.8909324394780924
 21
30.3730323932641504
 31
0.0
  0
LINE
  5
49A9
  8
0
 10
217.6509324394781117
 20
30.3130323932641517
 30
0.0
 11
217.6509324394781117
 21
29.5230321967641487
 31
0.0
  0
LINE
  5
49AA
  8
0
 10
217.9509324394780947
 20
30.3130323932641517
 30
0.0
 11
217.9509324394780947
 21
29.5230321902641499
 31
0.0
  0
ARC
  5
49AB
  8
0
 10
218.0109566783243906
 20
29.5230554044421183
 30
0.0
 40
0.0600242433353492
 50
180.0221589541459082
 51
270.3663893560661791
  0
ARC
  5
49AC
  8
0
 10
217.5909083455186988
 20
29.5230552786564893
 30
0.0
 40
0.060024098397355
 50
270.3635196393669275
 51
359.9779672651117721
  0
ARC
  5
49AD
  8
0
 10
217.8909324394780924
 20
30.3130323932641517
 30
0.0
 40
0.06
 50
0.0
 51
90.0
  0
ARC
  5
49AE
  8
0
 10
217.7109324395030967
 20
30.3130323932556784
 30
0.0
 40
0.060000000025085
 50
89.9986513767866825
 51
179.9999999919170079
  0
LINE
  5
49AF
  8
0
 10
203.5229488410793124
 20
49.7504643387307794
 30
0.0
 11
203.5229488410793124
 21
49.7430323908141503
 31
0.0
  0
LINE
  5
49B0
  8
0
 10
204.1189488410792876
 20
49.7504643387307581
 30
0.0
 11
204.1189488410792876
 21
49.7430323908141503
 31
0.0
  0
LINE
  5
49B1
  8
0
 10
204.2409488410793017
 20
49.6230323908141386
 30
0.0
 11
204.2409488410793017
 21
49.6110323908141382
 31
0.0
  0
ARC
  5
49B2
  8
0
 10
203.4029211764095066
 20
49.743043849895173
 30
0.0
 40
0.1200276652168606
 50
269.058453929616519
 51
359.9945299529113072
  0
ARC
  5
49B3
  8
0
 10
204.238976505749207
 20
49.7430438498951588
 30
0.0
 40
0.1200276652168561
 50
179.9945300498339975
 51
269.0584539294991941
  0
LINE
  5
49B4
  8
0
 10
204.2409488410793017
 20
49.6110323908141382
 30
0.0
 11
204.2405010924792919
 21
49.6104681193141488
 31
0.0
  0
LINE
  5
49B5
  8
0
 10
204.2405010924792919
 20
49.6104681193141488
 30
0.0
 11
204.1833710051824085
 21
49.5797993793334726
 31
0.0
  0
LINE
  5
49B6
  8
0
 10
204.1833710051824085
 20
49.5797993793334726
 30
0.0
 11
204.2385343615792976
 21
49.5455630608141391
 31
0.0
  0
LINE
  5
49B7
  8
0
 10
204.2383318831793133
 20
49.5434140436141419
 30
0.0
 11
204.1812199138421988
 21
49.5127782431124785
 31
0.0
  0
LINE
  5
49B8
  8
0
 10
204.1812199138421988
 20
49.5127782431124785
 30
0.0
 11
204.2364396543792964
 21
49.4785560427141391
 31
0.0
  0
LINE
  5
49B9
  8
0
 10
204.2362366428793052
 20
49.4764294717141482
 30
0.0
 11
204.179061987158093
 21
49.4457925702111822
 31
0.0
  0
LINE
  5
49BA
  8
0
 10
204.179061987158093
 20
49.4457925702111822
 30
0.0
 11
204.234297083479305
 21
49.4115792924141388
 31
0.0
  0
LINE
  5
49BB
  8
0
 10
204.2341297544793122
 20
49.4094296105141524
 30
0.0
 11
204.1769576900788081
 21
49.3787940559422083
 31
0.0
  0
LINE
  5
49BC
  8
0
 10
204.1769576900788081
 20
49.3787940559422083
 30
0.0
 11
204.2321849169792927
 21
49.3445833353141481
 31
0.0
  0
LINE
  5
49BD
  8
0
 10
204.232061828379301
 20
49.3424606520141467
 30
0.0
 11
204.1748986951492952
 21
49.3118114943080883
 31
0.0
  0
LINE
  5
49BE
  8
0
 10
204.1748986951492952
 20
49.3118114943080883
 30
0.0
 11
204.2300554257793124
 21
49.27759789481415
 31
0.0
  0
LINE
  5
49BF
  8
0
 10
204.2299492794793139
 20
49.2754448623141528
 30
0.0
 11
204.172847807213202
 21
49.2447965634795892
 31
0.0
  0
LINE
  5
49C0
  8
0
 10
204.1728478072078019
 20
49.2447965634766689
 30
0.0
 11
204.2166511777793119
 21
49.2176062976141466
 31
0.0
  0
LINE
  5
49C1
  8
0
 10
204.2167348189792904
 20
49.2173183687141531
 30
0.0
 11
204.1724488410793015
 21
49.17303239081415
 31
0.0
  0
LINE
  5
49C2
  8
0
 10
204.1724488410793015
 20
49.17303239081415
 30
0.0
 11
203.4694488410792985
 21
49.17303239081415
 31
0.0
  0
LINE
  5
49C3
  8
0
 10
203.4694488410792985
 20
49.17303239081415
 30
0.0
 11
203.4462443445792985
 21
49.19623688731415
 31
0.0
  0
LINE
  5
49C4
  8
0
 10
203.4462443445792985
 20
49.19623688731415
 30
0.0
 11
203.4463537277792966
 21
49.1965644456141504
 31
0.0
  0
LINE
  5
49C5
  8
0
 10
203.4463537277792966
 20
49.1965644456141504
 30
0.0
 11
203.4703841941199016
 21
49.2114291903102767
 31
0.0
  0
LINE
  5
49C6
  8
0
 10
203.4703841941199016
 20
49.2114291903102767
 30
0.0
 11
203.4125427924273879
 21
49.2424413561883512
 31
0.0
  0
LINE
  5
49C7
  8
0
 10
203.4128569258793107
 20
49.2440745117141532
 30
0.0
 11
203.468081603579293
 21
49.2782831582141512
 31
0.0
  0
LINE
  5
49C8
  8
0
 10
203.468081603579293
 20
49.2782831582141512
 30
0.0
 11
203.4109465833793138
 21
49.308965978614161
 31
0.0
  0
LINE
  5
49C9
  8
0
 10
203.4107287790793066
 20
49.3110602137141498
 30
0.0
 11
203.4659074115793089
 21
49.3452818481141477
 31
0.0
  0
LINE
  5
49CA
  8
0
 10
203.4659074115793089
 20
49.3452818481141477
 30
0.0
 11
203.4088182167793093
 21
49.3759300191141506
 31
0.0
  0
LINE
  5
49CB
  8
0
 10
203.4086214242792892
 20
49.3780339541141515
 30
0.0
 11
203.4637981515705007
 21
49.4122839223890509
 31
0.0
  0
LINE
  5
49CC
  8
0
 10
203.4637981515705007
 20
49.4122839223890509
 30
0.0
 11
203.4067023527792912
 21
49.4429357714141489
 31
0.0
  0
LINE
  5
49CD
  8
0
 10
203.4065589270792884
 20
49.4450968340141515
 30
0.0
 11
203.4617048610143968
 21
49.4793110993006593
 31
0.0
  0
LINE
  5
49CE
  8
0
 10
203.4617048610143968
 20
49.4793110993006593
 30
0.0
 11
203.4045525550793059
 21
49.5099600590141478
 31
0.0
  0
LINE
  5
49CF
  8
0
 10
203.4044539291793114
 20
49.5120863424141504
 30
0.0
 11
203.4596707295328031
 21
49.5463042553949791
 31
0.0
  0
LINE
  5
49D0
  8
0
 10
203.4596707295328031
 20
49.5463042553949791
 30
0.0
 11
203.4024715620793131
 21
49.5769467505141535
 31
0.0
  0
LINE
  5
49D1
  8
0
 10
203.4024715620793131
 20
49.5769467505141535
 30
0.0
 11
203.4020054398646948
 21
49.5774413566776104
 31
0.0
  0
LINE
  5
49D2
  8
0
 10
203.4020054398646948
 20
49.5774413566776104
 30
0.0
 11
203.4009488410792983
 21
49.6110323908141382
 31
0.0
  0
LINE
  5
49D3
  8
0
 10
203.4009488410792983
 20
49.6110323908141382
 30
0.0
 11
203.4009488410790141
 21
49.6230323908141386
 31
0.0
  0
ARC
  5
49D4
  8
0
 10
189.412160721943593
 20
360.8936780512935911
 30
0.0
 40
311.6641136015123266
 50
272.5833445969707896
 51
272.716530828141515
  0
ARC
  5
49D5
  8
0
 10
205.9703807668770139
 20
3.296132004207514
 30
0.0
 40
46.2512646976285566
 50
92.2169545030174334
 51
93.1092579775738756
  0
ARC
  5
49D6
  8
0
 10
245.0784982453461964
 20
-831.2298586841820907
 30
0.0
 40
881.6248445901396735
 50
92.6589614010117373
 51
92.7054965543026981
  0
ARC
  5
49D7
  8
0
 10
208.1145153495008913
 20
-41.7270879955256575
 30
0.0
 40
91.190932140740955
 50
92.474759211657144
 51
92.9220131805817147
  0
ARC
  5
49D8
  8
0
 10
197.6265338737671868
 20
179.8920732226305859
 30
0.0
 40
130.744352975075401
 50
272.5607797060641815
 51
272.8708751091022009
  0
ARC
  5
49D9
  8
0
 10
347.204262483144305
 20
-2969.3221158338737951
 30
0.0
 40
3021.9537041795128971
 50
92.7128672603787578
 51
92.7262008798526978
  0
ARC
  5
49DA
  8
0
 10
185.8115728471109094
 20
718.1043528264560791
 30
0.0
 40
669.1402056765706448
 50
271.5101700776788789
 51
271.5761586425659857
  0
ARC
  5
49DB
  8
0
 10
197.8374456328585893
 20
195.3598434067203868
 30
0.0
 40
146.2231307655422938
 50
272.1850572669277994
 51
272.5058118785498777
  0
ARC
  5
49DC
  8
0
 10
178.8637820508261029
 20
663.9888161534330493
 30
0.0
 40
615.1685935268925505
 50
272.2868394970055874
 51
272.3634736436395087
  0
ARC
  5
49DD
  8
0
 10
200.064838825711206
 20
142.0574431811783995
 30
0.0
 40
92.7406994733699293
 50
272.0660644984575924
 51
272.5769991333141888
  0
ARC
  5
49DE
  8
0
 10
186.0738630397981126
 20
489.4679860356458789
 30
0.0
 40
440.3651777192854979
 50
272.2556879789955246
 51
272.3638381893699147
  0
ARC
  5
49DF
  8
0
 10
198.1673034173587951
 20
190.7925420753076082
 30
0.0
 40
141.3784425006629988
 50
272.1227742149887945
 51
272.4613471112955949
  0
ARC
  5
49E0
  8
0
 10
184.0944959272320034
 20
542.2798868251819613
 30
0.0
 40
493.0806016207515086
 50
272.2440990217323815
 51
272.3416620510773214
  0
LINE
  5
49E1
  8
0
 10
203.4009488410790141
 20
49.6230323908141386
 30
0.0
 11
204.2409488410795007
 21
49.6230323908141528
 31
0.0
  0
ARC
  5
49E2
  8
0
 10
204.2162867103170072
 20
49.2173443095095635
 30
0.0
 40
0.0004488588842693
 50
356.6868724826719017
 51
35.7095020335893665
  0
ARC
  5
49E3
  8
0
 10
204.2288462994000895
 20
49.2765783729536295
 30
0.0
 40
0.0015815850988668
 50
314.217898117380912
 51
40.1372128171421423
  0
ARC
  5
49E4
  8
0
 10
204.2309535147263944
 20
49.3435898305277973
 30
0.0
 40
0.0015822146721729
 50
314.465726034092711
 51
38.8968556449479692
  0
ARC
  5
49E5
  8
0
 10
204.2330674154399048
 20
49.410593655185977
 30
0.0
 40
0.0015759328134765
 50
312.3844333418173278
 51
38.7138283632708067
  0
ARC
  5
49E6
  8
0
 10
204.2351485421822872
 20
49.477606322098282
 30
0.0
 40
0.0016027913006782
 50
312.7560740804125885
 51
36.3375802256187797
  0
ARC
  5
49E7
  8
0
 10
204.2372622848224069
 20
49.5445988674388005
 30
0.0
 40
0.0015961980267473
 50
312.074109165404991
 51
37.1609600272456433
  0
ARC
  5
49E8
  8
0
 10
203.405674372826212
 20
49.5110775226446123
 30
0.0
 40
0.0015834140401748
 50
140.4228351247539877
 51
224.8885927501272874
  0
ARC
  5
49E9
  8
0
 10
203.4077860405627121
 20
49.4440929845023831
 30
0.0
 40
0.0015854088884277
 50
140.7148566401021128
 51
226.8792348103997085
  0
ARC
  5
49EA
  8
0
 10
203.4098843246775061
 20
49.3770909090298105
 30
0.0
 40
0.0015761508325179
 50
143.2502147270299986
 51
227.4370630781320983
  0
ARC
  5
49EB
  8
0
 10
203.4119452303046103
 20
49.3101282833038681
 30
0.0
 40
0.0015323993843346
 50
142.5440629713770022
 51
229.3309776154185045
  0
ARC
  5
49EC
  8
0
 10
203.4150047585760888
 20
49.2428145922116229
 30
0.0
 40
0.002490096874919
 50
149.6040973228579105
 51
188.6204449633484046
  0
ARC
  5
49ED
  8
0
 10
203.8209488410793142
 20
49.3589778804343169
 30
0.0
 40
0.4920016738076135
 50
50.9440371438582602
 51
129.0559628561412921
  0
ARC
  5
49EE
  8
0
 10
203.2609488410793119
 20
49.7510323908141601
 30
0.0
 40
0.0100000000000158
 50
270.0000000000603109
 51
0.0
  0
ARC
  5
49EF
  8
0
 10
203.2609488410793119
 20
50.7150323908141374
 30
0.0
 40
0.0100000000000084
 50
0.0
 51
89.959892859872852
  0
LINE
  5
49F0
  8
0
 10
203.2709488410793028
 20
50.7250323908141496
 30
0.0
 11
203.2709488410793028
 21
49.7410323883641468
 31
0.0
  0
ARC
  5
49F1
  8
0
 10
221.501160770391806
 20
46.296681838088638
 30
0.0
 40
2.0572411367948642
 50
142.4128358123330997
 51
153.9021209228583018
  0
ARC
  5
49F2
  8
0
 10
221.2499152144723098
 20
47.4824106646664177
 30
0.0
 40
1.7564246697265571
 50
202.5535777771789014
 51
218.2702066338312079
  0
ARC
  5
49F3
  8
0
 10
220.0874917954598118
 20
46.9758183939978267
 30
0.0
 40
0.4890951094940866
 50
152.4977514684478024
 51
199.9749569819753958
  0
LINE
  5
49F4
  8
0
 10
221.3491929019114934
 20
45.5669555213999118
 30
0.0
 11
221.3491929019114934
 21
48.3791092546789088
 31
0.0
  0
ARC
  5
49F5
  8
0
 10
219.2709681614815054
 20
26.650033478655331
 30
0.0
 40
0.6573059215118641
 50
241.8571279716327922
 51
298.2393753154896103
  0
ARC
  5
49F6
  8
0
 10
219.3816332778364995
 20
26.4332941706396696
 30
0.0
 40
0.414032250650302
 50
298.9393409238027175
 51
322.0959577480147118
  0
ARC
  5
49F7
  8
0
 10
219.4796012270433039
 20
26.3597726120711009
 30
0.0
 40
0.2915723553620571
 50
321.668708068935814
 51
355.3566904894632899
  0
ARC
  5
49F8
  8
0
 10
219.1423979052183881
 20
26.4116725105432408
 30
0.0
 40
0.3864835564175094
 50
208.9466695834584868
 51
241.9967465393129942
  0
ARC
  5
49F9
  8
0
 10
219.0479960730046116
 20
26.3562518403833614
 30
0.0
 40
0.2770661637664881
 50
180.2448652023686861
 51
208.3661969852736036
  0
ARC
  5
49FA
  8
0
 10
219.0769290061469974
 20
26.4951537254666611
 30
0.0
 40
0.3062644476648121
 50
182.3965801098850932
 51
235.0349032159030003
  0
ARC
  5
49FB
  8
0
 10
219.2470974621992923
 20
26.7151460468010917
 30
0.0
 40
0.5842213758534883
 50
233.722519822304605
 51
262.7036567626821011
  0
ARC
  5
49FC
  8
0
 10
219.2707994076220075
 20
26.8195896633985988
 30
0.0
 40
0.6909054140301949
 50
261.8539775227081918
 51
286.7524572558053251
  0
ARC
  5
49FD
  8
0
 10
219.3337659957493884
 20
26.6364188438882294
 30
0.0
 40
0.4974157342681344
 50
285.8888044765433847
 51
315.0209538383647896
  0
ARC
  5
49FE
  8
0
 10
219.4680582738033081
 20
26.4995980446941992
 30
0.0
 40
0.3057161519156388
 50
315.3691811723454066
 51
342.9893555627069759
  0
ARC
  5
49FF
  8
0
 10
219.5155865180645094
 20
26.4827441337717389
 30
0.0
 40
0.2553462302929998
 50
343.4857459613054971
 51
359.9108815596943032
  0
LINE
  5
4A00
  8
0
 10
219.8551972093511893
 20
38.6764890098785799
 30
0.0
 11
219.5159487622792938
 21
38.6764890128641525
 31
0.0
  0
LINE
  5
4A01
  8
0
 10
219.0259487622793131
 20
39.276489010364152
 30
0.0
 11
219.0259487622793131
 21
38.4840032801641527
 31
0.0
  0
LINE
  5
4A02
  8
0
 10
219.5159487622792938
 20
39.276489010364152
 30
0.0
 11
219.5159487622792938
 21
38.4840032799641421
 31
0.0
  0
ARC
  5
4A03
  8
0
 10
219.0956420411557133
 20
38.4875278586711076
 30
0.0
 40
0.0697823457200135
 50
182.8951367542470052
 51
283.0395493150405173
  0
ARC
  5
4A04
  8
0
 10
219.4472418263372049
 20
38.4862204100605183
 30
0.0
 40
0.0687426993391056
 50
255.9135950037965017
 51
358.1517421854866257
  0
ARC
  5
4A05
  8
0
 10
219.2709485677399925
 20
37.5655712157422172
 30
0.0
 40
0.8687525821128083
 50
79.4164976828509452
 51
100.5834794405322015
  0
ARC
  5
4A06
  8
0
 10
219.2709451747261085
 20
37.6882973922005178
 30
0.0
 40
0.7659955507719914
 50
78.0037883636667431
 51
101.9956167059162055
  0
ARC
  5
4A07
  8
0
 10
219.4472489710771015
 20
38.5042213404156684
 30
0.0
 40
0.0688136511506618
 50
255.6166350451499056
 51
356.7035558627321166
  0
ARC
  5
4A08
  8
0
 10
219.0946466524771097
 20
38.5042202704754999
 30
0.0
 40
0.068811636011076
 50
183.2948393382926042
 51
284.385949325305603
  0
CIRCLE
  5
4A09
  8
0
 10
219.2709487622792892
 20
39.7564890129641526
 30
0.0
 40
0.1002868857953441
  0
CIRCLE
  5
4A0A
  8
0
 10
219.2709487622792892
 20
39.7564890129641526
 30
0.0
 40
0.160000000100001
  0
ARC
  5
4A0B
  8
0
 10
219.2184155796157938
 20
26.3388457704012495
 30
0.0
 40
0.3950223717730153
 50
213.9015216745225132
 51
258.7082051093793211
  0
ARC
  5
4A0C
  8
0
 10
219.2705886539561106
 20
26.5054776352311485
 30
0.0
 40
0.5689464975830921
 50
256.841238964653428
 51
287.1883348610408007
  0
ARC
  5
4A0D
  8
0
 10
219.3250421262382019
 20
26.3489809421725489
 30
0.0
 40
0.4033887696653438
 50
286.3681039968946038
 51
314.1453685458029099
  0
ARC
  5
4A0E
  8
0
 10
219.4213597670714933
 20
26.2475331711989206
 30
0.0
 40
0.2635134630979897
 50
314.4805027334859915
 51
330.9067165096519147
  0
ARC
  5
4A0F
  8
0
 10
219.3911161978790005
 20
26.2543968445130815
 30
0.0
 40
0.2972997940122168
 50
308.2958593958941265
 51
334.4646985517292137
  0
ARC
  5
4A10
  8
0
 10
219.2731448062068011
 20
26.4185876584515391
 30
0.0
 40
0.4993538591710147
 50
273.8150139135472045
 51
307.2440643190739138
  0
ARC
  5
4A11
  8
0
 10
219.259257991178913
 20
26.4712726700199283
 30
0.0
 40
0.5529429745925548
 50
249.6548063108805877
 51
274.8876052519237874
  0
ARC
  5
4A12
  8
0
 10
219.191611803683486
 20
26.3002540824297917
 30
0.0
 40
0.3690957936578463
 50
223.7324666464583913
 51
250.2706477538586114
  0
ARC
  5
4A13
  8
0
 10
219.0980123838509996
 20
26.2103030518538205
 30
0.0
 40
0.2392808951501335
 50
197.7401509877709884
 51
223.6625742404465882
  0
ARC
  5
4A14
  8
0
 10
219.0674066917376024
 20
26.1618646226439502
 30
0.0
 40
0.2062462125411922
 50
184.4324353694188119
 51
207.6560913597741944
  0
ARC
  5
4A15
  8
0
 10
219.1336633404675922
 20
26.2001326119957092
 30
0.0
 40
0.2827130716878496
 50
208.2928639354242932
 51
233.1664042488999939
  0
ARC
  5
4A16
  8
0
 10
219.2334391976646089
 20
26.3406699513933091
 30
0.0
 40
0.4550324769235825
 50
233.7195046461283994
 51
260.5033931330931978
  0
ARC
  5
4A17
  8
0
 10
219.2595329138295028
 20
26.4444244917341713
 30
0.0
 40
0.561736388621817
 50
259.6243702891447924
 51
292.9113231039142988
  0
ARC
  5
4A18
  8
0
 10
219.3347935268936908
 20
26.2751360884721485
 30
0.0
 40
0.3765195122528665
 50
292.391161212688985
 51
320.4917892579975955
  0
ARC
  5
4A19
  8
0
 10
219.4315261130670933
 20
26.1938948927522688
 30
0.0
 40
0.2502049484690679
 50
320.7528702643202791
 51
348.1583830899248255
  0
ARC
  5
4A1A
  8
0
 10
219.4428720774176043
 20
26.1749240176838391
 30
0.0
 40
0.2381272027726067
 50
327.3309426390364933
 51
352.8699938331124031
  0
ARC
  5
4A1B
  8
0
 10
219.364265777661501
 20
26.2287223964321683
 30
0.0
 40
0.3333500195054238
 50
303.4973298085255919
 51
326.8398718343132145
  0
ARC
  5
4A1C
  8
0
 10
219.2677763000243942
 20
26.3877229725535116
 30
0.0
 40
0.5192459516909316
 50
274.5418649888371192
 51
302.6930673885115084
  0
ARC
  5
4A1D
  8
0
 10
219.2603064328284006
 20
26.4299506474566783
 30
0.0
 40
0.5619475162115389
 50
252.9893723934569039
 51
274.9601573421240914
  0
ARC
  5
4A1E
  8
0
 10
219.2131096649931976
 20
26.2869878608738397
 30
0.0
 40
0.4114452084914982
 50
231.1212223057642916
 51
253.4500746748265101
  0
ARC
  5
4A1F
  8
0
 10
219.1250362757569974
 20
26.1786487846678106
 30
0.0
 40
0.2718250077399721
 50
207.2133746372053054
 51
231.239532060258199
  0
ARC
  5
4A20
  8
0
 10
219.0670680929339085
 20
26.1471737215681692
 30
0.0
 40
0.2058849562488644
 50
180.1727224663505922
 51
206.800970897639786
  0
ARC
  5
4A21
  8
0
 10
219.0564974533585882
 20
26.1094611918184114
 30
0.0
 40
0.1952667025336597
 50
174.6065378997554092
 51
202.4726403391659915
  0
ARC
  5
4A22
  8
0
 10
219.1318245280089911
 20
26.1463193372151608
 30
0.0
 40
0.2790120410960402
 50
203.5540960625048115
 51
236.5522702769621048
  0
ARC
  5
4A23
  8
0
 10
219.2450915939566869
 20
26.3196006364319288
 30
0.0
 40
0.4860271689541727
 50
236.6701211163708081
 51
265.2872330430338934
  0
ARC
  5
4A24
  8
0
 10
219.259699292086907
 20
26.4062438142845402
 30
0.0
 40
0.5736258386857827
 50
264.5441129259327795
 51
283.4482297930014738
  0
ARC
  5
4A25
  8
0
 10
219.2949576761739081
 20
26.2878582023670795
 30
0.0
 40
0.4503371071841193
 50
282.5882505367069939
 51
309.9080960829339233
  0
ARC
  5
4A26
  8
0
 10
219.3953731147043129
 20
26.1660180305817605
 30
0.0
 40
0.2924565143661986
 50
310.1317141940066904
 51
333.5907131310409
  0
ARC
  5
4A27
  8
0
 10
219.4506336892503953
 20
26.137234459480549
 30
0.0
 40
0.2301637169802928
 50
333.8896579973995244
 51
353.5719268705777836
  0
ARC
  5
4A28
  8
0
 10
219.4638601740196862
 20
26.1349960243221417
 30
0.0
 40
0.2167710541573225
 50
353.7684664970277026
 51
3.0619449218702068
  0
ARC
  5
4A29
  8
0
 10
219.4731487973187996
 20
26.1185566215480414
 30
0.0
 40
0.2073575699355178
 50
345.3010909808738802
 51
1.8007280459821391
  0
ARC
  5
4A2A
  8
0
 10
219.4246608102295113
 20
26.1327307398411683
 30
0.0
 40
0.2578590427908312
 50
320.2834451560174784
 51
344.9884751672589118
  0
ARC
  5
4A2B
  8
0
 10
219.3384918032556072
 20
26.2075521473225592
 30
0.0
 40
0.3719600224384714
 50
296.6374985198683021
 51
319.899487926596521
  0
ARC
  5
4A2C
  8
0
 10
219.2707955477710016
 20
26.3376238115966501
 30
0.0
 40
0.5185818750533226
 50
278.3998103492041878
 51
296.8799229367630801
  0
ARC
  5
4A2D
  8
0
 10
219.2597655862039119
 20
26.3938830149517401
 30
0.0
 40
0.5758551281087387
 50
262.4047865669448925
 51
278.6677872810790859
  0
ARC
  5
4A2E
  8
0
 10
219.2473037772126077
 20
26.3211589578112886
 30
0.0
 40
0.5021294646465995
 50
244.679401118164094
 51
262.7174690712205916
  0
ARC
  5
4A2F
  8
0
 10
219.1910480128194081
 20
26.2030335958321103
 30
0.0
 40
0.3712930630260058
 50
228.4012999877425045
 51
244.7304813493695974
  0
ARC
  5
4A30
  8
0
 10
219.1136377153387969
 20
26.1199099327693212
 30
0.0
 40
0.2577528436009024
 50
204.910878155156297
 51
229.0019086838784972
  0
ARC
  5
4A31
  8
0
 10
219.0596202394116858
 20
26.0948032577234912
 30
0.0
 40
0.1981858023462206
 50
178.6617792731057932
 51
204.9055997344271134
  0
ARC
  5
4A32
  8
0
 10
219.184146633705609
 20
26.1313150392196789
 30
0.0
 40
0.3244876357765665
 50
207.6907786535003027
 51
250.1371438073321087
  0
ARC
  5
4A33
  8
0
 10
219.2722530738286935
 20
26.3426012774601297
 30
0.0
 40
0.5532509592308534
 50
248.9899979846892109
 51
281.8290990617713874
  0
ARC
  5
4A34
  8
0
 10
219.3103528831902906
 20
26.2236980466412213
 30
0.0
 40
0.4292569982469371
 50
280.104807969039598
 51
313.870454605327609
  0
ARC
  5
4A35
  8
0
 10
219.4354726147687131
 20
26.0909865496368205
 30
0.0
 40
0.2468787602484604
 50
314.2819798040881096
 51
345.8786428983265182
  0
ARC
  5
4A36
  8
0
 10
219.4555789146695872
 20
26.0814945201738304
 30
0.0
 40
0.2251052857143627
 50
346.9731136181521833
 51
5.0835462389015653
  0
ARC
  5
4A38
  8
0
 10
216.7709488410793028
 20
47.733032388364137
 30
0.0
 40
2.0080000000000089
 50
0.0000000000002036
 51
89.9999999999983658
  0
ARC
  5
4A39
  8
0
 10
216.7709488950530954
 20
47.7330325211379574
 30
0.0
 40
2.9919998672261872
 50
359.9999974574265025
 51
90.0000010335799203
  0
ENDSEC
  0
EOF
