  0
SECTION
  2
HEADER
  9
$ACADVER
  1
AC1009
  9
$INSBASE
 10
236.5921681999546138
 20
33.2981205980515966
 30
0.0
  9
$EXTMIN
 10
217.9899801171922888
 20
21.1117802039424589
 30
-0.0015258207003583
  9
$EXTMAX
 10
236.6146521284622963
 20
51.7901604725757281
 30
0.0000000349246037
  9
$LIMMIN
 10
0.0
 20
0.0
  9
$LIMMAX
 10
11.6929133858000007
 20
8.2677165353999982
  9
$ORTHOMODE
 70
     0
  9
$REGENMODE
 70
     1
  9
$FILLMODE
 70
     1
  9
$QTEXTMODE
 70
     0
  9
$MIRRTEXT
 70
     0
  9
$DRAGMODE
 70
     2
  9
$LTSCALE
 40
0.6431102362
  9
$OSMODE
 70
   575
  9
$ATTMODE
 70
     1
  9
$TEXTSIZE
 40
0.2
  9
$TRACEWID
 40
0.05
  9
$TEXTSTYLE
  7
STANDARD
  9
$CLAYER
  8
0
  9
$CELTYPE
  6
BYLAYER
  9
$CECOLOR
 62
   256
  9
$DIMSCALE
 40
1.0
  9
$DIMASZ
 40
0.1875
  9
$DIMEXO
 40
0.0625
  9
$DIMDLI
 40
0.4443307087
  9
$DIMRND
 40
0.0
  9
$DIMDLE
 40
0.0
  9
$DIMEXE
 40
0.125
  9
$DIMTP
 40
0.01
  9
$DIMTM
 40
0.01
  9
$DIMTXT
 40
1.0
  9
$DIMCEN
 40
0.1052362205
  9
$DIMTSZ
 40
0.0
  9
$DIMTOL
 70
     1
  9
$DIMLIM
 70
     0
  9
$DIMTIH
 70
     0
  9
$DIMTOH
 70
     1
  9
$DIMSE1
 70
     0
  9
$DIMSE2
 70
     0
  9
$DIMTAD
 70
     0
  9
$DIMZIN
 70
     0
  9
$DIMBLK
  1

  9
$DIMASO
 70
     1
  9
$DIMSHO
 70
     1
  9
$DIMPOST
  1
\X
  9
$DIMAPOST
  1

  9
$DIMALT
 70
     1
  9
$DIMALTD
 70
     2
  9
$DIMALTF
 40
25.3999999999999986
  9
$DIMLFAC
 40
1.0
  9
$DIMTOFL
 70
     0
  9
$DIMTVP
 40
0.0
  9
$DIMTIX
 70
     0
  9
$DIMSOXD
 70
     0
  9
$DIMSAH
 70
     0
  9
$DIMBLK1
  1

  9
$DIMBLK2
  1

  9
$DIMSTYLE
  2
STANDARD
  9
$DIMCLRD
 70
     0
  9
$DIMCLRE
 70
     0
  9
$DIMCLRT
 70
     0
  9
$DIMTFAC
 40
1.0
  9
$DIMGAP
 40
0.09
  9
$LUNITS
 70
     2
  9
$LUPREC
 70
     4
  9
$SKETCHINC
 40
0.1
  9
$FILLETRAD
 40
0.0
  9
$AUNITS
 70
     0
  9
$AUPREC
 70
     0
  9
$MENU
  1
.
  9
$ELEVATION
 40
0.0
  9
$PELEVATION
 40
0.0
  9
$THICKNESS
 40
0.0
  9
$LIMCHECK
 70
     0
  9
$BLIPMODE
 70
     0
  9
$CHAMFERA
 40
0.0
  9
$CHAMFERB
 40
0.0
  9
$SKPOLY
 70
     0
  9
$TDCREATE
 40
2458172.5207638889551163
  9
$TDUPDATE
 40
2459578.9964583339169621
  9
$TDINDWG
 40
0.2032749421
  9
$TDUSRTIMER
 40
0.2032749421
  9
$USRTIMER
 70
     1
  9
$ANGBASE
 50
0.0
  9
$ANGDIR
 70
     0
  9
$PDMODE
 70
     0
  9
$PDSIZE
 40
0.3125
  9
$PLINEWID
 40
0.0
  9
$COORDS
 70
     1
  9
$SPLFRAME
 70
     0
  9
$SPLINETYPE
 70
     6
  9
$SPLINESEGS
 70
     8
  9
$ATTDIA
 70
     1
  9
$ATTREQ
 70
     1
  9
$HANDLING
 70
     1
  9
$HANDSEED
  5
48A0
  9
$SURFTAB1
 70
     6
  9
$SURFTAB2
 70
     6
  9
$SURFTYPE
 70
     6
  9
$SURFU
 70
     6
  9
$SURFV
 70
     6
  9
$UCSNAME
  2

  9
$UCSORG
 10
0.0
 20
0.0
 30
0.0
  9
$UCSXDIR
 10
1.0
 20
0.0
 30
0.0
  9
$UCSYDIR
 10
0.0
 20
1.0
 30
0.0
  9
$PUCSNAME
  2

  9
$PUCSORG
 10
0.0
 20
0.0
 30
0.0
  9
$PUCSXDIR
 10
1.0
 20
0.0
 30
0.0
  9
$PUCSYDIR
 10
0.0
 20
1.0
 30
0.0
  9
$USERI1
 70
     0
  9
$USERI2
 70
     0
  9
$USERI3
 70
     0
  9
$USERI4
 70
     0
  9
$USERI5
 70
     0
  9
$USERR1
 40
0.0
  9
$USERR2
 40
0.0
  9
$USERR3
 40
0.0
  9
$USERR4
 40
0.0
  9
$USERR5
 40
0.0
  9
$WORLDVIEW
 70
     1
  9
$SHADEDGE
 70
     3
  9
$SHADEDIF
 70
    70
  9
$TILEMODE
 70
     1
  9
$MAXACTVP
 70
    64
  9
$PLIMCHECK
 70
     0
  9
$PEXTMIN
 10
1.0000000000000000E+20
 20
1.0000000000000000E+20
 30
1.0000000000000000E+20
  9
$PEXTMAX
 10
-1.0000000000000000E+20
 20
-1.0000000000000000E+20
 30
-1.0000000000000000E+20
  9
$PLIMMIN
 10
0.0
 20
0.0
  9
$PLIMMAX
 10
12.0
 20
9.0
  9
$UNITMODE
 70
     0
  9
$VISRETAIN
 70
     1
  9
$PLINEGEN
 70
     0
  9
$PSLTSCALE
 70
     1
  0
ENDSEC
  0
SECTION
  2
TABLES
  0
TABLE
  2
VPORT
 70
     1
  0
VPORT
  2
*ACTIVE
 70
     0
 10
0.0
 20
0.0
 11
1.0
 21
1.0
 12
-29.925161994808029
 22
3.9931761648207948
 13
0.0
 23
0.0
 14
1.0
 24
1.0
 15
0.0
 25
0.0
 16
0.0
 26
0.0
 36
52.8911156380141207
 17
257.2274780273438068
 27
32.4577941363292695
 37
0.0
 40
38.4135359268134096
 41
2.5179738562091498
 42
50.0
 43
0.0
 44
0.0
 50
0.0
 51
0.0
 71
     0
 72
   100
 73
     1
 74
     1
 75
     0
 76
     0
 77
     0
 78
     0
  0
ENDTAB
  0
TABLE
  2
LTYPE
 70
     2
  0
LTYPE
  2
CONTINUOUS
 70
     0
  3
Solid line
 72
    65
 73
     0
 40
0.0
  0
LTYPE
  2
PHANTOM2
 70
     0
  3
___ _ _ ___ _ _ ___ _ _ ___ _ _
 72
    65
 73
     6
 40
1.25
 49
0.625
 49
-0.125
 49
0.125
 49
-0.125
 49
0.125
 49
-0.125
  0
ENDTAB
  0
TABLE
  2
LAYER
 70
     2
  0
LAYER
  2
0
 70
     0
 62
   255
  6
CONTINUOUS
  0
LAYER
  2
DEFPOINTS
 70
     0
 62
     7
  6
CONTINUOUS
  0
ENDTAB
  0
TABLE
  2
STYLE
 70
     1
  0
STYLE
  2
STANDARD
 70
     0
 40
0.0
 41
0.8
 50
0.0
 71
     0
 42
0.2
  3
txt
  4

  0
ENDTAB
  0
TABLE
  2
VIEW
 70
     0
  0
ENDTAB
  0
TABLE
  2
UCS
 70
     0
  0
ENDTAB
  0
TABLE
  2
APPID
 70
    10
  0
APPID
  2
ACAD
 70
     0
  0
APPID
  2
ACAD_MLEADERVER
 70
     0
  0
APPID
  2
ACAD_EXEMPT_FROM_CAD_STANDARDS
 70
     0
  0
APPID
  2
ACAD_DSTYLE_DIMJAG
 70
     0
  0
APPID
  2
ACAD_DSTYLE_DIMTALN
 70
     0
  0
APPID
  2
ACAD_NAV_VCDISPLAY
 70
     0
  0
APPID
  2
ACAECLAYERSTANDARD
 70
     0
  0
APPID
  2
ACCMTRANSPARENCY
 70
     0
  0
APPID
  2
DCO15
 70
     0
  0
APPID
  2
ACDBATTR
 70
     0
  0
ENDTAB
  0
TABLE
  2
DIMSTYLE
 70
     1
  0
DIMSTYLE
  2
STANDARD
 70
     0
  3

  4

  5

  6

  7

 40
1.0
 41
0.1875
 42
0.0625
 43
0.38
 44
0.125
 45
0.0
 46
0.0
 47
0.01
 48
0.01
140
0.15625
141
0.09
142
0.0
143
25.3999999999999986
144
1.0
145
0.0
146
1.0
147
0.09
 71
     1
 72
     0
 73
     1
 74
     1
 75
     0
 76
     0
 77
     0
 78
     4
170
     0
171
     2
172
     0
173
     0
174
     0
175
     0
176
     0
177
     0
178
     0
  0
ENDTAB
  0
ENDSEC
  0
SECTION
  2
BLOCKS
  0
BLOCK
  8
0
  2
$MODEL_SPACE
 70
     0
 10
0.0
 20
0.0
 30
0.0
  3
$MODEL_SPACE
  1

  0
ENDBLK
  5
21
  8
0
  0
BLOCK
 67
     1
  8
0
  2
$PAPER_SPACE
 70
     0
 10
0.0
 20
0.0
 30
0.0
  3
$PAPER_SPACE
  1

  0
ENDBLK
  5
1D
 67
     1
  8
0
  0
ENDSEC
  0
SECTION
  2
ENTITIES
  0
ATTDEF
  5
829
  8
DEFPOINTS
 10
236.5920689004067015
 20
33.3015467478693168
 30
0.0
 40
0.001
  1
K-45211
  3

  2
MODELNUMBER
 70
     0
1001
ACDBATTR
1070
     0
1070
     1
  0
ATTDEF
  5
82A
  8
DEFPOINTS
 10
236.5920689004067015
 20
33.2998800812026516
 30
0.0
 40
0.001
  1
HYDRORAIL-R
  3

  2
TRADENAME
 70
     0
1001
ACDBATTR
1070
     0
1070
     1
  0
ATTDEF
  5
82B
  8
DEFPOINTS
 10
236.5920689004067015
 20
33.2982134145359865
 30
0.0
 40
0.001
  1
SHOWER COLUMN 
  3

  2
PRODUCT
 70
     0
1001
ACDBATTR
1070
     0
1070
     1
  0
LINE
  5
46B4
  8
0
 10
217.992168199954591
 20
51.7551148462516011
 30
0.0
 11
217.992168199954591
 21
50.8411263497515904
 31
0.0
  0
LINE
  5
46B5
  8
0
 10
236.0778217443545941
 20
42.9040641652515973
 30
0.0
 11
236.0901596949545933
 21
42.9111874844516024
 31
0.0
  0
LINE
  5
46B6
  8
0
 10
234.5621672100546107
 20
22.5831205980516003
 30
0.0
 11
233.6221681999545865
 21
22.5831205980516003
 31
0.0
  0
LINE
  5
46B7
  8
0
 10
233.6371681999546013
 20
22.5911205980515888
 30
0.0
 11
234.5471681999545979
 21
22.5911205980515888
 31
0.0
  0
LINE
  5
46B8
  8
0
 10
236.1047243697304054
 20
23.6790379694061315
 30
0.0
 11
236.0660323153545903
 21
23.6783625970515992
 31
0.0
  0
LINE
  5
46B9
  8
0
 10
233.1110285807546063
 20
23.8867741209515998
 30
0.0
 11
233.1221681999545865
 21
23.8869685637516014
 31
0.0
  0
LINE
  5
46BA
  8
0
 10
234.5621672969546125
 20
23.2013568184516004
 30
0.0
 11
233.6221681999545865
 21
23.2013568184516004
 31
0.0
  0
LINE
  5
46BB
  8
0
 10
233.5421682037546134
 20
23.2981205980516002
 30
0.0
 11
234.6421681961583943
 21
23.2981205980516002
 31
0.0
  0
LINE
  5
46BC
  8
0
 10
233.1031681999546095
 20
23.8081205980516017
 30
0.0
 11
232.2571681999546058
 21
23.8081205980516017
 31
0.0
  0
LINE
  5
46BD
  8
0
 10
232.2371681999545956
 20
23.8081205980516017
 30
0.0
 11
232.2071681999545945
 21
23.8081205980516017
 31
0.0
  0
LINE
  5
46BE
  8
0
 10
233.1221681999545865
 20
23.8081205980516017
 30
0.0
 11
233.4021682534545903
 21
23.8081205980516017
 31
0.0
  0
LINE
  5
46BF
  8
0
 10
234.7821681318546041
 20
23.8096205980515983
 30
0.0
 11
235.077168199954599
 21
23.8096205980515983
 31
0.0
  0
LINE
  5
46C0
  8
0
 10
236.2679778850545915
 20
22.8037793610515997
 30
0.0
 11
236.5921681999546138
 21
22.7981205980516002
 31
0.0
  0
LINE
  5
46C1
  8
0
 10
235.1164701037546081
 20
23.739434580751599
 30
0.0
 11
235.9071848457546139
 21
23.725632603551599
 31
0.0
  0
LINE
  5
46C2
  8
0
 10
235.1164701037546081
 20
24.8568066152515996
 30
0.0
 11
235.9071848457546139
 21
24.8706085924515996
 31
0.0
  0
LINE
  5
46C3
  8
0
 10
236.2679778850545915
 20
25.7924618350516006
 30
0.0
 11
236.5921681999546138
 21
25.7981205980516002
 31
0.0
  0
LINE
  5
46C4
  8
0
 10
233.1121681999545956
 20
24.6831205980515911
 30
0.0
 11
233.1031681999546095
 21
24.6831205980515911
 31
0.0
  0
LINE
  5
46C5
  8
0
 10
234.7821681321545952
 20
24.7866205980515986
 30
0.0
 11
235.077168199954599
 21
24.7866205980515986
 31
0.0
  0
LINE
  5
46C6
  8
0
 10
233.1031681999546095
 20
24.7881205980515986
 30
0.0
 11
232.8325762732503108
 21
24.7881205980515986
 31
0.0
  0
LINE
  5
46C7
  8
0
 10
232.4125249332113867
 20
24.7881205980515986
 30
0.0
 11
232.2571681999546058
 21
24.7881205980515986
 31
0.0
  0
LINE
  5
46C8
  8
0
 10
232.2371681999545956
 20
24.7881205980515986
 30
0.0
 11
232.2071681999545945
 21
24.7881205980515986
 31
0.0
  0
LINE
  5
46C9
  8
0
 10
233.1221681999545865
 20
24.7881205980515986
 30
0.0
 11
233.4021682510546043
 21
24.7881205980515986
 31
0.0
  0
LINE
  5
46CA
  8
0
 10
234.6421681961570869
 20
25.2981205980516002
 30
0.0
 11
233.5421682037546134
 21
25.2981205980516002
 31
0.0
  0
LINE
  5
46CB
  8
0
 10
236.1047243158787978
 20
24.9172032276370885
 30
0.0
 11
236.0660323153545903
 21
24.9178785989515994
 31
0.0
  0
LINE
  5
46CC
  8
0
 10
233.507919752254594
 20
34.4561097007016031
 30
0.0
 11
233.8471681999546092
 21
34.4561097007016031
 31
0.0
  0
LINE
  5
46CD
  8
0
 10
233.5783201093545927
 20
35.0561097007015974
 30
0.0
 11
234.6060168722632113
 21
35.0561097007015974
 31
0.0
  0
LINE
  5
46CE
  8
0
 10
236.0278217443546112
 20
23.6921770307516013
 30
0.0
 11
236.0401596949546104
 21
23.6850537116516016
 31
0.0
  0
LINE
  5
46CF
  8
0
 10
233.5921681999546138
 20
23.0513568185516
 30
0.0
 11
233.6371681999546013
 21
23.0063568184516001
 31
0.0
  0
LINE
  5
46D0
  8
0
 10
234.6215518789514078
 20
36.0161097007036375
 30
0.0
 11
233.5627849017546112
 21
36.0161097007015911
 31
0.0
  0
LINE
  5
46D1
  8
0
 10
233.4859275104545873
 20
36.2161097007016011
 30
0.0
 11
234.698408651954594
 21
36.2161097007016011
 31
0.0
  0
LINE
  5
46D2
  8
0
 10
233.472925082954589
 20
34.4904988664015875
 30
0.0
 11
233.4471788621546011
 21
35.9667205356016026
 31
0.0
  0
LINE
  5
46D3
  8
0
 10
232.1771681999545933
 20
23.838121804851589
 30
0.0
 11
232.1771681999545933
 21
24.7581193911515989
 31
0.0
  0
LINE
  5
46D4
  8
0
 10
232.2571681999546058
 20
24.7881205980515986
 30
0.0
 11
232.2571681999546058
 21
23.8081205980516017
 31
0.0
  0
LINE
  5
46D5
  8
0
 10
233.1031681999546095
 20
23.8081205980516017
 30
0.0
 11
233.1031681999546095
 21
24.7881205980515986
 31
0.0
  0
LINE
  5
46D6
  8
0
 10
233.1221681999545865
 20
24.7881205980515986
 30
0.0
 11
233.1221681999545865
 21
23.8081205980516017
 31
0.0
  0
LINE
  5
46D7
  8
0
 10
233.492168199954591
 20
23.3481205980516009
 30
0.0
 11
233.492168199954591
 21
23.7181205980515983
 31
0.0
  0
LINE
  5
46D8
  8
0
 10
233.492168199954591
 20
24.8781205980515985
 30
0.0
 11
233.492168199954591
 21
25.2481205980515995
 31
0.0
  0
LINE
  5
46D9
  8
0
 10
233.492168199954591
 20
41.6981205980515881
 30
0.0
 11
233.492168199954591
 21
42.8981205980515981
 31
0.0
  0
LINE
  5
46DA
  8
0
 10
233.4509317011545875
 20
36.1817205349016007
 30
0.0
 11
233.4471788621546011
 21
35.9667205356016026
 31
0.0
  0
LINE
  5
46DB
  8
0
 10
236.0278217443546112
 20
24.9040641652516008
 30
0.0
 11
236.0401596958724895
 21
24.9111874849707888
 31
0.0
  0
LINE
  5
46DC
  8
0
 10
233.5433248594546001
 20
35.0904988665015978
 30
0.0
 11
233.5277898517545907
 21
35.9804988663016019
 31
0.0
  0
LINE
  5
46DD
  8
0
 10
233.7533034729545989
 20
35.0917205348016026
 30
0.0
 11
233.7377684651546019
 21
35.9817205349015978
 31
0.0
  0
LINE
  5
46DE
  8
0
 10
234.7334046988545992
 20
36.1817205349016007
 30
0.0
 11
234.737157537854614
 21
35.9667205356016026
 31
0.0
  0
LINE
  5
46DF
  8
0
 10
233.5921681999546138
 20
21.6801559524515994
 30
0.0
 11
233.5921681999546138
 21
22.5531205980515885
 31
0.0
  0
LINE
  5
46E0
  8
0
 10
233.5921681999546138
 20
23.0513568185516
 30
0.0
 11
233.5921681999546138
 21
23.1713568184515992
 31
0.0
  0
LINE
  5
46E1
  8
0
 10
233.6001681999545951
 20
43.7981205980515966
 30
0.0
 11
233.6001681999545951
 21
42.9481205980515881
 31
0.0
  0
LINE
  5
46E2
  8
0
 10
233.6001681999545951
 20
41.6481205980515981
 30
0.0
 11
233.6001681999545951
 21
36.2161097007016011
 31
0.0
  0
LINE
  5
46E3
  8
0
 10
233.6001681999545951
 20
34.4561097007016031
 30
0.0
 11
233.6001681999545951
 21
25.2981205980516002
 31
0.0
  0
LINE
  5
46E4
  8
0
 10
233.6371681999546013
 20
22.5911205980515888
 30
0.0
 11
233.6371681999546013
 21
23.0063568184516001
 31
0.0
  0
LINE
  5
46E5
  8
0
 10
233.7346681999545979
 20
23.268120598051599
 30
0.0
 11
233.7346681999545979
 21
23.2013568184516004
 31
0.0
  0
LINE
  5
46E6
  8
0
 10
233.7771681999545876
 20
22.5911205980515888
 30
0.0
 11
233.7771681999545876
 21
22.5831205980516003
 31
0.0
  0
LINE
  5
46E7
  8
0
 10
234.4071681999546115
 20
22.5911205980515888
 30
0.0
 11
234.4071681999546115
 21
22.5831205980516003
 31
0.0
  0
LINE
  5
46E8
  8
0
 10
234.4496681999546013
 20
23.268120598051599
 30
0.0
 11
234.4496681999546013
 21
23.2013568184516004
 31
0.0
  0
LINE
  5
46E9
  8
0
 10
234.5471681999545979
 20
23.0063568184516001
 30
0.0
 11
234.5471681999545979
 21
22.5911205980515888
 31
0.0
  0
LINE
  5
46EA
  8
0
 10
234.584168199954604
 20
43.7981205980515966
 30
0.0
 11
234.584168199954604
 21
42.9481205980515881
 31
0.0
  0
LINE
  5
46EB
  8
0
 10
234.584168199954604
 20
41.6481205980515981
 30
0.0
 11
234.584168199954604
 21
36.2161097007016011
 31
0.0
  0
LINE
  5
46EC
  8
0
 10
234.584168199954604
 20
34.4561097010278701
 30
0.0
 11
234.584168199954604
 21
25.2981205980516002
 31
0.0
  0
LINE
  5
46ED
  8
0
 10
234.5921681999546138
 20
21.6801559524515994
 30
0.0
 11
234.5921681999546138
 21
22.5531205980515885
 31
0.0
  0
LINE
  5
46EE
  8
0
 10
234.5921681999546138
 20
23.0513568184515911
 30
0.0
 11
234.5921681999546138
 21
23.1713568184515992
 31
0.0
  0
LINE
  5
46EF
  8
0
 10
234.6921681999546081
 20
23.3481205980516009
 30
0.0
 11
234.6921681999546081
 21
23.7196205980515984
 31
0.0
  0
LINE
  5
46F0
  8
0
 10
234.6921681999546081
 20
24.8766205980515984
 30
0.0
 11
234.6921681999546081
 21
25.2481205980515995
 31
0.0
  0
LINE
  5
46F1
  8
0
 10
234.6921681999546081
 20
41.6981205980515881
 30
0.0
 11
234.6921681999546081
 21
41.7196205980515913
 31
0.0
  0
LINE
  5
46F2
  8
0
 10
234.6921681999546081
 20
42.876620598051602
 30
0.0
 11
234.6921681999546081
 21
42.8981205980515981
 31
0.0
  0
LINE
  5
46F3
  8
0
 10
235.077168199954599
 20
23.7794295454515989
 30
0.0
 11
235.077168199954599
 21
24.8168116505515997
 31
0.0
  0
LINE
  5
46F4
  8
0
 10
235.1271681999546104
 20
41.7794295454515918
 30
0.0
 11
235.1271681999546104
 21
42.8168116505515997
 31
0.0
  0
LINE
  5
46F5
  8
0
 10
234.4465679348546132
 20
35.9817205349015978
 30
0.0
 11
234.4310329270545878
 21
35.0917205348016026
 31
0.0
  0
LINE
  5
46F6
  8
0
 10
234.6410115404545991
 20
35.0904988665015978
 30
0.0
 11
234.656546548254596
 21
35.9804988663016019
 31
0.0
  0
LINE
  5
46F7
  8
0
 10
234.7114113170545977
 20
34.4904988664015875
 30
0.0
 11
234.737157537854614
 21
35.9667205356016026
 31
0.0
  0
LINE
  5
46F8
  8
0
 10
234.5471681999545979
 20
23.0063568184516001
 30
0.0
 11
234.5921681999546138
 21
23.0513568184515911
 31
0.0
  0
LINE
  5
46F9
  8
0
 10
236.1047243150545967
 20
42.9361390543515995
 30
0.0
 11
236.1047243150545967
 21
41.6600889049515928
 31
0.0
  0
LINE
  5
46FA
  8
0
 10
236.1047243150545967
 20
24.9361522910515987
 30
0.0
 11
236.1047243705546066
 21
23.6600878627515883
 31
0.0
  0
LINE
  5
46FB
  8
0
 10
236.1704119704546088
 20
25.7041943363515983
 30
0.0
 11
236.1704119716964954
 21
22.8920468493122797
 31
0.0
  0
LINE
  5
46FC
  8
0
 10
236.5921681999546138
 20
22.7981205980516002
 30
0.0
 11
236.5921681999546138
 21
25.7981205980516002
 31
0.0
  0
LINE
  5
46FD
  8
0
 10
236.5921681999546138
 20
40.7981205980515895
 30
0.0
 11
236.5921681999546138
 21
43.7981205980515966
 31
0.0
  0
LINE
  5
46FE
  8
0
 10
236.2679778847546004
 20
40.8037793610515891
 30
0.0
 11
236.5921681999546138
 21
40.7981205980515895
 31
0.0
  0
LINE
  5
46FF
  8
0
 10
235.166470103754591
 20
42.8568066152515996
 30
0.0
 11
235.9571848457545968
 21
42.8706085924515889
 31
0.0
  0
LINE
  5
4700
  8
0
 10
233.5421682037546134
 20
41.6481205980515981
 30
0.0
 11
234.6421681962546018
 21
41.6481205980515981
 31
0.0
  0
LINE
  5
4701
  8
0
 10
235.1271681999546104
 20
41.8096205980516018
 30
0.0
 11
234.7821681449545963
 21
41.8096205980516018
 31
0.0
  0
LINE
  5
4702
  8
0
 10
235.1271681999546104
 20
42.7866205980515915
 30
0.0
 11
234.782168141754596
 21
42.7866205980515915
 31
0.0
  0
LINE
  5
4703
  8
0
 10
235.166470103754591
 20
41.7394345807515919
 30
0.0
 11
235.9571848457545968
 21
41.7256326035515883
 31
0.0
  0
LINE
  5
4704
  8
0
 10
236.2679778847546004
 20
43.79246183505159
 30
0.0
 11
236.5921681999546138
 21
43.7981205980515966
 31
0.0
  0
LINE
  5
4705
  8
0
 10
234.6421575526545951
 20
42.9481205980515881
 30
0.0
 11
233.5421707195546048
 21
42.9481205980515881
 31
0.0
  0
LINE
  5
4706
  8
0
 10
236.0778217443545941
 20
41.6921770307515871
 30
0.0
 11
236.0901596949545933
 21
41.6850537116515909
 31
0.0
  0
LINE
  5
4707
  8
0
 10
218.0821681999545945
 20
50.8061205980515922
 30
0.0
 11
218.0271681999545876
 21
50.8061205980515922
 31
0.0
  0
LINE
  5
4708
  8
0
 10
218.0921681999546138
 20
50.8061205980515922
 30
0.0
 11
218.3321681999545945
 21
50.8061205980515922
 31
0.0
  0
LINE
  5
4709
  8
0
 10
218.952168199954599
 20
50.8061205980515922
 30
0.0
 11
226.5921681999546138
 21
50.8061205980515922
 31
0.0
  0
LINE
  5
470A
  8
0
 10
218.0821751999662865
 20
51.7901205980515869
 30
0.0
 11
218.0271681999545876
 21
51.7901205980516011
 31
0.0
  0
LINE
  5
470B
  8
0
 10
218.0921681999546138
 20
51.7901205980516011
 30
0.0
 11
226.5921681999546138
 21
51.7901205980516011
 31
0.0
  0
ARC
  5
470C
  8
0
 10
232.2071681999688906
 20
23.8381205980901996
 30
0.0
 40
0.0300000000385969
 50
179.9976952555074092
 51
269.9999999726421152
  0
ARC
  5
470D
  8
0
 10
232.2071681999696011
 20
24.7581205980122583
 30
0.0
 40
0.0300000000393332
 50
90.0000000287550677
 51
180.0023049340859984
  0
ARC
  5
470E
  8
0
 10
232.2371681999545956
 20
24.768120598051599
 30
0.0
 40
0.02
 50
0.0
 51
90.0
  0
ARC
  5
470F
  8
0
 10
232.2371681999545956
 20
23.8281205980516013
 30
0.0
 40
0.02
 50
270.0
 51
0.0
  0
ARC
  5
4710
  8
0
 10
226.5921681999546138
 20
43.7981205980515966
 30
0.0
 40
7.992
 50
0.0
 51
90.0
  0
ARC
  5
4711
  8
0
 10
226.5921681999546138
 20
43.7981205980515966
 30
0.0
 40
7.0079999999999991
 50
0.0
 51
90.0
  0
ARC
  5
4712
  8
0
 10
218.0271682002228033
 20
51.7551205973109276
 30
0.0
 40
0.0350000007406663
 50
90.0000004389943058
 51
180.0094146120528933
  0
ARC
  5
4713
  8
0
 10
218.0271682002131115
 20
50.8411205987825312
 30
0.0
 40
0.0350000007309407
 50
179.9905855357139899
 51
269.9999995769009047
  0
ARC
  5
4714
  8
0
 10
234.3417423711597962
 20
21.6801782556951892
 30
0.0
 40
0.2504258297880166
 50
355.666892490392911
 51
359.9948971648398128
  0
ARC
  5
4715
  8
0
 10
235.9028217443546112
 20
25.1205705162516004
 30
0.0
 40
0.25
 50
271.0000000000001137
 51
299.99999703419968
  0
ARC
  5
4716
  8
0
 10
235.9028217442545952
 20
23.4756706790420786
 30
0.0
 40
0.2500000007111468
 50
60.0000000676238372
 51
88.9999999799148185
  0
ARC
  5
4717
  8
0
 10
236.2697231257546093
 20
22.9037641305516004
 30
0.0
 40
0.1
 50
186.7289654660997087
 51
268.9999997804001168
  0
ARC
  5
4718
  8
0
 10
236.0651596949545876
 20
24.8678862142516017
 30
0.0
 40
0.05
 50
89.000000148199419
 51
119.9999987854006065
  0
ARC
  5
4719
  8
0
 10
236.0651596949545876
 20
23.7283549817516004
 30
0.0
 40
0.05
 50
240.0000012145993935
 51
270.9999998518006237
  0
ARC
  5
471A
  8
0
 10
233.5421681999546024
 20
23.3481205980516009
 30
0.0
 40
0.05
 50
180.0
 51
270.0000043500999141
  0
ARC
  5
471B
  8
0
 10
234.6421681999545967
 20
23.3481205980516009
 30
0.0
 40
0.05
 50
269.9999956499000859
 51
0.0
  0
ARC
  5
471C
  8
0
 10
235.1171681999634018
 20
24.816812707429019
 30
0.0
 40
0.0400000000227241
 50
91.0000001530727758
 51
180.0015138653978966
  0
ARC
  5
471D
  8
0
 10
235.117168199963686
 20
23.7794284885744709
 30
0.0
 40
0.0400000000230352
 50
179.9984861350343976
 51
268.9999998464875262
  0
ARC
  5
471E
  8
0
 10
234.5621681999332111
 20
23.1713568184438188
 30
0.0
 40
0.0300000000213672
 50
0.0000000148595515
 51
90.0017245621566246
  0
ARC
  5
471F
  8
0
 10
233.6221681999545865
 20
23.1713568184515992
 30
0.0
 40
0.03
 50
90.0
 51
180.0
  0
ARC
  5
4720
  8
0
 10
234.562168199928692
 20
22.5531205980419713
 30
0.0
 40
0.0300000000259502
 50
0.0000000183843185
 51
90.0018905201820445
  0
ARC
  5
4721
  8
0
 10
233.6221681999545865
 20
22.5531205980515885
 30
0.0
 40
0.03
 50
90.0
 51
180.0
  0
ARC
  5
4722
  8
0
 10
233.7046681999545967
 20
23.268120598051599
 30
0.0
 40
0.03
 50
0.0
 51
90.0
  0
ARC
  5
4723
  8
0
 10
234.4796681999546024
 20
23.268120598051599
 30
0.0
 40
0.03
 50
90.0
 51
180.0
  0
ARC
  5
4724
  8
0
 10
233.1121681999545956
 20
24.6731205980516002
 30
0.0
 40
0.01
 50
0.0
 51
90.0
  0
ARC
  5
4725
  8
0
 10
233.1111681999545908
 20
23.8787753393515985
 30
0.0
 40
0.008
 50
91.0000000000001563
 51
180.0
  0
ARC
  5
4726
  8
0
 10
233.5421681999546024
 20
25.2481205980515995
 30
0.0
 40
0.05
 50
89.9999956484002865
 51
180.0
  0
ARC
  5
4727
  8
0
 10
234.6421681999545967
 20
25.2481205980515995
 30
0.0
 40
0.05
 50
0.0
 51
90.0000043515996992
  0
ARC
  5
4728
  8
0
 10
233.5783195288622949
 20
35.0911097007045214
 30
0.0
 40
0.0350000000077373
 50
181.0000000045673971
 51
270.000950278842879
  0
ARC
  5
4729
  8
0
 10
233.7183088035546064
 20
35.0911097007015869
 30
0.0
 40
0.035
 50
270.0
 51
0.9999999127000174
  0
ARC
  5
472A
  8
0
 10
233.507919752254594
 20
34.4911097007015996
 30
0.0
 40
0.035
 50
181.0000004758998955
 51
270.0
  0
ARC
  5
472B
  8
0
 10
233.702773795854597
 20
35.9811097007015874
 30
0.0
 40
0.035
 50
1.0000000852000941
 51
90.0000000001156337
  0
ARC
  5
472C
  8
0
 10
233.5627845210578073
 20
35.9811097007005003
 30
0.0
 40
0.0350000000031684
 50
89.9993767908297713
 51
180.99999999811061
  0
ARC
  5
472D
  8
0
 10
233.4859263704838952
 20
36.1811097006906479
 30
0.0
 40
0.0350000000295126
 50
89.9981338426347861
 51
178.9999997869192896
  0
ARC
  5
472E
  8
0
 10
234.6060168711545941
 20
35.0911097007015869
 30
0.0
 40
0.035
 50
270.000001814799873
 51
358.9999999999997726
  0
ARC
  5
472F
  8
0
 10
234.4660275964546088
 20
35.0911097007015869
 30
0.0
 40
0.035
 50
179.0000001219999035
 51
270.0
  0
ARC
  5
4730
  8
0
 10
234.6764166470264001
 20
34.4911097009483925
 30
0.0
 40
0.0350000007323592
 50
269.9999999999885745
 51
358.9999991409630979
  0
ARC
  5
4731
  8
0
 10
234.6215518789514078
 20
35.981109700700479
 30
0.0
 40
0.0350000000031626
 50
359.0000000019213076
 51
90.0
  0
ARC
  5
4732
  8
0
 10
234.4815626042546057
 20
35.9811097007015874
 30
0.0
 40
0.035
 50
90.0000000001156337
 51
178.9999999415001071
  0
ARC
  5
4733
  8
0
 10
234.6984100295285884
 20
36.1811097007341687
 30
0.0
 40
0.034999999994549
 50
0.9999999053918815
 51
90.0022551192765548
  0
ARC
  5
4734
  8
0
 10
236.2697231257762098
 20
25.6924770653968011
 30
0.0
 40
0.1000000000551666
 50
91.0000002314600636
 51
173.2710404366569037
  0
ARC
  5
4735
  8
0
 10
248.0877504586545967
 20
24.2981205980516002
 30
0.0
 40
12.0
 50
173.2710345837001
 51
176.952185898200014
  0
ARC
  5
4736
  8
0
 10
248.0877505703992085
 20
24.2981206088023391
 30
0.0
 40
12.0000001121331206
 50
183.0478191080154033
 51
186.7289654549151976
  0
ARC
  5
4737
  8
0
 10
248.0870718411283917
 20
42.2981896319526101
 30
0.0
 40
11.9993179681657498
 50
173.2709672243422006
 51
176.9524058915347098
  0
ARC
  5
4738
  8
0
 10
248.0877504586545967
 20
42.2981205980515895
 30
0.0
 40
12.0
 50
183.0478141017997871
 51
186.7289804578998087
  0
ARC
  5
4739
  8
0
 10
235.9528217442515938
 20
43.1205705169715898
 30
0.0
 40
0.2500000007216887
 50
271.0000000207122071
 51
299.9999999317537913
  0
ARC
  5
473A
  8
0
 10
235.9528217442532139
 20
41.4756706790370728
 30
0.0
 40
0.2500000007161764
 50
60.0000000679189469
 51
88.9999999796135057
  0
ARC
  5
473B
  8
0
 10
236.2697231257546093
 20
43.6924770654515768
 30
0.0
 40
0.1000000000000055
 50
91.0000002196097313
 51
173.2692358439377927
  0
ARC
  5
473C
  8
0
 10
236.2697231258059105
 20
40.9037641306811821
 30
0.0
 40
0.1000000001304715
 50
186.7307645390046957
 51
268.9999997523426032
  0
ARC
  5
473D
  8
0
 10
236.115159694954599
 20
42.8678862142515911
 30
0.0
 40
0.05
 50
102.0466249383190984
 51
119.9999987854006065
  0
ARC
  5
473E
  8
0
 10
236.115159694954599
 20
41.7283549817515933
 30
0.0
 40
0.05
 50
240.0000012145993935
 51
257.9533750616809016
  0
ARC
  5
473F
  8
0
 10
233.5421682000570911
 20
42.8981205980126319
 30
0.0
 40
0.0500000001024491
 50
89.9971128685002526
 51
179.9999999553398879
  0
ARC
  5
4740
  8
0
 10
234.6421681999545967
 20
41.6981205980515881
 30
0.0
 40
0.05
 50
269.9999956617991188
 51
0.0
  0
ARC
  5
4741
  8
0
 10
233.5421681999546024
 20
41.6981205980515881
 30
0.0
 40
0.05
 50
180.0
 51
270.0000043381991759
  0
ARC
  5
4742
  8
0
 10
234.6421681980201015
 20
42.8981205972502835
 30
0.0
 40
0.0500000019345493
 50
0.0000009182347876
 51
90.0121986898363389
  0
ARC
  5
4743
  8
0
 10
235.1671681999632995
 20
42.816812707429051
 30
0.0
 40
0.0400000000226978
 50
91.0000001530320759
 51
180.0015138654347027
  0
ARC
  5
4744
  8
0
 10
235.16716819996239
 20
41.7794284885732168
 30
0.0
 40
0.0400000000217704
 50
179.9984861332544881
 51
268.9999998482675778
  0
ARC
  5
4745
  8
0
 10
234.7822020812554911
 20
41.7195867167714525
 30
0.0
 40
0.0900338876759274
 50
90.0215963889742596
 51
179.978438625134487
  0
ARC
  5
4746
  8
0
 10
234.7822017650595967
 20
42.876654163134873
 30
0.0
 40
0.0900335713616422
 50
180.0213602921195104
 51
269.9786027202636092
  0
ARC
  5
4747
  8
0
 10
234.7787049894523932
 20
24.8731573901583403
 30
0.0
 40
0.0866060606741824
 50
177.7082421862371007
 51
272.2917146509278155
  0
ARC
  5
4748
  8
0
 10
234.7787049894523932
 20
23.7230838058448583
 30
0.0
 40
0.0866060606741824
 50
87.7082853490722698
 51
182.2917578137625867
  0
ARC
  5
4749
  8
0
 10
233.4079225060164049
 20
24.8723662952569597
 30
0.0
 40
0.0844419856930357
 50
266.0925809483862849
 51
3.9074515828926821
  0
ARC
  5
474A
  8
0
 10
233.4056314096308995
 20
23.7215838056691908
 30
0.0
 40
0.0866060614884299
 50
357.7082423903179915
 51
92.2917235505094311
  0
LINE
  5
474B
  8
0
 10
232.5321696122545916
 20
25.6981206029516009
 30
0.0
 11
232.7121681999545899
 21
25.6981206029516009
 31
0.0
  0
LINE
  5
474C
  8
0
 10
232.4721681999546092
 20
25.6381206029515987
 30
0.0
 11
232.4721681999546092
 21
24.8481204064515993
 31
0.0
  0
LINE
  5
474D
  8
0
 10
232.7721681999545922
 20
25.6381206029515987
 30
0.0
 11
232.7721681999545922
 21
24.8481203999516005
 31
0.0
  0
ARC
  5
474E
  8
0
 10
232.8321924388010018
 20
24.8481436141295688
 30
0.0
 40
0.0600242433353492
 50
180.0221589541459082
 51
270.3663893560661791
  0
ARC
  5
474F
  8
0
 10
232.4121441059951962
 20
24.8481434883439398
 30
0.0
 40
0.060024098397355
 50
270.363519639368576
 51
359.9779672651117721
  0
ARC
  5
4750
  8
0
 10
232.7121681999545899
 20
25.6381206029515987
 30
0.0
 40
0.06
 50
0.0
 51
90.0
  0
ARC
  5
4751
  8
0
 10
232.5321681999797079
 20
25.6381206029431397
 30
0.0
 40
0.060000000025085
 50
89.9986513767866825
 51
179.9999999919170079
  0
LINE
  5
4752
  8
0
 10
218.3441681999545949
 20
50.815552548418232
 30
0.0
 11
218.3441681999545949
 21
50.8081206005016028
 31
0.0
  0
LINE
  5
4753
  8
0
 10
218.9401681999545985
 20
50.8155525484182178
 30
0.0
 11
218.9401681999545985
 21
50.8081206005016028
 31
0.0
  0
LINE
  5
4754
  8
0
 10
219.0621681999546126
 20
50.6881206005015912
 30
0.0
 11
219.0621681999546126
 21
50.6761206005015907
 31
0.0
  0
ARC
  5
4755
  8
0
 10
218.2241405352847892
 20
50.8081320595826185
 30
0.0
 40
0.1200276652168606
 50
269.058453929616519
 51
359.9945299529113072
  0
ARC
  5
4756
  8
0
 10
219.0601958646244896
 20
50.8081320595826185
 30
0.0
 40
0.1200276652168561
 50
179.9945300498339975
 51
269.0584539294991941
  0
LINE
  5
4757
  8
0
 10
219.0621681999546126
 20
50.6761206005015907
 30
0.0
 11
219.0617204513546028
 21
50.6755563290015871
 31
0.0
  0
LINE
  5
4758
  8
0
 10
219.0617204513546028
 20
50.6755563290015871
 30
0.0
 11
219.004590364057691
 21
50.6448875890209322
 31
0.0
  0
LINE
  5
4759
  8
0
 10
219.004590364057691
 20
50.6448875890209322
 30
0.0
 11
219.0597537204546086
 21
50.6106512705015916
 31
0.0
  0
LINE
  5
475A
  8
0
 10
219.0595512420545958
 20
50.6085022533016016
 30
0.0
 11
219.0024392727175098
 21
50.5778664527999311
 31
0.0
  0
LINE
  5
475B
  8
0
 10
219.0024392727175098
 20
50.5778664527999311
 30
0.0
 11
219.0576590132546073
 21
50.5436442524015987
 31
0.0
  0
LINE
  5
475C
  8
0
 10
219.0574560017545878
 20
50.5415176814016007
 30
0.0
 11
219.0002813460334039
 21
50.5108807798986277
 31
0.0
  0
LINE
  5
475D
  8
0
 10
219.0002813460334039
 20
50.5108807798986277
 30
0.0
 11
219.0555164423545875
 21
50.4766675021015985
 31
0.0
  0
LINE
  5
475E
  8
0
 10
219.0553491133545947
 20
50.4745178202015978
 30
0.0
 11
218.9981770489540907
 21
50.4438822656296608
 31
0.0
  0
LINE
  5
475F
  8
0
 10
218.9981770489540907
 20
50.4438822656296608
 30
0.0
 11
219.0534042758546036
 21
50.4096715450016006
 31
0.0
  0
LINE
  5
4760
  8
0
 10
219.053281187254612
 20
50.4075488617015992
 30
0.0
 11
218.9961180540246914
 21
50.3768997039955408
 31
0.0
  0
LINE
  5
4761
  8
0
 10
218.9961180540246914
 20
50.3768997039955408
 30
0.0
 11
219.0512747846545949
 21
50.3426861045015883
 31
0.0
  0
LINE
  5
4762
  8
0
 10
219.0511686383545964
 20
50.3405330720015982
 30
0.0
 11
218.9940671660885982
 21
50.3098847731670418
 31
0.0
  0
LINE
  5
4763
  8
0
 10
218.9940671660831129
 20
50.3098847731641214
 30
0.0
 11
219.0378705366545944
 21
50.2826945073015992
 31
0.0
  0
LINE
  5
4764
  8
0
 10
219.0379541778546013
 20
50.2824065784015986
 30
0.0
 11
218.9936681999546124
 21
50.2381206005016026
 31
0.0
  0
LINE
  5
4765
  8
0
 10
218.9936681999546124
 20
50.2381206005016026
 30
0.0
 11
218.2906681999546095
 21
50.2381206005016026
 31
0.0
  0
LINE
  5
4766
  8
0
 10
218.2906681999546095
 20
50.2381206005016026
 30
0.0
 11
218.2674637034546095
 21
50.2613250970016026
 31
0.0
  0
LINE
  5
4767
  8
0
 10
218.2674637034546095
 20
50.2613250970016026
 30
0.0
 11
218.2675730866546076
 21
50.261652655301603
 31
0.0
  0
LINE
  5
4768
  8
0
 10
218.2675730866546076
 20
50.261652655301603
 30
0.0
 11
218.2916035529952126
 21
50.2765173999977293
 31
0.0
  0
LINE
  5
4769
  8
0
 10
218.2916035529952126
 20
50.2765173999977293
 30
0.0
 11
218.2337621513026988
 21
50.3075295658757966
 31
0.0
  0
LINE
  5
476A
  8
0
 10
218.2340762847545932
 20
50.3091627214015986
 30
0.0
 11
218.2893009624546039
 21
50.3433713679015966
 31
0.0
  0
LINE
  5
476B
  8
0
 10
218.2893009624546039
 20
50.3433713679015966
 30
0.0
 11
218.2321659422545963
 21
50.3740541883015993
 31
0.0
  0
LINE
  5
476C
  8
0
 10
218.2319481379545891
 20
50.3761484234016024
 30
0.0
 11
218.2871267704545915
 21
50.4103700578016003
 31
0.0
  0
LINE
  5
476D
  8
0
 10
218.2871267704545915
 20
50.4103700578016003
 30
0.0
 11
218.2300375756545918
 21
50.4410182288015889
 31
0.0
  0
LINE
  5
476E
  8
0
 10
218.2298407831546001
 20
50.443122163801597
 30
0.0
 11
218.2850175104458117
 21
50.4773721320765034
 31
0.0
  0
LINE
  5
476F
  8
0
 10
218.2850175104458117
 20
50.4773721320765034
 30
0.0
 11
218.2279217116546022
 21
50.5080239811016014
 31
0.0
  0
LINE
  5
4770
  8
0
 10
218.2277782859545994
 20
50.5101850437015898
 30
0.0
 11
218.2829242198897077
 21
50.5443993089880976
 31
0.0
  0
LINE
  5
4771
  8
0
 10
218.2829242198897077
 20
50.5443993089880976
 30
0.0
 11
218.2257719139545884
 21
50.5750482687016003
 31
0.0
  0
LINE
  5
4772
  8
0
 10
218.225673288054594
 20
50.5771745521015887
 30
0.0
 11
218.280890088408114
 21
50.6113924650824316
 31
0.0
  0
LINE
  5
4773
  8
0
 10
218.280890088408114
 20
50.6113924650824316
 30
0.0
 11
218.2236909209545956
 21
50.6420349602015989
 31
0.0
  0
LINE
  5
4774
  8
0
 10
218.2236909209545956
 20
50.6420349602015989
 30
0.0
 11
218.2232247987400058
 21
50.6425295663650488
 31
0.0
  0
LINE
  5
4775
  8
0
 10
218.2232247987400058
 20
50.6425295663650488
 30
0.0
 11
218.2221681999546092
 21
50.6761206005015907
 31
0.0
  0
LINE
  5
4776
  8
0
 10
218.2221681999546092
 20
50.6761206005015907
 30
0.0
 11
218.2221681999542966
 21
50.6881206005015912
 31
0.0
  0
ARC
  5
4777
  8
0
 10
204.2333800808189892
 20
361.9587662609811218
 30
0.0
 40
311.6641136015123266
 50
272.5833445969690843
 51
272.716530828141515
  0
ARC
  5
4778
  8
0
 10
220.7916001257522112
 20
4.3612202138949634
 30
0.0
 40
46.2512646976285566
 50
92.2169545030174334
 51
93.1092579775738756
  0
ARC
  5
4779
  8
0
 10
259.8997176042215074
 20
-830.1647704744947305
 30
0.0
 40
881.6248445901396735
 50
92.6589614010133857
 51
92.7054965543026981
  0
ARC
  5
477A
  8
0
 10
222.9357347083762022
 20
-40.6619997858382192
 30
0.0
 40
91.190932140740955
 50
92.474759211657144
 51
92.9220131805817147
  0
ARC
  5
477B
  8
0
 10
212.4477532326424978
 20
180.9571614323180029
 30
0.0
 40
130.744352975075401
 50
272.5607797060641815
 51
272.8708751091004956
  0
ARC
  5
477C
  8
0
 10
362.0254818420194738
 20
-2968.2570276241867759
 30
0.0
 40
3021.9537041795128971
 50
92.7128672603787578
 51
92.7262008798526978
  0
ARC
  5
477D
  8
0
 10
200.6327922059861919
 20
719.169441036143553
 30
0.0
 40
669.1402056765706448
 50
271.5101700776805274
 51
271.5761586425675773
  0
ARC
  5
477E
  8
0
 10
212.6586649917339003
 20
196.4249316164078039
 30
0.0
 40
146.2231307655422938
 50
272.1850572669293911
 51
272.505811878551583
  0
ARC
  5
477F
  8
0
 10
193.6850014097014139
 20
665.0539043631204095
 30
0.0
 40
615.1685935268925505
 50
272.2868394970072927
 51
272.3634736436395087
  0
ARC
  5
4780
  8
0
 10
214.8860581845866022
 20
143.1225313908659018
 30
0.0
 40
92.7406994733699293
 50
272.0660644984575924
 51
272.5769991333141888
  0
ARC
  5
4781
  8
0
 10
200.8950823986733951
 20
490.5330742453335233
 30
0.0
 40
440.3651777192854979
 50
272.2556879789955246
 51
272.3638381893699147
  0
ARC
  5
4782
  8
0
 10
212.988522776234106
 20
191.8576302849949968
 30
0.0
 40
141.3784425006629988
 50
272.1227742149887945
 51
272.4613471112955949
  0
ARC
  5
4783
  8
0
 10
198.9157152861072859
 20
543.3449750348695488
 30
0.0
 40
493.0806016207515086
 50
272.2440990217323815
 51
272.341662051078913
  0
LINE
  5
4784
  8
0
 10
218.2221681999542966
 20
50.6881206005015912
 30
0.0
 11
219.0621681999548969
 21
50.6881206005015983
 31
0.0
  0
ARC
  5
4785
  8
0
 10
219.0375060691922897
 20
50.282432519197009
 30
0.0
 40
0.0004488588842693
 50
356.6868724826719017
 51
35.7095020335892102
  0
ARC
  5
4786
  8
0
 10
219.0500656582754004
 20
50.3416665826410821
 30
0.0
 40
0.0015815850988668
 50
314.217898117380912
 51
40.1372128171421423
  0
ARC
  5
4787
  8
0
 10
219.0521728736017053
 20
50.408678040215257
 30
0.0
 40
0.0015822146721729
 50
314.4657260340928815
 51
38.8968556449479692
  0
ARC
  5
4788
  8
0
 10
219.054286774315301
 20
50.4756818648734296
 30
0.0
 40
0.0015759328134765
 50
312.3844333418173278
 51
38.7138283632709701
  0
ARC
  5
4789
  8
0
 10
219.0563679010575981
 20
50.5426945317857275
 30
0.0
 40
0.0016027913006782
 50
312.756074080412418
 51
36.3375802256189431
  0
ARC
  5
478A
  8
0
 10
219.0584816436976894
 20
50.609687077126253
 30
0.0
 40
0.0015961980267473
 50
312.074109165404991
 51
37.1609600272456433
  0
ARC
  5
478B
  8
0
 10
218.2268937317014945
 20
50.5761657323320719
 30
0.0
 40
0.0015834140401748
 50
140.4228351247539024
 51
224.8885927501274011
  0
ARC
  5
478C
  8
0
 10
218.2290053994381083
 20
50.5091811941898214
 30
0.0
 40
0.0015854088884277
 50
140.7148566401021128
 51
226.8792348103997938
  0
ARC
  5
478D
  8
0
 10
218.2311036835527887
 20
50.4421791187172488
 30
0.0
 40
0.0015761508325179
 50
143.2502147270299986
 51
227.437063078132212
  0
ARC
  5
478E
  8
0
 10
218.2331645891798928
 20
50.3752164929913206
 30
0.0
 40
0.0015323993843346
 50
142.5440629713772012
 51
229.3309776154185897
  0
ARC
  5
478F
  8
0
 10
218.2362241174513997
 20
50.3079028018990613
 30
0.0
 40
0.002490096874919
 50
149.6040973228579105
 51
188.6204449633484046
  0
ARC
  5
4790
  8
0
 10
218.6421681999545967
 20
50.4240660901217765
 30
0.0
 40
0.4920016738076135
 50
50.9440371438584023
 51
129.0559628561412921
  0
ARC
  5
4791
  8
0
 10
218.0821681999545945
 20
50.8161206005016126
 30
0.0
 40
0.0100000000000158
 50
270.0000000000603109
 51
0.0
  0
ARC
  5
4792
  8
0
 10
218.0821681999545945
 20
51.7801206005015899
 30
0.0
 40
0.0100000000000084
 50
0.0
 51
89.959892859872852
  0
LINE
  5
4793
  8
0
 10
218.0921681999546138
 20
51.7901206005015879
 30
0.0
 11
218.0921681999546138
 21
50.8061205980515922
 31
0.0
  0
ARC
  5
4794
  8
0
 10
236.3223802080671874
 20
41.6217700477761028
 30
0.0
 40
2.0572411367948642
 50
142.4128358123332987
 51
153.9021209228583018
  0
ARC
  5
4795
  8
0
 10
236.0711346521476059
 20
42.8074988743538611
 30
0.0
 40
1.7564246697265571
 50
202.5535777771789014
 51
218.2702066338312079
  0
ARC
  5
4796
  8
0
 10
234.9087112331351079
 20
42.3009066036852772
 30
0.0
 40
0.4890951094940866
 50
152.4977514684480013
 51
199.9749569819753958
  0
LINE
  5
4797
  8
0
 10
236.1704123395867043
 20
40.8920437310873695
 30
0.0
 11
236.1704123395867043
 21
43.7041974643663593
 31
0.0
  0
ARC
  5
4798
  8
0
 10
234.0922039219580881
 20
21.9751216883427887
 30
0.0
 40
0.6573059215118641
 50
241.8571279716327922
 51
298.2393753154896103
  0
ARC
  5
4799
  8
0
 10
234.2028690383131107
 20
21.7583823803271308
 30
0.0
 40
0.414032250650302
 50
298.9393409238026038
 51
322.0959577480147118
  0
ARC
  5
479A
  8
0
 10
234.3008369875198866
 20
21.6848608217585515
 30
0.0
 40
0.2915723553620571
 50
321.668708068935814
 51
355.3566904894632899
  0
ARC
  5
479B
  8
0
 10
233.9636336656949993
 20
21.7367607202306985
 30
0.0
 40
0.3864835564175094
 50
208.9466695834586858
 51
241.9967465393129942
  0
ARC
  5
479C
  8
0
 10
233.8692318334811091
 20
21.6813400500708084
 30
0.0
 40
0.2770661637664881
 50
180.2448652023686861
 51
208.3661969852736036
  0
ARC
  5
479D
  8
0
 10
233.8981647666236086
 20
21.8202419351541117
 30
0.0
 40
0.3062644476648121
 50
182.3965801098850932
 51
235.0349032159031992
  0
ARC
  5
479E
  8
0
 10
234.0683332226759035
 20
22.0402342564885387
 30
0.0
 40
0.5842213758534883
 50
233.7225198223044913
 51
262.7036567626838064
  0
ARC
  5
479F
  8
0
 10
234.0920351680985902
 20
22.1446778730860494
 30
0.0
 40
0.6909054140301949
 50
261.8539775227081918
 51
286.7524572558053251
  0
ARC
  5
47A0
  8
0
 10
234.1550017562259995
 20
21.96150705357568
 30
0.0
 40
0.4974157342681344
 50
285.8888044765433847
 51
315.0209538383647896
  0
ARC
  5
47A1
  8
0
 10
234.2892940342798909
 20
21.8246862543816498
 30
0.0
 40
0.3057161519156388
 50
315.3691811723451792
 51
342.9893555627069759
  0
ARC
  5
47A2
  8
0
 10
234.3368222785410921
 20
21.8078323434592001
 30
0.0
 40
0.2553462302929998
 50
343.4857459613057244
 51
359.9108815596943032
  0
LINE
  5
47A3
  8
0
 10
234.6764166470264001
 20
34.4561097002160324
 30
0.0
 11
234.3371681999545899
 21
34.4561097032015979
 31
0.0
  0
LINE
  5
47A4
  8
0
 10
233.8471681999546092
 20
35.0561097007015974
 30
0.0
 11
233.8471681999546092
 21
34.2636239705015981
 31
0.0
  0
LINE
  5
47A5
  8
0
 10
234.3371681999545899
 20
35.0561097007015974
 30
0.0
 11
234.3371681999545899
 21
34.2636239703015875
 31
0.0
  0
ARC
  5
47A6
  8
0
 10
233.9168614788308957
 20
34.2671485490085601
 30
0.0
 40
0.0697823457200135
 50
182.8951367542470052
 51
283.0395493150422226
  0
ARC
  5
47A7
  8
0
 10
234.268461264012501
 20
34.2658411003979779
 30
0.0
 40
0.0687426993391056
 50
255.913595003796587
 51
358.1517421854866257
  0
ARC
  5
47A8
  8
0
 10
234.0921680054152887
 20
33.3451919060796698
 30
0.0
 40
0.8687525821128083
 50
79.4164976828509452
 51
100.5834794405322015
  0
ARC
  5
47A9
  8
0
 10
234.0921646124014046
 20
33.4679180825379774
 30
0.0
 40
0.7659955507719914
 50
78.0037883636667431
 51
101.9956167059162055
  0
ARC
  5
47AA
  8
0
 10
234.2684684087523976
 20
34.2838420307531209
 30
0.0
 40
0.0688136511506618
 50
255.6166350451499056
 51
356.7035558627321166
  0
ARC
  5
47AB
  8
0
 10
233.9158660901524058
 20
34.2838409608129524
 30
0.0
 40
0.068811636011076
 50
183.2948393382926042
 51
284.3859493253073083
  0
CIRCLE
  5
47AC
  8
0
 10
234.0921681999546138
 20
35.536109703301598
 30
0.0
 40
0.1002868857953441
  0
CIRCLE
  5
47AD
  8
0
 10
234.0921681999546138
 20
35.536109703301598
 30
0.0
 40
0.160000000100001
  0
ARC
  5
47AE
  8
0
 10
234.039651340092405
 20
21.6639339800887001
 30
0.0
 40
0.3950223717730153
 50
213.9015216745225132
 51
258.7082051093793211
  0
ARC
  5
47AF
  8
0
 10
234.0918244144326934
 20
21.8305658449185991
 30
0.0
 40
0.5689464975830921
 50
256.841238964653428
 51
287.1883348610408007
  0
ARC
  5
47B0
  8
0
 10
234.1462778867148131
 20
21.6740691518599995
 30
0.0
 40
0.4033887696653438
 50
286.3681039968946038
 51
314.1453685458030236
  0
ARC
  5
47B1
  8
0
 10
234.2425955275481044
 20
21.5726213808863712
 30
0.0
 40
0.2635134630979897
 50
314.4805027334862189
 51
330.9067165096519716
  0
ARC
  5
47B2
  8
0
 10
234.2123519583556117
 20
21.5794850542005285
 30
0.0
 40
0.2972997940122168
 50
308.295859395894297
 51
334.4646985517296116
  0
ARC
  5
47B3
  8
0
 10
234.0943805666834123
 20
21.7436758681389897
 30
0.0
 40
0.4993538591710147
 50
273.8150139135472045
 51
307.2440643190740843
  0
ARC
  5
47B4
  8
0
 10
234.0804937516554958
 20
21.7963608797073789
 30
0.0
 40
0.5529429745925548
 50
249.6548063108820941
 51
274.8876052519237874
  0
ARC
  5
47B5
  8
0
 10
234.0128475641600971
 20
21.6253422921172387
 30
0.0
 40
0.3690957936578463
 50
223.7324666464585903
 51
250.2706477538586114
  0
ARC
  5
47B6
  8
0
 10
233.9192481443276108
 20
21.5353912615412817
 30
0.0
 40
0.2392808951501335
 50
197.7401509877709884
 51
223.6625742404467871
  0
ARC
  5
47B7
  8
0
 10
233.8886424522140999
 20
21.4869528323314114
 30
0.0
 40
0.2062462125411922
 50
184.4324353694188119
 51
207.6560913597739955
  0
ARC
  5
47B8
  8
0
 10
233.9548991009442034
 20
21.5252208216831491
 30
0.0
 40
0.2827130716878496
 50
208.2928639354242932
 51
233.1664042488999939
  0
ARC
  5
47B9
  8
0
 10
234.0546749581411063
 20
21.6657581610807597
 30
0.0
 40
0.4550324769235825
 50
233.7195046461283994
 51
260.5033931330916062
  0
ARC
  5
47BA
  8
0
 10
234.0807686743060003
 20
21.769512701421629
 30
0.0
 40
0.561736388621817
 50
259.6243702891447924
 51
292.9113231039142988
  0
ARC
  5
47BB
  8
0
 10
234.1560292873701883
 20
21.6002242981595991
 30
0.0
 40
0.3765195122528665
 50
292.391161212688985
 51
320.4917892579975955
  0
ARC
  5
47BC
  8
0
 10
234.2527618735437045
 20
21.51898310243973
 30
0.0
 40
0.2502049484690679
 50
320.7528702643203928
 51
348.1583830899249961
  0
ARC
  5
47BD
  8
0
 10
234.264107837894187
 20
21.5000122273712897
 30
0.0
 40
0.2381272027726067
 50
327.3309426390364933
 51
352.8699938331124031
  0
ARC
  5
47BE
  8
0
 10
234.1855015381379985
 20
21.5538106061196189
 30
0.0
 40
0.3333500195054238
 50
303.4973298085255919
 51
326.8398718343134988
  0
ARC
  5
47BF
  8
0
 10
234.0890120605010054
 20
21.7128111822409693
 30
0.0
 40
0.5192459516909316
 50
274.5418649888371192
 51
302.6930673885115084
  0
ARC
  5
47C0
  8
0
 10
234.0815421933048981
 20
21.7550388571441289
 30
0.0
 40
0.5619475162115389
 50
252.9893723934569039
 51
274.9601573421257967
  0
ARC
  5
47C1
  8
0
 10
234.0343454254696951
 20
21.6120760705612902
 30
0.0
 40
0.4114452084914982
 50
231.1212223057644053
 51
253.4500746748265954
  0
ARC
  5
47C2
  8
0
 10
233.9462720362336086
 20
21.5037369943552612
 30
0.0
 40
0.2718250077399721
 50
207.2133746372053054
 51
231.239532060258199
  0
ARC
  5
47C3
  8
0
 10
233.888303853410406
 20
21.4722619312556198
 30
0.0
 40
0.2058849562488644
 50
180.1727224663505922
 51
206.8009708976400134
  0
ARC
  5
47C4
  8
0
 10
233.8777332138351142
 20
21.4345494015058584
 30
0.0
 40
0.1952667025336597
 50
174.6065378997554092
 51
202.4726403391659915
  0
ARC
  5
47C5
  8
0
 10
233.9530602884854886
 20
21.4714075469026113
 30
0.0
 40
0.2790120410960402
 50
203.5540960625044988
 51
236.5522702769621048
  0
ARC
  5
47C6
  8
0
 10
234.0663273544332981
 20
21.64468884611939
 30
0.0
 40
0.4860271689541727
 50
236.6701211163722007
 51
265.2872330430338934
  0
ARC
  5
47C7
  8
0
 10
234.0809350525634045
 20
21.7313320239719907
 30
0.0
 40
0.5736258386857827
 50
264.5441129259327795
 51
283.4482297930014738
  0
ARC
  5
47C8
  8
0
 10
234.1161934366504056
 20
21.61294641205453
 30
0.0
 40
0.4503371071841193
 50
282.5882505367069939
 51
309.9080960829339233
  0
ARC
  5
47C9
  8
0
 10
234.2166088751808104
 20
21.491106240269211
 30
0.0
 40
0.2924565143661986
 50
310.1317141940068041
 51
333.5907131310409
  0
ARC
  5
47CA
  8
0
 10
234.2718694497270064
 20
21.4623226691679996
 30
0.0
 40
0.2301637169802928
 50
333.8896579973992971
 51
353.5719268705777836
  0
ARC
  5
47CB
  8
0
 10
234.2850959344962121
 20
21.4600842340095888
 30
0.0
 40
0.2167710541573225
 50
353.7684664970277026
 51
3.061944921870003
  0
ARC
  5
47CC
  8
0
 10
234.294384557795297
 20
21.4436448312354884
 30
0.0
 40
0.2073575699355178
 50
345.3010909808738802
 51
1.8007280459821391
  0
ARC
  5
47CD
  8
0
 10
234.2458965707060941
 20
21.4578189495286296
 30
0.0
 40
0.2578590427908312
 50
320.2834451560174784
 51
344.9884751672589118
  0
ARC
  5
47CE
  8
0
 10
234.15972756373219
 20
21.5326403570100204
 30
0.0
 40
0.3719600224384714
 50
296.6374985198683021
 51
319.899487926596521
  0
ARC
  5
47CF
  8
0
 10
234.0920313082476127
 20
21.6627120212841007
 30
0.0
 40
0.5185818750533226
 50
278.3998103492041878
 51
296.8799229367633075
  0
ARC
  5
47D0
  8
0
 10
234.0810013466804094
 20
21.7189712246391906
 30
0.0
 40
0.5758551281087387
 50
262.4047865669448925
 51
278.6677872810790859
  0
ARC
  5
47D1
  8
0
 10
234.0685395376891051
 20
21.6462471674987498
 30
0.0
 40
0.5021294646465995
 50
244.6794011181642077
 51
262.7174690712205916
  0
ARC
  5
47D2
  8
0
 10
234.0122837732959056
 20
21.5281218055195609
 30
0.0
 40
0.3712930630260058
 50
228.4012999877425898
 51
244.7304813493697111
  0
ARC
  5
47D3
  8
0
 10
233.9348734758152943
 20
21.4449981424567717
 30
0.0
 40
0.2577528436009024
 50
204.9108781551562117
 51
229.0019086838784972
  0
ARC
  5
47D4
  8
0
 10
233.880855999888297
 20
21.4198914674109417
 30
0.0
 40
0.1981858023462206
 50
178.6617792731057932
 51
204.9055997344271134
  0
ARC
  5
47D5
  8
0
 10
234.0053823941821918
 20
21.4564032489071295
 30
0.0
 40
0.3244876357765665
 50
207.6907786535005016
 51
250.1371438073306024
  0
ARC
  5
47D6
  8
0
 10
234.0934888343053046
 20
21.6676894871475909
 30
0.0
 40
0.5532509592308534
 50
248.9899979846892109
 51
281.8290990617729221
  0
ARC
  5
47D7
  8
0
 10
234.1315886436669018
 20
21.5487862563286683
 30
0.0
 40
0.4292569982469371
 50
280.104807969039598
 51
313.8704546053277795
  0
ARC
  5
47D8
  8
0
 10
234.2567083752452959
 20
21.4160747593242817
 30
0.0
 40
0.2468787602484604
 50
314.2819798040882233
 51
345.8786428983265182
  0
ARC
  5
47D9
  8
0
 10
234.2768146751461984
 20
21.406582729861281
 30
0.0
 40
0.2251052857143627
 50
346.9731136181525244
 51
5.0835462389015653
  0
ENDSEC
  0
EOF
