  0
SECTION
  2
HEADER
  9
$ACADVER
  1
AC1009
  9
$INSBASE
 10
235.0825861251888114
 20
42.0727511972833099
 30
0.0
  9
$EXTMIN
 10
233.5750749268410971
 20
23.4710404222027798
 30
-0.0015258207003583
  9
$EXTMAX
 10
237.7762741018522945
 20
42.0772061163820297
 30
0.0000000349246037
  9
$LIMMIN
 10
0.0
 20
0.0
  9
$LIMMAX
 10
11.6929133858000007
 20
8.2677165353999982
  9
$ORTHOMODE
 70
     0
  9
$REGENMODE
 70
     1
  9
$FILLMODE
 70
     1
  9
$QTEXTMODE
 70
     0
  9
$MIRRTEXT
 70
     0
  9
$DRAGMODE
 70
     2
  9
$LTSCALE
 40
0.6431102362
  9
$OSMODE
 70
   575
  9
$ATTMODE
 70
     1
  9
$TEXTSIZE
 40
0.2
  9
$TRACEWID
 40
0.05
  9
$TEXTSTYLE
  7
STANDARD
  9
$CLAYER
  8
0
  9
$CELTYPE
  6
BYLAYER
  9
$CECOLOR
 62
   256
  9
$DIMSCALE
 40
1.0
  9
$DIMASZ
 40
0.1875
  9
$DIMEXO
 40
0.0625
  9
$DIMDLI
 40
0.4443307087
  9
$DIMRND
 40
0.0
  9
$DIMDLE
 40
0.0
  9
$DIMEXE
 40
0.125
  9
$DIMTP
 40
0.01
  9
$DIMTM
 40
0.01
  9
$DIMTXT
 40
1.0
  9
$DIMCEN
 40
0.1052362205
  9
$DIMTSZ
 40
0.0
  9
$DIMTOL
 70
     1
  9
$DIMLIM
 70
     0
  9
$DIMTIH
 70
     0
  9
$DIMTOH
 70
     1
  9
$DIMSE1
 70
     0
  9
$DIMSE2
 70
     0
  9
$DIMTAD
 70
     0
  9
$DIMZIN
 70
     0
  9
$DIMBLK
  1

  9
$DIMASO
 70
     1
  9
$DIMSHO
 70
     1
  9
$DIMPOST
  1
\X
  9
$DIMAPOST
  1

  9
$DIMALT
 70
     1
  9
$DIMALTD
 70
     2
  9
$DIMALTF
 40
25.3999999999999986
  9
$DIMLFAC
 40
1.0
  9
$DIMTOFL
 70
     0
  9
$DIMTVP
 40
0.0
  9
$DIMTIX
 70
     0
  9
$DIMSOXD
 70
     0
  9
$DIMSAH
 70
     0
  9
$DIMBLK1
  1

  9
$DIMBLK2
  1

  9
$DIMSTYLE
  2
STANDARD
  9
$DIMCLRD
 70
     0
  9
$DIMCLRE
 70
     0
  9
$DIMCLRT
 70
     0
  9
$DIMTFAC
 40
1.0
  9
$DIMGAP
 40
0.09
  9
$LUNITS
 70
     2
  9
$LUPREC
 70
     4
  9
$SKETCHINC
 40
0.1
  9
$FILLETRAD
 40
0.0
  9
$AUNITS
 70
     0
  9
$AUPREC
 70
     0
  9
$MENU
  1
.
  9
$ELEVATION
 40
0.0
  9
$PELEVATION
 40
0.0
  9
$THICKNESS
 40
0.0
  9
$LIMCHECK
 70
     0
  9
$BLIPMODE
 70
     0
  9
$CHAMFERA
 40
0.0
  9
$CHAMFERB
 40
0.0
  9
$SKPOLY
 70
     0
  9
$TDCREATE
 40
2458172.5207638889551163
  9
$TDUPDATE
 40
2459578.9958333331160247
  9
$TDINDWG
 40
0.2034832755
  9
$TDUSRTIMER
 40
0.2034832755
  9
$USRTIMER
 70
     1
  9
$ANGBASE
 50
0.0
  9
$ANGDIR
 70
     0
  9
$PDMODE
 70
     0
  9
$PDSIZE
 40
0.3125
  9
$PLINEWID
 40
0.0
  9
$COORDS
 70
     1
  9
$SPLFRAME
 70
     0
  9
$SPLINETYPE
 70
     6
  9
$SPLINESEGS
 70
     8
  9
$ATTDIA
 70
     1
  9
$ATTREQ
 70
     1
  9
$HANDLING
 70
     1
  9
$HANDSEED
  5
478C
  9
$SURFTAB1
 70
     6
  9
$SURFTAB2
 70
     6
  9
$SURFTYPE
 70
     6
  9
$SURFU
 70
     6
  9
$SURFV
 70
     6
  9
$UCSNAME
  2

  9
$UCSORG
 10
0.0
 20
0.0
 30
0.0
  9
$UCSXDIR
 10
1.0
 20
0.0
 30
0.0
  9
$UCSYDIR
 10
0.0
 20
1.0
 30
0.0
  9
$PUCSNAME
  2

  9
$PUCSORG
 10
0.0
 20
0.0
 30
0.0
  9
$PUCSXDIR
 10
1.0
 20
0.0
 30
0.0
  9
$PUCSYDIR
 10
0.0
 20
1.0
 30
0.0
  9
$USERI1
 70
     0
  9
$USERI2
 70
     0
  9
$USERI3
 70
     0
  9
$USERI4
 70
     0
  9
$USERI5
 70
     0
  9
$USERR1
 40
0.0
  9
$USERR2
 40
0.0
  9
$USERR3
 40
0.0
  9
$USERR4
 40
0.0
  9
$USERR5
 40
0.0
  9
$WORLDVIEW
 70
     1
  9
$SHADEDGE
 70
     3
  9
$SHADEDIF
 70
    70
  9
$TILEMODE
 70
     1
  9
$MAXACTVP
 70
    64
  9
$PLIMCHECK
 70
     0
  9
$PEXTMIN
 10
1.0000000000000000E+20
 20
1.0000000000000000E+20
 30
1.0000000000000000E+20
  9
$PEXTMAX
 10
-1.0000000000000000E+20
 20
-1.0000000000000000E+20
 30
-1.0000000000000000E+20
  9
$PLIMMIN
 10
0.0
 20
0.0
  9
$PLIMMAX
 10
12.0
 20
9.0
  9
$UNITMODE
 70
     0
  9
$VISRETAIN
 70
     1
  9
$PLINEGEN
 70
     0
  9
$PSLTSCALE
 70
     1
  0
ENDSEC
  0
SECTION
  2
TABLES
  0
TABLE
  2
VPORT
 70
     1
  0
VPORT
  2
*ACTIVE
 70
     0
 10
0.0
 20
0.0
 11
1.0
 21
1.0
 12
-21.5518036728714399
 22
0.3163290940367815
 13
0.0
 23
0.0
 14
1.0
 24
1.0
 15
0.0
 25
0.0
 16
0.0
 26
0.0
 36
52.8911156380141207
 17
257.2274780273438068
 27
32.4577941363292695
 37
0.0
 40
25.5520628960038501
 41
2.5179738562091498
 42
50.0
 43
0.0
 44
0.0
 50
0.0
 51
0.0
 71
     0
 72
   100
 73
     1
 74
     1
 75
     0
 76
     0
 77
     0
 78
     0
  0
ENDTAB
  0
TABLE
  2
LTYPE
 70
     2
  0
LTYPE
  2
CONTINUOUS
 70
     0
  3
Solid line
 72
    65
 73
     0
 40
0.0
  0
LTYPE
  2
PHANTOM2
 70
     0
  3
___ _ _ ___ _ _ ___ _ _ ___ _ _
 72
    65
 73
     6
 40
1.25
 49
0.625
 49
-0.125
 49
0.125
 49
-0.125
 49
0.125
 49
-0.125
  0
ENDTAB
  0
TABLE
  2
LAYER
 70
     2
  0
LAYER
  2
0
 70
     0
 62
   255
  6
CONTINUOUS
  0
LAYER
  2
DEFPOINTS
 70
     0
 62
     7
  6
CONTINUOUS
  0
ENDTAB
  0
TABLE
  2
STYLE
 70
     1
  0
STYLE
  2
STANDARD
 70
     0
 40
0.0
 41
0.8
 50
0.0
 71
     0
 42
0.2
  3
txt
  4

  0
ENDTAB
  0
TABLE
  2
VIEW
 70
     0
  0
ENDTAB
  0
TABLE
  2
UCS
 70
     0
  0
ENDTAB
  0
TABLE
  2
APPID
 70
    10
  0
APPID
  2
ACAD
 70
     0
  0
APPID
  2
ACAD_MLEADERVER
 70
     0
  0
APPID
  2
ACAD_EXEMPT_FROM_CAD_STANDARDS
 70
     0
  0
APPID
  2
ACAD_DSTYLE_DIMJAG
 70
     0
  0
APPID
  2
ACAD_DSTYLE_DIMTALN
 70
     0
  0
APPID
  2
ACAD_NAV_VCDISPLAY
 70
     0
  0
APPID
  2
ACAECLAYERSTANDARD
 70
     0
  0
APPID
  2
ACCMTRANSPARENCY
 70
     0
  0
APPID
  2
DCO15
 70
     0
  0
APPID
  2
ACDBATTR
 70
     0
  0
ENDTAB
  0
TABLE
  2
DIMSTYLE
 70
     1
  0
DIMSTYLE
  2
STANDARD
 70
     0
  3

  4

  5

  6

  7

 40
1.0
 41
0.1875
 42
0.0625
 43
0.38
 44
0.125
 45
0.0
 46
0.0
 47
0.01
 48
0.01
140
0.15625
141
0.09
142
0.0
143
25.3999999999999986
144
1.0
145
0.0
146
1.0
147
0.09
 71
     1
 72
     0
 73
     1
 74
     1
 75
     0
 76
     0
 77
     0
 78
     4
170
     0
171
     2
172
     0
173
     0
174
     0
175
     0
176
     0
177
     0
178
     0
  0
ENDTAB
  0
ENDSEC
  0
SECTION
  2
BLOCKS
  0
BLOCK
  8
0
  2
$MODEL_SPACE
 70
     0
 10
0.0
 20
0.0
 30
0.0
  3
$MODEL_SPACE
  1

  0
ENDBLK
  5
21
  8
0
  0
BLOCK
 67
     1
  8
0
  2
$PAPER_SPACE
 70
     0
 10
0.0
 20
0.0
 30
0.0
  3
$PAPER_SPACE
  1

  0
ENDBLK
  5
1D
 67
     1
  8
0
  0
ENDSEC
  0
SECTION
  2
ENTITIES
  0
ATTDEF
  5
829
  8
DEFPOINTS
 10
235.0825237276422115
 20
42.0761430482430185
 30
0.0
 40
0.001
  1
K-45211
  3

  2
MODELNUMBER
 70
     0
1001
ACDBATTR
1070
     0
1070
     1
  0
ATTDEF
  5
82A
  8
DEFPOINTS
 10
235.0825237276422115
 20
42.0744763815763534
 30
0.0
 40
0.001
  1
HYDRORAIL-R
  3

  2
TRADENAME
 70
     0
1001
ACDBATTR
1070
     0
1070
     1
  0
ATTDEF
  5
82B
  8
DEFPOINTS
 10
235.0825237276422115
 20
42.0728097149096882
 30
0.0
 40
0.001
  1
SHOWER COLUMN 
  3

  2
PRODUCT
 70
     0
1001
ACDBATTR
1070
     0
1070
     1
  0
LINE
  5
462A
  8
0
 10
234.6255863010638052
 20
23.4727511972833085
 30
0.0
 11
235.5395858570637984
 21
23.4727511972833085
 31
0.0
  0
LINE
  5
462B
  8
0
 10
235.6885298618637989
 20
41.5584047304833106
 30
0.0
 11
235.6956531879638135
 21
41.5707426931833126
 31
0.0
  0
LINE
  5
462C
  8
0
 10
235.6885298618637989
 20
41.5084047304832993
 30
0.0
 11
235.6956531879638135
 21
41.5207426931833083
 31
0.0
  0
LINE
  5
462D
  8
0
 10
234.5239002837637941
 20
40.5970531008833078
 30
0.0
 11
234.5100983066637923
 21
41.3877678429833082
 31
0.0
  0
LINE
  5
462E
  8
0
 10
234.5239002837637941
 20
40.647053100883312
 30
0.0
 11
234.5100983066637923
 21
41.4377678429833125
 31
0.0
  0
LINE
  5
462F
  8
0
 10
234.5905863010638086
 20
39.5413664876303699
 30
0.0
 11
234.5905863010638086
 21
23.5727511972833099
 31
0.0
  0
LINE
  5
4630
  8
0
 10
234.5905863010638086
 20
23.5627511972833084
 30
0.0
 11
234.5905863010638086
 21
23.5077511972833086
 31
0.0
  0
LINE
  5
4631
  8
0
 10
234.5940863010638111
 20
39.9284153461535709
 30
0.0
 11
234.5940863010638111
 21
40.6077511972833065
 31
0.0
  0
LINE
  5
4632
  8
0
 10
234.4628283000637907
 20
41.5466153124832971
 30
0.0
 11
234.4635036724097006
 21
41.585307366565047
 31
0.0
  0
LINE
  5
4633
  8
0
 10
235.5710863010637866
 20
39.9285024380230311
 30
0.0
 11
235.5710863010637866
 21
40.6077511972833065
 31
0.0
  0
LINE
  5
4634
  8
0
 10
235.5745863010637891
 20
39.5413664876303486
 30
0.0
 11
235.5745863010637891
 21
23.5727511972833099
 31
0.0
  0
LINE
  5
4635
  8
0
 10
235.5745863010637891
 20
23.5627511972833013
 30
0.0
 11
235.5745863010637891
 21
23.5077511972833086
 31
0.0
  0
LINE
  5
4636
  8
0
 10
235.6412723183638036
 20
40.647053100883312
 30
0.0
 11
235.6550742954638054
 21
41.4377678429833125
 31
0.0
  0
LINE
  5
4637
  8
0
 10
235.6412723183638036
 20
40.5970531008833078
 30
0.0
 11
235.6550742954638054
 21
41.3877678429833082
 31
0.0
  0
LINE
  5
4638
  8
0
 10
237.7572803417494072
 20
39.9494189215572604
 30
0.0
 11
237.7510907427638074
 21
39.9336921243833132
 31
0.0
  0
LINE
  5
4639
  8
0
 10
235.7023443020638069
 20
41.5466153124832971
 30
0.0
 11
235.7016689306510955
 21
41.5853073131015094
 31
0.0
  0
LINE
  5
463A
  8
0
 10
236.3715860059755869
 20
39.1820258126605268
 30
0.0
 11
236.3715863010637861
 21
39.9634737327419032
 31
0.0
  0
LINE
  5
463B
  8
0
 10
236.3915863010637963
 20
39.1927511972833074
 30
0.0
 11
236.3915863010637963
 21
39.9527511972833125
 31
0.0
  0
LINE
  5
463C
  8
0
 10
236.4115863010638066
 20
39.1823677641833115
 30
0.0
 11
236.4115863010638066
 21
39.9631346303833226
 31
0.0
  0
LINE
  5
463D
  8
0
 10
234.4766427402637987
 20
41.5084047304832993
 30
0.0
 11
234.4695194141638126
 21
41.5207426931833083
 31
0.0
  0
LINE
  5
463E
  8
0
 10
234.4766427402637987
 20
41.5584047304833106
 30
0.0
 11
234.4695194141638126
 21
41.5707426931833126
 31
0.0
  0
LINE
  5
463F
  8
0
 10
234.8429656638637937
 20
40.0023718344833128
 30
0.0
 11
234.8423038093638127
 21
40.0030336889833222
 31
0.0
  0
LINE
  5
4640
  8
0
 10
237.7572455393622022
 20
39.1961771769402674
 30
0.0
 11
237.7510908059637984
 21
39.2118101110833095
 31
0.0
  0
LINE
  5
4641
  8
0
 10
236.3915863010637963
 20
39.1927511972833074
 30
0.0
 11
236.3715860100255952
 21
39.1927511972833074
 31
0.0
  0
LINE
  5
4642
  8
0
 10
237.616044934016486
 20
39.2181528561679968
 30
0.0
 11
237.7246761760638094
 21
39.2183514623833105
 31
0.0
  0
LINE
  5
4643
  8
0
 10
237.718560104363803
 20
39.2338864701833074
 30
0.0
 11
237.5838290060137865
 21
39.2338864698833092
 31
0.0
  0
LINE
  5
4644
  8
0
 10
236.3915863010637963
 20
39.262750309083323
 30
0.0
 11
236.4115863010638066
 21
39.2627503510833122
 31
0.0
  0
LINE
  5
4645
  8
0
 10
236.4465863010314024
 20
39.1473677642833096
 30
0.0
 11
236.4896924341639135
 21
39.1466047948833165
 31
0.0
  0
LINE
  5
4646
  8
0
 10
233.9613210022637872
 20
39.1624223856833211
 30
0.0
 11
234.5463549685466944
 21
39.1343661562922307
 31
0.0
  0
LINE
  5
4647
  8
0
 10
233.9613210022637872
 20
39.9830800088833129
 30
0.0
 11
234.5461078952554885
 21
40.0111244403605468
 31
0.0
  0
LINE
  5
4648
  8
0
 10
236.4115863010638066
 20
39.8827520433833271
 30
0.0
 11
236.3915863010637963
 21
39.8827520865833094
 31
0.0
  0
LINE
  5
4649
  8
0
 10
237.718560104363803
 20
39.9116105936833208
 30
0.0
 11
237.5838290059137989
 21
39.9116159229833087
 31
0.0
  0
LINE
  5
464A
  8
0
 10
237.7246761760638094
 20
39.9271509321833094
 30
0.0
 11
237.6160494162637917
 21
39.9271509321833094
 31
0.0
  0
LINE
  5
464B
  8
0
 10
236.3715862970148009
 20
39.9527511972833196
 30
0.0
 11
236.3915863010637963
 21
39.9527511972833125
 31
0.0
  0
LINE
  5
464C
  8
0
 10
236.4754831148638061
 20
39.9981546614833121
 30
0.0
 11
236.4465863010638031
 21
39.9981346305833085
 31
0.0
  0
LINE
  5
464D
  8
0
 10
234.5638995429638101
 20
40.5577511972833022
 30
0.0
 11
234.5940863010638111
 21
40.5577511972833022
 31
0.0
  0
LINE
  5
464E
  8
0
 10
235.5710863010637866
 20
40.5577511972833022
 30
0.0
 11
235.6012730591637876
 21
40.5577511972833022
 31
0.0
  0
LINE
  5
464F
  8
0
 10
234.5638995429638101
 20
40.6077511972833065
 30
0.0
 11
235.6012730591637876
 21
40.6077511972833065
 31
0.0
  0
LINE
  5
4650
  8
0
 10
235.7206179941638027
 20
41.5853073122833123
 30
0.0
 11
234.4445535753638126
 21
41.585307367383308
 31
0.0
  0
LINE
  5
4651
  8
0
 10
233.676521085163813
 20
41.6509939621832999
 30
0.0
 11
236.4886600394638094
 21
41.650994967783312
 31
0.0
  0
LINE
  5
4652
  8
0
 10
236.5825859493637893
 20
42.0727511972833099
 30
0.0
 11
233.582586301013805
 21
42.0727511972833099
 31
0.0
  0
ARC
  5
4653
  8
0
 10
234.6255863010638052
 20
23.5077511972833086
 30
0.0
 40
0.035
 50
180.0
 51
270.0
  0
ARC
  5
4654
  8
0
 10
235.5395863010593018
 20
23.5077511972849997
 30
0.0
 40
0.0350000000045074
 50
269.9992731694891859
 51
359.9999999972374098
  0
ARC
  5
4655
  8
0
 10
234.2601363828638057
 20
41.3834047416833002
 30
0.0
 40
0.25
 50
0.9999999369998871
 51
29.9999970342005717
  0
ARC
  5
4656
  8
0
 10
234.2601363828638057
 20
41.4334047416832973
 30
0.0
 40
0.25
 50
0.9999999369998871
 51
29.9999970342005717
  0
ARC
  5
4657
  8
0
 10
233.6890190106585123
 20
41.7518353401176014
 30
0.0
 40
0.1016129517447875
 50
182.5800702675238085
 51
262.9301445434966809
  0
ARC
  5
4658
  8
0
 10
234.5128206853611914
 20
41.5457426924893483
 30
0.0
 40
0.0500000005337735
 50
179.0000003864888924
 51
209.9999987048838932
  0
ARC
  5
4659
  8
0
 10
234.5128206848638115
 20
41.5957426922833093
 30
0.0
 40
0.05
 50
192.0465614737109945
 51
209.9999987854004928
  0
ARC
  5
465A
  8
0
 10
234.5638941921556011
 20
40.597751197521319
 30
0.0
 40
0.0400000005959174
 50
181.000000467187391
 51
270.0076644680032132
  0
ARC
  5
465B
  8
0
 10
234.5638941921249909
 20
40.6477511974901091
 30
0.0
 40
0.0400000005646988
 50
181.0000004232502135
 51
270.0076645119532941
  0
ARC
  5
465C
  8
0
 10
235.0825863010637988
 20
39.5727511972833099
 30
0.0
 40
0.6785216509999999
 50
316.4776517486637886
 51
43.9498497929216185
  0
ARC
  5
465D
  8
0
 10
235.0825863010637988
 20
39.5727511972833099
 30
0.0
 40
0.6435269816
 50
319.8657930991554963
 51
40.6152621496351927
  0
ARC
  5
465E
  8
0
 10
235.0876296903742002
 20
39.5711303207527507
 30
0.0
 40
0.6012030643814473
 50
324.0930271922417205
 51
36.4718878342625388
  0
ARC
  5
465F
  8
0
 10
235.0825863010637988
 20
39.5727511972833099
 30
0.0
 40
0.5499999962
 50
333.4501052253957027
 51
206.5301812348997998
  0
ARC
  5
4660
  8
0
 10
235.0825863010637988
 20
39.5727511972833099
 30
0.0
 40
0.5065
 50
346.2572557759086749
 51
193.6792652400999089
  0
ARC
  5
4661
  8
0
 10
235.0825863010637988
 20
39.5727511972833099
 30
0.0
 40
0.493
 50
356.3500441768013047
 51
183.6499558231953131
  0
ARC
  5
4662
  8
0
 10
235.6523519167664062
 20
41.5457426924893483
 30
0.0
 40
0.050000000533796
 50
330.0000012951276744
 51
0.9999996135106973
  0
ARC
  5
4663
  8
0
 10
235.6523519172637862
 20
41.5957426922833093
 30
0.0
 40
0.05
 50
330.0000012145995925
 51
347.9533759243598183
  0
ARC
  5
4664
  8
0
 10
235.6012784099443138
 20
40.5977511975494565
 30
0.0
 40
0.0400000006240399
 50
269.9923355715940261
 51
358.9999994932056211
  0
ARC
  5
4665
  8
0
 10
235.6012784099806083
 20
40.6477511975125907
 30
0.0
 40
0.0400000005871747
 50
269.9923355196776242
 51
358.9999995451041173
  0
ARC
  5
4666
  8
0
 10
235.0825863010637988
 20
53.5683334559833213
 30
0.0
 40
12.0
 50
273.0478141017997018
 51
276.7289654162996158
  0
ARC
  5
4667
  8
0
 10
235.0825863000638094
 20
53.5683334515833209
 30
0.0
 40
11.9999999953999996
 50
263.2710345363004194
 51
266.9521859051994284
  0
ARC
  5
4668
  8
0
 10
236.4056591824700035
 20
36.3364837097965818
 30
0.0
 40
2.811377260507737
 50
73.4631029447159136
 51
88.2871498720947869
  0
ARC
  5
4669
  8
0
 10
236.3009320163164091
 20
36.2969275317604598
 30
0.0
 40
2.8503248710455682
 50
89.2919726070646647
 51
104.7634586307242017
  0
ARC
  5
466A
  8
0
 10
236.4465863134637971
 20
39.9631346179833074
 30
0.0
 40
0.0350000124
 50
90.0000202341999369
 51
179.999980990400104
  0
ARC
  5
466B
  8
0
 10
236.4465863052637928
 20
39.18236776848331
 30
0.0
 40
0.0350000042
 50
180.0000069284998858
 51
269.9999930715001142
  0
ARC
  5
466C
  8
0
 10
236.3365898753258136
 20
39.9634737329329113
 30
0.0
 40
0.0349964257379965
 50
359.999999687283605
 51
90.7140334861806252
  0
ARC
  5
466D
  8
0
 10
236.3365897672638027
 20
39.1820282978833134
 30
0.0
 40
0.0349962388
 50
269.2861359309004001
 51
359.9959311976999743
  0
ARC
  5
466E
  8
0
 10
236.4012548715618891
 20
42.8282105016602728
 30
0.0
 40
2.8310291221786139
 50
271.5024403925958723
 51
286.5117914868660023
  0
ARC
  5
466F
  8
0
 10
236.3009338161643882
 20
42.8485838958772405
 30
0.0
 40
2.850334059317349
 50
255.1637834513919074
 51
270.7079889736061205
  0
ARC
  5
4670
  8
0
 10
235.905036219263792
 20
41.3834047416833002
 30
0.0
 40
0.25
 50
150.0000029657994105
 51
179.0000000630001011
  0
ARC
  5
4671
  8
0
 10
235.905036219263792
 20
41.4334047416832973
 30
0.0
 40
0.25
 50
150.0000029657994105
 51
179.0000000630001011
  0
ARC
  5
4672
  8
0
 10
236.4761754063106025
 20
41.7517930691614367
 30
0.0
 40
0.1015683184121991
 50
277.0605720338454034
 51
357.9060597883927812
  0
ARC
  5
4673
  8
0
 10
237.3660411318637955
 20
39.5727511349833065
 30
0.0
 40
0.5643837412
 50
47.3547102298992399
 51
106.4871137200996003
  0
ARC
  5
4674
  8
0
 10
237.3660411318637955
 20
39.5727512595833133
 30
0.0
 40
0.5643837412
 50
253.5128862802995116
 51
312.6452897700995095
  0
ARC
  5
4675
  8
0
 10
237.7246715415458027
 20
39.1833594868792403
 30
0.0
 40
0.0350051212287799
 50
312.6478825544497226
 51
21.4793664780778997
  0
ARC
  5
4676
  8
0
 10
237.724676171263809
 20
39.9621456003833231
 30
0.0
 40
0.0350000041
 50
338.6773600313998145
 51
47.3547056462995499
  0
ARC
  5
4677
  8
0
 10
237.7246811466108909
 20
39.962146701751017
 30
0.0
 40
0.034995769920698
 50
269.9918621201169913
 51
338.6727183338969098
  0
ARC
  5
4678
  8
0
 10
237.7185518491363041
 20
39.9466256827507635
 30
0.0
 40
0.0350150900405773
 50
270.0135081675409765
 51
338.3231703428967876
  0
ARC
  5
4679
  8
0
 10
237.7246799292582864
 20
39.1833510587344733
 30
0.0
 40
0.0350004038500775
 50
21.4972329004752787
 51
90.0061439920045814
  0
ARC
  5
467A
  8
0
 10
237.7185626465299038
 20
39.198884168087119
 30
0.0
 40
0.0350023021885053
 50
21.6717356969386508
 51
90.0041613088721988
  0
ARC
  5
467B
  8
0
 10
235.0826506674227971
 20
39.5727511972833099
 30
0.0
 40
0.6435269816
 50
139.3935420210424923
 51
220.1253153435042975
  0
ARC
  5
467C
  8
0
 10
235.0776072781123105
 20
39.5711303207527507
 30
0.0
 40
0.6012030643814473
 50
143.5384329768889131
 51
215.8879937305368912
  0
ARC
  5
467D
  8
0
 10
234.0026768324308932
 20
39.4487409118159817
 30
0.0
 40
0.2892898254269999
 50
213.8631493541458042
 51
261.7810436736525048
  0
ARC
  5
467E
  8
0
 10
234.2019894466540109
 20
39.5716336505151105
 30
0.0
 40
0.5233480228696731
 50
143.5247534831607936
 51
212.8764000723369065
  0
ARC
  5
467F
  8
0
 10
233.9799702310139935
 20
39.7376652537216088
 30
0.0
 40
0.2461223187442673
 50
94.3455921761691343
 51
143.8793769404981049
  0
LINE
  5
4680
  8
0
 10
235.7012421123619959
 20
41.5352665850259584
 30
0.0
 11
235.7251217472588962
 21
41.5353114795782687
 31
0.0
  0
ARC
  5
4681
  8
0
 10
235.0825862780212958
 20
53.5180972292831498
 30
0.0
 40
12.0000002564949906
 50
273.0693486722602756
 51
276.728945378774597
  0
ARC
  5
4682
  8
0
 10
236.4769386322138018
 20
41.7000691527833069
 30
0.0
 40
0.1000000000000094
 50
276.7289454124991721
 51
358.9999997810954824
  0
LINE
  5
4683
  8
0
 10
236.576923401713799
 20
41.6983239121833122
 30
0.0
 11
236.5825859493637893
 21
42.0727511972833099
 31
0.0
  0
LINE
  5
4684
  8
0
 10
236.4886558786940896
 20
41.6007579946240966
 30
0.0
 11
235.964135090429096
 21
41.6007576057131914
 31
0.0
  0
LINE
  5
4685
  8
0
 10
234.4639208946263125
 20
41.5353114643995909
 30
0.0
 11
234.4400508556691136
 21
41.5353114796228269
 31
0.0
  0
LINE
  5
4686
  8
0
 10
233.588249200404789
 20
41.6983239117575692
 30
0.0
 11
233.582586301013805
 21
42.0727511972833099
 31
0.0
  0
ARC
  5
4687
  8
0
 10
235.0825863087137009
 20
53.5180970516802503
 30
0.0
 40
12.0000000780969405
 50
263.2710545944992191
 51
266.9306513722992236
  0
ARC
  5
4688
  8
0
 10
233.6882339698975102
 20
41.7000691527517588
 30
0.0
 40
0.099999999966771
 50
181.0000001864104036
 51
263.2710545946450793
  0
ARC
  5
4689
  8
0
 10
235.0825863010637988
 20
39.5727511972833099
 30
0.0
 40
0.5999999999999944
 50
325.084793744214096
 51
214.9152062391009963
  0
LINE
  5
468A
  8
0
 10
234.5905863010638086
 20
23.5727511972833099
 30
0.0
 11
235.5745863010137953
 21
23.5727511972833099
 31
0.0
  0
ARC
  5
468B
  8
0
 10
235.5645863010138044
 20
23.5627511972833013
 30
0.0
 40
0.0100000000000078
 50
0.0000000000203555
 51
90.0
  0
ARC
  5
468C
  8
0
 10
234.6006207508669092
 20
23.5627369276869487
 30
0.0
 40
0.0100344599991602
 50
93.6352642572727945
 51
179.9185219810345018
  0
ARC
  5
468D
  8
0
 10
237.3365863010137957
 20
39.5727511972833028
 30
0.0
 40
0.4132196222999998
 50
56.5213554280105583
 51
303.4785757926538281
  0
ARC
  5
468E
  8
0
 10
237.5840491596721904
 20
39.9473686549242686
 30
0.0
 40
0.0357534097523565
 50
236.9093602240224925
 51
269.6471955822614746
  0
ARC
  5
468F
  8
0
 10
237.5838011544427104
 20
39.1989592361124011
 30
0.0
 40
0.034927244875565
 50
89.9543113791402931
 51
123.4899365975715
  0
ARC
  5
4690
  8
0
 10
237.423222562874713
 20
39.5727530379005401
 30
0.0
 40
0.5094377616642058
 50
160.5066410105029888
 51
199.4937982122069116
  0
ARC
  5
4691
  8
0
 10
237.2739991466135905
 20
39.5727524659359489
 30
0.0
 40
0.3721148749638507
 50
152.8163079682283865
 51
207.1841312544808886
  0
ARC
  5
4692
  8
0
 10
237.6161364856052955
 20
39.9623305371299296
 30
0.0
 40
0.0351797126945415
 50
234.3939177269373886
 51
269.858193529644609
  0
ARC
  5
4693
  8
0
 10
237.6151646160838879
 20
39.1851865086800331
 30
0.0
 40
0.0329780991926546
 50
88.4703638025959549
 51
126.271136974635894
  0
ARC
  5
4694
  8
0
 10
237.3365863053467137
 20
39.5727511888745482
 30
0.0
 40
0.4443204325050847
 50
54.3335071224090385
 51
305.6664940970130147
  0
LINE
  5
4695
  8
0
 10
237.6037809702895913
 20
39.9293919059113591
 30
0.0
 11
237.5755282000855004
 21
39.9126454702108475
 31
0.0
  0
LINE
  5
4696
  8
0
 10
237.6053022462812976
 20
39.216655361347982
 30
0.0
 11
237.5748326448650118
 21
39.2327153951141909
 31
0.0
  0
ARC
  5
4697
  8
0
 10
234.7628221813606899
 20
39.4231062861918318
 30
0.0
 40
0.3608724384570022
 50
220.7721041998599105
 51
241.4923332748437019
  0
ARC
  5
4698
  8
0
 10
234.9160422643035133
 20
39.5405446270556808
 30
0.0
 40
0.5537130861250195
 50
190.1849275992331911
 51
219.62105943136919
  0
ARC
  5
4699
  8
0
 10
235.040750509611911
 20
39.5723948048494378
 30
0.0
 40
0.6821514850094295
 50
163.2826114722317072
 51
190.9658028858102057
  0
ARC
  5
469A
  8
0
 10
234.8616732269888132
 20
39.6338296938895169
 30
0.0
 40
0.4930254824207927
 50
133.7370704459904118
 51
164.1340819797030974
  0
ARC
  5
469B
  8
0
 10
234.7495239621792109
 20
39.7413249474950803
 30
0.0
 40
0.3378903115408775
 50
117.3886578011784962
 51
132.598637092838203
  0
ARC
  5
469C
  8
0
 10
234.6613807838635921
 20
39.4819683185801935
 30
0.0
 40
0.3390375442928961
 50
203.2548756429941079
 51
238.8265655130942946
  0
ARC
  5
469D
  8
0
 10
234.859168856641702
 20
39.5733781167368903
 30
0.0
 40
0.5568786199980102
 50
170.0451121605877063
 51
203.8611361773403985
  0
ARC
  5
469E
  8
0
 10
234.7597379501725072
 20
39.6011943835079734
 30
0.0
 40
0.4542507797611178
 50
139.5848570302711096
 51
171.3328540120189132
  0
ARC
  5
469F
  8
0
 10
234.6299564379478966
 20
39.7025391099330278
 30
0.0
 40
0.2898195462751623
 50
119.4195470104217947
 51
138.2048997976004046
  0
ARC
  5
46A0
  8
0
 10
234.5463213405240026
 20
39.7524943351337114
 30
0.0
 40
0.2309769026846766
 50
98.688798881132584
 51
133.2458470646712954
  0
ARC
  5
46A1
  8
0
 10
234.6861615458840049
 20
39.6202400111416111
 30
0.0
 40
0.4232719875296493
 50
134.7690146944858043
 51
172.9017571569069105
  0
ARC
  5
46A2
  8
0
 10
234.8207953445462977
 20
39.5838958063684885
 30
0.0
 40
0.5617011219594604
 50
170.9195444006672062
 51
201.8423281081120138
  0
ARC
  5
46A3
  8
0
 10
234.6686014781519987
 20
39.5205595425987823
 30
0.0
 40
0.3968744843787535
 50
201.5297500310753946
 51
226.8988103243198111
  0
ARC
  5
46A4
  8
0
 10
234.5756894566659128
 20
39.4229182418507804
 30
0.0
 40
0.2620985219640368
 50
227.1441535100181
 51
254.3756652909113996
  0
ARC
  5
46A5
  8
0
 10
234.5301156695813063
 20
39.4028092722861913
 30
0.0
 40
0.2398687905194938
 50
232.6617578709804093
 51
265.6755046269835248
  0
ARC
  5
46A6
  8
0
 10
234.6496202795991906
 20
39.5367398399582086
 30
0.0
 40
0.4190613737526176
 50
192.5230507549530898
 51
230.776959600292912
  0
ARC
  5
46A7
  8
0
 10
234.7971980572509949
 20
39.5839383305369878
 30
0.0
 40
0.5735350222782162
 50
170.0486101604882947
 51
193.9293697794192894
  0
ARC
  5
46A8
  8
0
 10
234.6621946103223024
 20
39.6179942642975575
 30
0.0
 40
0.4347974149156959
 50
141.8288312267031017
 51
171.3945940604043017
  0
ARC
  5
46A9
  8
0
 10
234.5386308909565969
 20
39.7138354652293515
 30
0.0
 40
0.2784263358785608
 50
121.3772827970999941
 51
141.6196126409487022
  0
ARC
  5
46AA
  8
0
 10
234.506650407104388
 20
39.7657459343833892
 30
0.0
 40
0.2174562520324703
 50
104.566773775128695
 51
121.3047495960855002
  0
ARC
  5
46AB
  8
0
 10
234.5009707087432957
 20
39.7865947328372016
 30
0.0
 40
0.1958493080564159
 50
86.5684526818586306
 51
104.4926171904746042
  0
ARC
  5
46AC
  8
0
 10
234.4797666251932071
 20
39.8472285196425702
 30
0.0
 40
0.1350088657229215
 50
86.5971387369612557
 51
101.1380584610167972
  0
ARC
  5
46AD
  8
0
 10
234.4893865929637116
 20
39.7732562678226529
 30
0.0
 40
0.209502306555275
 50
99.8113383468076734
 51
116.0739218094664977
  0
ARC
  5
46AE
  8
0
 10
234.5300493567353897
 20
39.70439301219416
 30
0.0
 40
0.2892973824047201
 50
117.313212444368105
 51
146.8876234556857128
  0
ARC
  5
46AF
  8
0
 10
234.7024020173078043
 20
39.5961969362356285
 30
0.0
 40
0.4927783945682663
 50
147.297853362768393
 51
177.1261937282502004
  0
ARC
  5
46B0
  8
0
 10
234.7717970664290021
 20
39.5833107209949091
 30
0.0
 40
0.5628105897443527
 50
176.1701387502291141
 51
199.2465479130794108
  0
ARC
  5
46B1
  8
0
 10
234.6302520312630122
 20
39.52902205035668
 30
0.0
 40
0.4113069693235027
 50
198.6062489264361091
 51
225.6064431068676015
  0
ARC
  5
46B2
  8
0
 10
234.5304145178741067
 20
39.4304123067833601
 30
0.0
 40
0.271010835026112
 50
226.1039790544085974
 51
248.9386433324714858
  0
ARC
  5
46B3
  8
0
 10
234.5111769652629903
 20
39.3826007484151788
 30
0.0
 40
0.2194812754512355
 50
249.1397807519111893
 51
270.3574796894603196
  0
ARC
  5
46B4
  8
0
 10
234.4758334800364139
 20
39.3823255348428916
 30
0.0
 40
0.2192560375982442
 50
252.4535581083426905
 51
274.7028485437231211
  0
ARC
  5
46B5
  8
0
 10
234.49420626095079
 20
39.4303223575831296
 30
0.0
 40
0.2705758775612593
 50
225.270161136557789
 51
251.8081309463964033
  0
ARC
  5
46B6
  8
0
 10
234.5721238652083969
 20
39.510953181689878
 30
0.0
 40
0.3826968703112339
 50
207.2302006345022107
 51
225.4782504894467081
  0
ARC
  5
46B7
  8
0
 10
234.687954721861388
 20
39.5711770016344317
 30
0.0
 40
0.5132475154522432
 50
189.2053149190811894
 51
207.2915092665853081
  0
ARC
  5
46B8
  8
0
 10
234.7482337247838018
 20
39.5838170187270393
 30
0.0
 40
0.5747792572184234
 50
170.1173691380674029
 51
189.487841250480102
  0
ARC
  5
46B9
  8
0
 10
234.6374388085635019
 20
39.6087011798856281
 30
0.0
 40
0.4613902745496696
 50
147.0211749424433094
 51
170.8002716223784034
  0
ARC
  5
46BA
  8
0
 10
234.5037986118985032
 20
39.6962169753239777
 30
0.0
 40
0.301646638078719
 50
123.8765376119263948
 51
147.1484924335115068
  0
ARC
  5
46BB
  8
0
 10
234.4548178221610897
 20
39.7684355949770065
 30
0.0
 40
0.2143860551497996
 50
97.9452126970885502
 51
123.7667468866964953
  0
ARC
  5
46BC
  8
0
 10
234.4502130990659055
 20
39.7960639684955382
 30
0.0
 40
0.1863878769391157
 50
84.7293811503176357
 51
97.7172565972544334
  0
ARC
  5
46BD
  8
0
 10
234.4460318572301105
 20
39.7623459363328919
 30
0.0
 40
0.2200617215468544
 50
89.9684001638202773
 51
99.8537716224566907
  0
ARC
  5
46BE
  8
0
 10
234.4446537400596071
 20
39.7653312688205531
 30
0.0
 40
0.2168862399746639
 50
99.6300433221490209
 51
129.1461765488610069
  0
ARC
  5
46BF
  8
0
 10
234.5396259473174894
 20
39.6453679426025829
 30
0.0
 40
0.3698842359078101
 50
128.8242221320923022
 51
158.6082247077316936
  0
ARC
  5
46C0
  8
0
 10
234.7015038133839937
 20
39.5752982050378108
 30
0.0
 40
0.5462026715019384
 50
157.9579806113042935
 51
180.2671779747996084
  0
ARC
  5
46C1
  8
0
 10
234.662163970053598
 20
39.5694787999340605
 30
0.0
 40
0.5068674532457113
 50
179.6300889742784079
 51
202.7542786218718049
  0
ARC
  5
46C2
  8
0
 10
234.542145788582701
 20
39.517236836473117
 30
0.0
 40
0.3759879964124164
 50
202.4867665080215886
 51
224.7443380119003962
  0
ARC
  5
46C3
  8
0
 10
234.4894815039986042
 20
39.4441747072365274
 30
0.0
 40
0.2875334201153141
 50
221.7898987558471902
 51
243.5075065522806028
  0
ARC
  5
46C4
  8
0
 10
234.464468165094388
 20
39.3959368635720821
 30
0.0
 40
0.2332045508652958
 50
243.7209601734911075
 51
260.3764388477529224
  0
ARC
  5
46C5
  8
0
 10
234.4619195540659007
 20
39.3862836047255129
 30
0.0
 40
0.2232628865771117
 50
260.6071413389552731
 51
271.9929034225904161
  0
ENDSEC
  0
EOF
