  0
SECTION
  2
HEADER
  9
$ACADVER
  1
AC1009
  9
$INSBASE
 10
4488.9078372982658038
 20
164.0900518413062059
 30
0.0
  9
$EXTMIN
 10
4470.2915527473187467
 20
147.395874877815487
 30
-0.0015258207003583
  9
$EXTMAX
 10
4488.9678487699802645
 20
181.3467203602129132
 30
0.0000000349246037
  9
$LIMMIN
 10
0.0
 20
0.0
  9
$LIMMAX
 10
11.6929133858000007
 20
8.2677165353999982
  9
$ORTHOMODE
 70
     0
  9
$REGENMODE
 70
     1
  9
$FILLMODE
 70
     1
  9
$QTEXTMODE
 70
     0
  9
$MIRRTEXT
 70
     0
  9
$DRAGMODE
 70
     2
  9
$LTSCALE
 40
0.6431102362
  9
$OSMODE
 70
  4095
  9
$ATTMODE
 70
     1
  9
$TEXTSIZE
 40
0.2
  9
$TRACEWID
 40
0.05
  9
$TEXTSTYLE
  7
STANDARD
  9
$CLAYER
  8
0
  9
$CELTYPE
  6
BYLAYER
  9
$CECOLOR
 62
   256
  9
$DIMSCALE
 40
1.0
  9
$DIMASZ
 40
0.1875
  9
$DIMEXO
 40
0.0625
  9
$DIMDLI
 40
0.4443307087
  9
$DIMRND
 40
0.0
  9
$DIMDLE
 40
0.0
  9
$DIMEXE
 40
0.125
  9
$DIMTP
 40
0.01
  9
$DIMTM
 40
0.01
  9
$DIMTXT
 40
2.0
  9
$DIMCEN
 40
0.1052362205
  9
$DIMTSZ
 40
0.0
  9
$DIMTOL
 70
     1
  9
$DIMLIM
 70
     0
  9
$DIMTIH
 70
     1
  9
$DIMTOH
 70
     1
  9
$DIMSE1
 70
     0
  9
$DIMSE2
 70
     0
  9
$DIMTAD
 70
     0
  9
$DIMZIN
 70
     0
  9
$DIMBLK
  1

  9
$DIMASO
 70
     1
  9
$DIMSHO
 70
     1
  9
$DIMPOST
  1
\X
  9
$DIMAPOST
  1

  9
$DIMALT
 70
     1
  9
$DIMALTD
 70
     2
  9
$DIMALTF
 40
25.3999999999999986
  9
$DIMLFAC
 40
1.0
  9
$DIMTOFL
 70
     0
  9
$DIMTVP
 40
0.0
  9
$DIMTIX
 70
     0
  9
$DIMSOXD
 70
     0
  9
$DIMSAH
 70
     0
  9
$DIMBLK1
  1

  9
$DIMBLK2
  1

  9
$DIMSTYLE
  2
STANDARD
  9
$DIMCLRD
 70
     0
  9
$DIMCLRE
 70
     0
  9
$DIMCLRT
 70
     0
  9
$DIMTFAC
 40
1.0
  9
$DIMGAP
 40
0.09
  9
$LUNITS
 70
     2
  9
$LUPREC
 70
     4
  9
$SKETCHINC
 40
0.1
  9
$FILLETRAD
 40
0.0
  9
$AUNITS
 70
     0
  9
$AUPREC
 70
     0
  9
$MENU
  1
.
  9
$ELEVATION
 40
0.0
  9
$PELEVATION
 40
0.0
  9
$THICKNESS
 40
0.0
  9
$LIMCHECK
 70
     0
  9
$BLIPMODE
 70
     0
  9
$CHAMFERA
 40
0.0
  9
$CHAMFERB
 40
0.0
  9
$SKPOLY
 70
     0
  9
$TDCREATE
 40
2458060.468368056230247
  9
$TDUPDATE
 40
2459697.6029398147948086
  9
$TDINDWG
 40
0.4068010417
  9
$TDUSRTIMER
 40
0.4068010417
  9
$USRTIMER
 70
     1
  9
$ANGBASE
 50
0.0
  9
$ANGDIR
 70
     0
  9
$PDMODE
 70
     0
  9
$PDSIZE
 40
0.3125
  9
$PLINEWID
 40
0.0
  9
$COORDS
 70
     1
  9
$SPLFRAME
 70
     0
  9
$SPLINETYPE
 70
     6
  9
$SPLINESEGS
 70
     8
  9
$ATTDIA
 70
     1
  9
$ATTREQ
 70
     1
  9
$HANDLING
 70
     1
  9
$HANDSEED
  5
BF0D
  9
$SURFTAB1
 70
     6
  9
$SURFTAB2
 70
     6
  9
$SURFTYPE
 70
     6
  9
$SURFU
 70
     6
  9
$SURFV
 70
     6
  9
$UCSNAME
  2

  9
$UCSORG
 10
0.0
 20
0.0
 30
0.0
  9
$UCSXDIR
 10
1.0
 20
0.0
 30
0.0
  9
$UCSYDIR
 10
0.0
 20
1.0
 30
0.0
  9
$PUCSNAME
  2

  9
$PUCSORG
 10
0.0
 20
0.0
 30
0.0
  9
$PUCSXDIR
 10
1.0
 20
0.0
 30
0.0
  9
$PUCSYDIR
 10
0.0
 20
1.0
 30
0.0
  9
$USERI1
 70
     0
  9
$USERI2
 70
     0
  9
$USERI3
 70
     0
  9
$USERI4
 70
     0
  9
$USERI5
 70
     0
  9
$USERR1
 40
0.0
  9
$USERR2
 40
0.0
  9
$USERR3
 40
0.0
  9
$USERR4
 40
0.0
  9
$USERR5
 40
0.0
  9
$WORLDVIEW
 70
     1
  9
$SHADEDGE
 70
     3
  9
$SHADEDIF
 70
    70
  9
$TILEMODE
 70
     1
  9
$MAXACTVP
 70
    64
  9
$PLIMCHECK
 70
     0
  9
$PEXTMIN
 10
1.0000000000000000E+20
 20
1.0000000000000000E+20
 30
1.0000000000000000E+20
  9
$PEXTMAX
 10
-1.0000000000000000E+20
 20
-1.0000000000000000E+20
 30
-1.0000000000000000E+20
  9
$PLIMMIN
 10
0.0
 20
0.0
  9
$PLIMMAX
 10
12.0
 20
9.0
  9
$UNITMODE
 70
     0
  9
$VISRETAIN
 70
     1
  9
$PLINEGEN
 70
     0
  9
$PSLTSCALE
 70
     1
  0
ENDSEC
  0
SECTION
  2
TABLES
  0
TABLE
  2
VPORT
 70
     1
  0
VPORT
  2
*ACTIVE
 70
     0
 10
0.0
 20
0.0
 11
1.0
 21
1.0
 12
676.0856333758374603
 22
38.3760354222643087
 13
0.0
 23
0.0
 14
1.0
 24
1.0
 15
0.0
 25
0.0
 16
0.0
 26
0.0
 36
17.1152628219792007
 17
3803.5440673828129547
 27
125.9952621967499056
 37
0.0
 40
34.1697523730197616
 41
2.005224660397074
 42
50.0
 43
0.0
 44
0.0
 50
0.0
 51
0.0
 71
     0
 72
   100
 73
     1
 74
     1
 75
     0
 76
     0
 77
     0
 78
     0
  0
ENDTAB
  0
TABLE
  2
LTYPE
 70
     2
  0
LTYPE
  2
CONTINUOUS
 70
     0
  3
Solid line
 72
    65
 73
     0
 40
0.0
  0
LTYPE
  2
PHANTOM2
 70
     0
  3
___ _ _ ___ _ _ ___ _ _ ___ _ _
 72
    65
 73
     6
 40
1.25
 49
0.625
 49
-0.125
 49
0.125
 49
-0.125
 49
0.125
 49
-0.125
  0
ENDTAB
  0
TABLE
  2
LAYER
 70
     2
  0
LAYER
  2
0
 70
     0
 62
   255
  6
CONTINUOUS
  0
LAYER
  2
DEFPOINTS
 70
     0
 62
     7
  6
CONTINUOUS
  0
ENDTAB
  0
TABLE
  2
STYLE
 70
     1
  0
STYLE
  2
STANDARD
 70
     0
 40
0.0
 41
0.8
 50
0.0
 71
     0
 42
0.2
  3
txt
  4

  0
ENDTAB
  0
TABLE
  2
VIEW
 70
     0
  0
ENDTAB
  0
TABLE
  2
UCS
 70
     0
  0
ENDTAB
  0
TABLE
  2
APPID
 70
     9
  0
APPID
  2
ACAD
 70
     0
  0
APPID
  2
ACAD_MLEADERVER
 70
     0
  0
APPID
  2
ACAD_EXEMPT_FROM_CAD_STANDARDS
 70
     0
  0
APPID
  2
ACAD_NAV_VCDISPLAY
 70
     0
  0
APPID
  2
ACAECLAYERSTANDARD
 70
     0
  0
APPID
  2
ACCMTRANSPARENCY
 70
     0
  0
APPID
  2
ACAD_DSTYLE_DIMJAG
 70
     0
  0
APPID
  2
ACAD_DSTYLE_DIMTALN
 70
     0
  0
APPID
  2
ACDBATTR
 70
     0
  0
ENDTAB
  0
TABLE
  2
DIMSTYLE
 70
     1
  0
DIMSTYLE
  2
STANDARD
 70
     0
  3

  4

  5

  6

  7

 40
1.0
 41
0.1875
 42
0.0625
 43
0.38
 44
0.125
 45
0.0
 46
0.0
 47
0.01
 48
0.01
140
0.15625
141
0.09
142
0.0
143
25.3999999999999986
144
1.0
145
0.0
146
1.0
147
0.09
 71
     1
 72
     0
 73
     1
 74
     1
 75
     0
 76
     0
 77
     0
 78
     4
170
     0
171
     2
172
     0
173
     0
174
     0
175
     0
176
     0
177
     0
178
     0
  0
ENDTAB
  0
ENDSEC
  0
SECTION
  2
BLOCKS
  0
BLOCK
  8
0
  2
$MODEL_SPACE
 70
     0
 10
0.0
 20
0.0
 30
0.0
  3
$MODEL_SPACE
  1

  0
ENDBLK
  5
21
  8
0
  0
BLOCK
 67
     1
  8
0
  2
$PAPER_SPACE
 70
     0
 10
0.0
 20
0.0
 30
0.0
  3
$PAPER_SPACE
  1

  0
ENDBLK
  5
1D
 67
     1
  8
0
  0
ENDSEC
  0
SECTION
  2
ENTITIES
  0
ATTDEF
  5
3930
  8
DEFPOINTS
 10
4488.9048484501381608
 20
164.0950526978417088
 30
0.0
 40
0.001
  1
K-45210
  3

  2
MODELNUMBER
 70
     0
1001
ACDBATTR
1070
     0
1070
     1
  0
ATTDEF
  5
3931
  8
DEFPOINTS
 10
4488.9048484501381608
 20
164.0933860311749868
 30
0.0
 40
0.001
  1
HYDRORAIL
  3

  2
TRADENAME
 70
     0
1001
ACDBATTR
1070
     0
1070
     1
  0
ATTDEF
  5
3932
  8
DEFPOINTS
 10
4488.9048484501381608
 20
164.0917193645084069
 30
0.0
 40
0.001
  1
SHOWER COLUMN KIT
  3

  2
PRODUCT
 70
     0
1001
ACDBATTR
1070
     0
1070
     1
  0
LINE
  5
BCE3
  8
0
 10
4470.6544345275669912
 20
180.362181644081204
 30
0.0
 11
4470.6478372982655856
 21
180.3580518413812115
 31
0.0
  0
LINE
  5
BCE4
  8
0
 10
4470.307837298267259
 20
181.3070460895812062
 30
0.0
 11
4470.307837298267259
 21
180.3930575930812097
 31
0.0
  0
LINE
  5
BCE5
  8
0
 10
4470.6598372982671208
 20
180.3600518413811926
 30
0.0
 11
4470.6598372982671208
 21
180.365524225681213
 31
0.0
  0
LINE
  5
BCE6
  8
0
 10
4488.3934908426672337
 20
178.1959954084811955
 30
0.0
 11
4488.4058287932666644
 21
178.2031187276811863
 31
0.0
  0
LINE
  5
BCE7
  8
0
 10
4470.5387291933084271
 20
180.2108051164821916
 30
0.0
 11
4470.5378372982668225
 21
180.2400518413811881
 31
0.0
  0
LINE
  5
BCE8
  8
0
 10
4471.2558372982666697
 20
180.3600518413811926
 30
0.0
 11
4471.2558372982666697
 21
180.3655213375812139
 31
0.0
  0
LINE
  5
BCE9
  8
0
 10
4486.8778372982660585
 20
148.8750518413812074
 30
0.0
 11
4485.9378372982673682
 21
148.8750518413812074
 31
0.0
  0
LINE
  5
BCEA
  8
0
 10
4485.9528372982658766
 20
148.8830518413811888
 30
0.0
 11
4486.8628372982666406
 21
148.8830518413811888
 31
0.0
  0
LINE
  5
BCEB
  8
0
 10
4485.8578373020673098
 20
149.5900518413812108
 30
0.0
 11
4486.9578372982668952
 21
149.5900518413812108
 31
0.0
  0
LINE
  5
BCEC
  8
0
 10
4484.5528372982671499
 20
150.1000518413812017
 30
0.0
 11
4484.5228372982674045
 21
150.1000518413812017
 31
0.0
  0
LINE
  5
BCED
  8
0
 10
4484.572837298266677
 20
150.1000518413812017
 30
0.0
 11
4485.717837366067215
 21
150.1000518413812017
 31
0.0
  0
LINE
  5
BCEE
  8
0
 10
4487.0978372301669879
 20
150.1015518413811947
 30
0.0
 11
4487.4428372982656583
 21
150.1015455084811947
 31
0.0
  0
LINE
  5
BCEF
  8
0
 10
4488.5836469833666342
 20
149.0957106043811962
 30
0.0
 11
4488.9078372982658038
 21
149.0900518413812108
 31
0.0
  0
LINE
  5
BCF0
  8
0
 10
4487.482139202066719
 20
150.0313594911812061
 30
0.0
 11
4488.2728539439667657
 21
150.0175575140756905
 31
0.0
  0
LINE
  5
BCF1
  8
0
 10
4487.482139202066719
 20
151.1487315256811996
 30
0.0
 11
4488.2728539439667657
 21
151.1625335029812049
 31
0.0
  0
LINE
  5
BCF2
  8
0
 10
4488.5836469833666342
 20
152.084393078381197
 30
0.0
 11
4488.9078372982658038
 21
152.0900518413812108
 31
0.0
  0
LINE
  5
BCF3
  8
0
 10
4487.0978372304671211
 20
151.0785518413811985
 30
0.0
 11
4487.4428372982656583
 21
151.0785455084811986
 31
0.0
  0
LINE
  5
BCF4
  8
0
 10
4484.7274317928358869
 20
151.0800518413811915
 30
0.0
 11
4484.572837298266677
 21
151.0800518413811915
 31
0.0
  0
LINE
  5
BCF5
  8
0
 10
4484.5528372982671499
 20
151.0800518413811915
 30
0.0
 11
4484.5228372982674045
 21
151.0800518413811915
 31
0.0
  0
LINE
  5
BCF6
  8
0
 10
4485.1482449587228984
 20
151.0800518413811915
 30
0.0
 11
4485.7178373493670733
 21
151.0800518413811915
 31
0.0
  0
LINE
  5
BCF7
  8
0
 10
4485.8235888505669209
 20
164.7090896367828918
 30
0.0
 11
4486.1628372982668225
 21
164.7090896367828918
 31
0.0
  0
LINE
  5
BCF8
  8
0
 10
4486.6528373020655636
 20
164.7090896367828918
 30
0.0
 11
4486.9920799152669133
 21
164.7090896367828918
 31
0.0
  0
LINE
  5
BCF9
  8
0
 10
4485.8939892076659817
 20
165.3090896367828861
 30
0.0
 11
4486.9216859694670347
 21
165.3090896367828861
 31
0.0
  0
LINE
  5
BCFA
  8
0
 10
4485.9078372982658038
 20
149.3432880617812089
 30
0.0
 11
4485.9528372982658766
 21
149.2982880617811929
 31
0.0
  0
LINE
  5
BCFB
  8
0
 10
4487.0528053294819983
 20
166.2184788015831032
 30
0.0
 11
4486.9719539311336121
 21
166.2184788024829061
 31
0.0
  0
LINE
  5
BCFC
  8
0
 10
4485.8437206653989051
 20
166.2184788024829061
 30
0.0
 11
4485.7628692671496538
 21
166.2184788015831032
 31
0.0
  0
LINE
  5
BCFD
  8
0
 10
4485.7628479604672975
 20
166.2197004716828985
 30
0.0
 11
4485.843699341096908
 21
166.2197004709829002
 31
0.0
  0
LINE
  5
BCFE
  8
0
 10
4486.9719752554356091
 20
166.2197004709829002
 30
0.0
 11
4487.0528266361670831
 21
166.2197004716828985
 31
0.0
  0
LINE
  5
BCFF
  8
0
 10
4486.9372205986655899
 20
166.2690896367828941
 30
0.0
 11
4486.7972317024668882
 21
166.2690896367828941
 31
0.0
  0
LINE
  5
BD00
  8
0
 10
4486.0184428941656734
 20
166.2690896367828941
 30
0.0
 11
4485.8784540000669949
 21
166.2690896367828941
 31
0.0
  0
LINE
  5
BD01
  8
0
 10
4485.8015954687671183
 20
166.4690896367829112
 30
0.0
 11
4487.014077750265642
 21
166.4690896367829112
 31
0.0
  0
LINE
  5
BD02
  8
0
 10
4485.7885941812673991
 20
164.7434788024829118
 30
0.0
 11
4485.7628479604672975
 21
166.2197004716828985
 31
0.0
  0
LINE
  5
BD03
  8
0
 10
4484.4928372982667497
 20
150.1300518392336869
 30
0.0
 11
4484.4928372982667497
 21
151.0500506344810958
 31
0.0
  0
LINE
  5
BD04
  8
0
 10
4484.572837298266677
 20
151.0800518413811915
 30
0.0
 11
4484.572837298266677
 21
150.1000518413812017
 31
0.0
  0
LINE
  5
BD05
  8
0
 10
4485.807837298267259
 20
149.6400518413811938
 30
0.0
 11
4485.807837298267259
 21
150.0100518413811983
 31
0.0
  0
LINE
  5
BD06
  8
0
 10
4485.807837298267259
 20
151.1700518413811949
 30
0.0
 11
4485.807837298267259
 21
151.5400518413811994
 31
0.0
  0
LINE
  5
BD07
  8
0
 10
4485.807837298267259
 20
176.9900518412812005
 30
0.0
 11
4485.807837298267259
 21
178.1900518412811891
 31
0.0
  0
LINE
  5
BD08
  8
0
 10
4485.7666007994657775
 20
166.4347004709829037
 30
0.0
 11
4485.7628479604672975
 21
166.2197004716828985
 31
0.0
  0
LINE
  5
BD09
  8
0
 10
4485.8589939577668702
 20
165.3434788025828936
 30
0.0
 11
4485.8434589500666334
 21
166.2334788023829049
 31
0.0
  0
LINE
  5
BD0A
  8
0
 10
4486.0689725712672953
 20
165.3447004708829127
 30
0.0
 11
4486.0534375634670141
 21
166.2347004709828866
 31
0.0
  0
LINE
  5
BD0B
  8
0
 10
4487.0490737970612827
 20
166.4347004788216964
 30
0.0
 11
4487.0528266361670831
 21
166.2197004716828985
 31
0.0
  0
LINE
  5
BD0C
  8
0
 10
4485.9078372982658038
 20
147.9720871957811994
 30
0.0
 11
4485.9078372982658038
 21
148.8450518413810926
 31
0.0
  0
LINE
  5
BD0D
  8
0
 10
4485.9078372982658038
 20
149.3432880617812089
 30
0.0
 11
4485.9078372982658038
 21
149.4632880617812134
 31
0.0
  0
LINE
  5
BD0E
  8
0
 10
4485.9158372982674337
 20
176.9400518412811891
 30
0.0
 11
4485.9158372982674337
 21
166.4690896367829112
 31
0.0
  0
LINE
  5
BD0F
  8
0
 10
4485.9158372982674337
 20
164.7090896367828918
 30
0.0
 11
4485.9158372982674337
 21
151.5900518413812108
 31
0.0
  0
LINE
  5
BD10
  8
0
 10
4485.9528372982658766
 20
148.8830518413811888
 30
0.0
 11
4485.9528372982658766
 21
149.2982880617811929
 31
0.0
  0
LINE
  5
BD11
  8
0
 10
4486.0503372982666406
 20
149.5600518413812097
 30
0.0
 11
4486.0503372982666406
 21
149.4932880617811861
 31
0.0
  0
LINE
  5
BD12
  8
0
 10
4486.0928372982671135
 20
148.8830518413811888
 30
0.0
 11
4486.0928372982671135
 21
148.8750518413812074
 31
0.0
  0
LINE
  5
BD13
  8
0
 10
4486.7228372982672226
 20
148.8830518413811888
 30
0.0
 11
4486.7228372982672226
 21
148.8750518413812074
 31
0.0
  0
LINE
  5
BD14
  8
0
 10
4486.7653372982658766
 20
149.5600518413812097
 30
0.0
 11
4486.7653372982658766
 21
149.4932880617811861
 31
0.0
  0
LINE
  5
BD15
  8
0
 10
4486.8628372982666406
 20
149.2982880617811929
 30
0.0
 11
4486.8628372982666406
 21
148.8830518413811888
 31
0.0
  0
LINE
  5
BD16
  8
0
 10
4486.899837298265993
 20
176.9400518412811891
 30
0.0
 11
4486.899837298265993
 21
166.4690896367829112
 31
0.0
  0
LINE
  5
BD17
  8
0
 10
4486.899837298265993
 20
164.7090896367828918
 30
0.0
 11
4486.899837298265993
 21
151.5900518413812108
 31
0.0
  0
LINE
  5
BD18
  8
0
 10
4486.9078372982667133
 20
147.9720871957811994
 30
0.0
 11
4486.9078372982667133
 21
148.8450518413810926
 31
0.0
  0
LINE
  5
BD19
  8
0
 10
4486.9078353721670283
 20
149.3432861356812111
 30
0.0
 11
4486.9078372982667133
 21
149.4632880617812134
 31
0.0
  0
LINE
  5
BD1A
  8
0
 10
4487.0078372982670771
 20
149.6400518413811938
 30
0.0
 11
4487.0078372982670771
 21
150.0115518413811913
 31
0.0
  0
LINE
  5
BD1B
  8
0
 10
4487.0078372982670771
 20
151.1685518413812019
 30
0.0
 11
4487.0078372982670771
 21
151.5400518413811994
 31
0.0
  0
LINE
  5
BD1C
  8
0
 10
4487.0078372982670771
 20
176.9900518412812005
 30
0.0
 11
4487.0078372982670771
 21
177.0115518412812037
 31
0.0
  0
LINE
  5
BD1D
  8
0
 10
4487.0078372982670771
 20
178.1685518412811859
 30
0.0
 11
4487.0078372982670771
 21
178.1900518412811891
 31
0.0
  0
LINE
  5
BD1E
  8
0
 10
4487.4428372982656583
 20
150.0713544558811918
 30
0.0
 11
4487.4428372982656583
 21
151.1087365609812139
 31
0.0
  0
LINE
  5
BD1F
  8
0
 10
4487.4428372982656583
 20
177.0713607886812042
 30
0.0
 11
4487.4428372982656583
 21
178.1087439506812018
 31
0.0
  0
LINE
  5
BD20
  8
0
 10
4486.7622370331673665
 20
166.2347004709828866
 30
0.0
 11
4486.7467020253661758
 21
165.3447004708829127
 31
0.0
  0
LINE
  5
BD21
  8
0
 10
4486.956680638765647
 20
165.3434788025828936
 30
0.0
 11
4486.9722156465668377
 21
166.2334788023829049
 31
0.0
  0
LINE
  5
BD22
  8
0
 10
4487.0270804153669815
 20
164.7434788024829118
 30
0.0
 11
4487.0528266361670831
 21
166.2197004716828985
 31
0.0
  0
LINE
  5
BD23
  8
0
 10
4486.8628372982666406
 20
149.2982880617811929
 30
0.0
 11
4486.9078353721670283
 21
149.3432861356812111
 31
0.0
  0
LINE
  5
BD24
  8
0
 10
4488.4203934133483926
 20
178.2280835343536864
 30
0.0
 11
4488.420393413365673
 21
176.952020148181191
 31
0.0
  0
LINE
  5
BD25
  8
0
 10
4488.420393413365673
 20
151.2280835343811987
 30
0.0
 11
4488.4203934688657682
 21
149.9520191060811953
 31
0.0
  0
LINE
  5
BD26
  8
0
 10
4488.4860810687659978
 20
151.9961255796812054
 30
0.0
 11
4488.4860810687659978
 21
149.1839780997536877
 31
0.0
  0
LINE
  5
BD27
  8
0
 10
4488.9078372982658038
 20
149.0900521929812044
 30
0.0
 11
4488.9078372982658038
 21
152.0900514896812012
 31
0.0
  0
LINE
  5
BD28
  8
0
 10
4488.9078372982658038
 20
176.0900518412811948
 30
0.0
 11
4488.9078372982658038
 21
179.0900518412811948
 31
0.0
  0
LINE
  5
BD29
  8
0
 10
4470.6063372982662258
 20
179.7900518413811994
 30
0.0
 11
4470.5724827818876292
 21
179.8239063577593129
 31
0.0
  0
LINE
  5
BD2A
  8
0
 10
4488.5836469830655915
 20
176.0957106042812086
 30
0.0
 11
4488.9078372982658038
 21
176.0900518412811948
 31
0.0
  0
LINE
  5
BD2B
  8
0
 10
4487.482139202066719
 20
178.1487378584810983
 30
0.0
 11
4488.2728539440659006
 21
178.1625398356812013
 31
0.0
  0
LINE
  5
BD2C
  8
0
 10
4485.8578373020673098
 20
176.9400518412811891
 30
0.0
 11
4486.9578372945670708
 21
176.9400518412811891
 31
0.0
  0
LINE
  5
BD2D
  8
0
 10
4487.4428372982656583
 20
177.1015518412812071
 30
0.0
 11
4487.0978372432673495
 21
177.1015518412812071
 31
0.0
  0
LINE
  5
BD2E
  8
0
 10
4487.4428372982656583
 20
178.078551841281211
 30
0.0
 11
4487.0978372400659282
 21
178.078551841281211
 31
0.0
  0
LINE
  5
BD2F
  8
0
 10
4487.482139202066719
 20
177.03136582398119
 30
0.0
 11
4488.2728539440659006
 21
177.0175638467812007
 31
0.0
  0
LINE
  5
BD30
  8
0
 10
4471.2678372982672954
 20
180.3580518413812115
 30
0.0
 11
4471.2614987686656605
 21
180.3620207435812119
 31
0.0
  0
LINE
  5
BD31
  8
0
 10
4488.5836469830655915
 20
179.0843930782812095
 30
0.0
 11
4488.9078372982658038
 21
179.0900518412811948
 31
0.0
  0
LINE
  5
BD32
  8
0
 10
4486.9578266509670357
 20
178.2400518412812005
 30
0.0
 11
4485.8578373020509389
 21
178.2400518412812005
 31
0.0
  0
LINE
  5
BD33
  8
0
 10
4488.393490831458621
 20
176.9841082803976064
 30
0.0
 11
4488.4058287932666644
 21
176.9769849548812033
 31
0.0
  0
LINE
  5
BD34
  8
0
 10
4470.6063372982662258
 20
179.7900518413811994
 30
0.0
 11
4471.3093372983012159
 21
179.7900518413811994
 31
0.0
  0
LINE
  5
BD35
  8
0
 10
4470.3978372982674045
 20
180.3580518413812115
 30
0.0
 11
4470.3428372982671135
 21
180.3580518413812115
 31
0.0
  0
LINE
  5
BD36
  8
0
 10
4470.4078372982658038
 20
180.3580518413812115
 30
0.0
 11
4470.6478372982655856
 21
180.3580518413812115
 31
0.0
  0
LINE
  5
BD37
  8
0
 10
4471.2678372982672954
 20
180.3580518413812115
 30
0.0
 11
4483.9078372982667133
 21
180.3580518412811955
 31
0.0
  0
LINE
  5
BD38
  8
0
 10
4470.3428372982671135
 20
181.3420518413817035
 30
0.0
 11
4470.3978372982674045
 21
181.3420518413813056
 31
0.0
  0
LINE
  5
BD39
  8
0
 10
4470.4078372982658038
 20
181.3420518413811919
 30
0.0
 11
4483.9078372982667133
 21
181.3420518412812044
 31
0.0
  0
ARC
  5
BD3A
  8
0
 10
4484.5228372982674045
 20
150.1300518413812028
 30
0.0
 40
0.03
 50
180.00000410139981
 51
270.0
  0
ARC
  5
BD3B
  8
0
 10
4484.5228372982837755
 20
151.0500518413396946
 30
0.0
 40
0.0300000000414436
 50
90.000000032777308
 51
180.0023049300548053
  0
ARC
  5
BD3C
  8
0
 10
4484.5528372982671499
 20
151.0600518413812097
 30
0.0
 40
0.02
 50
0.0000199122997187
 51
90.0
  0
ARC
  5
BD3D
  8
0
 10
4484.5528372982671499
 20
150.1200518413812119
 30
0.0
 40
0.02
 50
270.0
 51
359.9999800876993845
  0
ARC
  5
BD3E
  8
0
 10
4470.690799352929389
 20
179.4453635712071105
 30
0.0
 40
1.079795441132263
 50
58.0941177714139485
 51
58.4473132107819069
  0
ARC
  5
BD3F
  8
0
 10
4471.423471723239345
 20
179.1251886184597879
 30
0.0
 40
1.4565610023419679
 50
121.6192602814912931
 51
121.8691709832462067
  0
ARC
  5
BD40
  8
0
 10
4470.5398096335966329
 20
180.3600633004622011
 30
0.0
 40
0.1200276652168675
 50
269.0584539296035018
 51
359.9945299529084082
  0
ARC
  5
BD41
  8
0
 10
4471.375864962936248
 20
180.3600633004622011
 30
0.0
 40
0.1200276652168673
 50
180.0054700470915918
 51
270.9415460703964982
  0
ARC
  5
BD42
  8
0
 10
4470.3428372986008981
 20
181.3070518405745872
 30
0.0
 40
0.0350000008065692
 50
90.0000005468966151
 51
180.0094145041564957
  0
ARC
  5
BD43
  8
0
 10
4470.3428372986008981
 20
180.3930518421877025
 30
0.0
 40
0.0350000008065691
 50
179.9905856595306091
 51
269.9999994530513163
  0
ARC
  5
BD44
  8
0
 10
4488.585392224385032
 20
149.1956953746860108
 30
0.0
 40
0.1000000008102029
 50
186.7240427443767885
 51
268.9999996062196033
  0
ARC
  5
BD45
  8
0
 10
4485.8578372982656219
 20
149.6400518413811938
 30
0.0
 40
0.05
 50
180.0
 51
270.0000043501080995
  0
ARC
  5
BD46
  8
0
 10
4486.9578372982668952
 20
149.6400518413811938
 30
0.0
 40
0.05
 50
269.9999956498920142
 51
0.0
  0
ARC
  5
BD47
  8
0
 10
4487.4828372982774454
 20
151.1087376178570025
 30
0.0
 40
0.0400000000243591
 50
91.0000001553920157
 51
180.0015138630965055
  0
ARC
  5
BD48
  8
0
 10
4487.4828372982774454
 20
150.0713533990052895
 30
0.0
 40
0.0400000000243638
 50
179.9984861369059104
 51
268.9999998446079985
  0
ARC
  5
BD49
  8
0
 10
4486.8778372982660585
 20
149.4632880617812134
 30
0.0
 40
0.03
 50
0.0
 51
90.0
  0
ARC
  5
BD4A
  8
0
 10
4485.9378372982673682
 20
149.4632880617812134
 30
0.0
 40
0.03
 50
90.0
 51
180.0
  0
ARC
  5
BD4B
  8
0
 10
4486.8778372982660585
 20
148.8450518413810926
 30
0.0
 40
0.03
 50
0.0
 51
90.0
  0
ARC
  5
BD4C
  8
0
 10
4485.9378372982673682
 20
148.8450518413810926
 30
0.0
 40
0.03
 50
90.0
 51
180.0
  0
ARC
  5
BD4D
  8
0
 10
4486.0203372982659857
 20
149.5600518413812097
 30
0.0
 40
0.03
 50
0.0
 51
90.0
  0
ARC
  5
BD4E
  8
0
 10
4486.7953372982674409
 20
149.5600518413812097
 30
0.0
 40
0.03
 50
90.0
 51
180.0
  0
ARC
  5
BD4F
  8
0
 10
4485.8578372982656219
 20
151.5400518413811994
 30
0.0
 40
0.05
 50
89.9999956483807466
 51
180.0
  0
ARC
  5
BD50
  8
0
 10
4486.9578372982668952
 20
151.5400518413811994
 30
0.0
 40
0.05
 50
0.0
 51
90.0000043516192392
  0
ARC
  5
BD51
  8
0
 10
4485.8939886271746218
 20
165.344089636786407
 30
0.0
 40
0.0350000000083881
 50
181.0000000056178919
 51
270.0009502777908779
  0
ARC
  5
BD52
  8
0
 10
4486.0339779018659101
 20
165.3440896367829112
 30
0.0
 40
0.035
 50
270.0
 51
0.9999999126995579
  0
ARC
  5
BD53
  8
0
 10
4485.8235888505669209
 20
164.7440896367828884
 30
0.0
 40
0.035
 50
181.0000004759000092
 51
270.0
  0
ARC
  5
BD54
  8
0
 10
4486.0184428941656734
 20
166.2340896367828975
 30
0.0
 40
0.035
 50
1.000000085199426
 51
90.0000001671174346
  0
ARC
  5
BD55
  8
0
 10
4485.8784536193697932
 20
166.2340896367815049
 30
0.0
 40
0.0350000000034632
 50
89.9993767913557434
 51
180.9999999976191987
  0
ARC
  5
BD56
  8
0
 10
4485.8015954687671183
 20
166.4340896367828861
 30
0.0
 40
0.035
 50
90.0
 51
178.9999998040007085
  0
ARC
  5
BD57
  8
0
 10
4486.9216859694670347
 20
165.3440896367829112
 30
0.0
 40
0.035
 50
270.000001814790096
 51
358.9999999999993747
  0
ARC
  5
BD58
  8
0
 10
4486.781696694765742
 20
165.3440896367829112
 30
0.0
 40
0.035
 50
179.0000001219991077
 51
270.0
  0
ARC
  5
BD59
  8
0
 10
4486.9920857452261771
 20
164.7440896371439862
 30
0.0
 40
0.0350000008466469
 50
269.9904562265813865
 51
358.9999989570781054
  0
ARC
  5
BD5A
  8
0
 10
4486.9372209772627684
 20
166.2340896367815049
 30
0.0
 40
0.0350000000034209
 50
359.0000000023497932
 51
90.000619770985935
  0
ARC
  5
BD5B
  8
0
 10
4486.7972317025660232
 20
166.2340896367828975
 30
0.0
 40
0.035
 50
90.0
 51
178.9999999415005902
  0
ARC
  5
BD5C
  8
0
 10
4487.0140791278199686
 20
166.4340896367627067
 30
0.0
 40
0.0350000000472868
 50
1.000012824469144
 51
90.0022550850890042
  0
ARC
  5
BD5D
  8
0
 10
4488.5853922240667089
 20
151.9844083087812123
 30
0.0
 40
0.0999999999999926
 50
91.0000002196015885
 51
173.2710406064134929
  0
ARC
  5
BD5E
  8
0
 10
4500.4034195569656731
 20
150.5900518413812108
 30
0.0
 40
12.0
 50
173.2710345837020043
 51
176.952185898201094
  0
ARC
  5
BD5F
  8
0
 10
4500.4034195854283098
 20
150.5900518425605981
 30
0.0
 40
12.0000000283360997
 50
183.047814097326409
 51
186.7289244298044082
  0
ARC
  5
BD60
  8
0
 10
4500.4034195569656731
 20
177.5900518412811948
 30
0.0
 40
12.0
 50
173.2710345837020043
 51
176.952185898201094
  0
ARC
  5
BD61
  8
0
 10
4500.4034195569656731
 20
177.5900518412811948
 30
0.0
 40
12.0
 50
183.0478141017987923
 51
186.7289804578981887
  0
ARC
  5
BD62
  8
0
 10
4488.2684908426672337
 20
178.4125017594811879
 30
0.0
 40
0.25
 50
270.9999999999757279
 51
299.9999970341983726
  0
ARC
  5
BD63
  8
0
 10
4488.2684908426672337
 20
176.7676019229812141
 30
0.0
 40
0.25
 50
60.000002965801599
 51
89.0000000000242579
  0
ARC
  5
BD64
  8
0
 10
4488.5853922240667089
 20
178.9844083086811963
 30
0.0
 40
0.1
 50
91.0000002196015885
 51
173.2710405174003085
  0
ARC
  5
BD65
  8
0
 10
4488.5853922240667089
 20
176.1956953737812057
 30
0.0
 40
0.1
 50
186.7289594825996062
 51
268.9999997803984115
  0
ARC
  5
BD66
  8
0
 10
4488.4308287932672101
 20
178.1598174574812106
 30
0.0
 40
0.05
 50
102.0466249382964037
 51
119.9999987853805976
  0
ARC
  5
BD67
  8
0
 10
4488.4308287932672101
 20
177.0202862249811915
 30
0.0
 40
0.05
 50
240.0000012146190045
 51
257.9533750617035821
  0
ARC
  5
BD68
  8
0
 10
4485.8578372982656219
 20
178.1900518412811891
 30
0.0
 40
0.05
 50
89.9999956633885034
 51
180.0
  0
ARC
  5
BD69
  8
0
 10
4486.9578372982668952
 20
176.9900518412812005
 30
0.0
 40
0.05
 50
269.9999956618252099
 51
0.0
  0
ARC
  5
BD6A
  8
0
 10
4485.8578372982656219
 20
176.9900518412812005
 30
0.0
 40
0.05
 50
180.0
 51
270.0000043381747901
  0
ARC
  5
BD6B
  8
0
 10
4486.9578372963333095
 20
178.1900518404798959
 30
0.0
 40
0.0500000019345421
 50
0.0000009182388588
 51
90.0121986898624016
  0
ARC
  5
BD6C
  8
0
 10
4487.4828372982674409
 20
178.1087439506812018
 30
0.0
 40
0.04
 50
91.0000001411116273
 51
180.0
  0
ARC
  5
BD6D
  8
0
 10
4487.4828372982774454
 20
177.0713597318053871
 30
0.0
 40
0.0400000000243638
 50
179.9984861369001976
 51
268.9999998446079985
  0
ARC
  5
BD6E
  8
0
 10
4470.9578354469376791
 20
179.9834752121452937
 30
0.0
 40
0.4845248655699458
 50
52.0452214716544503
 51
127.9542232399210064
  0
ARC
  5
BD6F
  8
0
 10
4487.097836856270078
 20
177.0115522832778083
 30
0.0
 40
0.0899995580041811
 50
89.9997536289297102
 51
180.0002813851932046
  0
ARC
  5
BD70
  8
0
 10
4487.0998076735231734
 20
178.1705222152336034
 30
0.0
 40
0.0919914794899248
 50
181.2273174851713975
 51
268.7726475007036129
  0
ARC
  5
BD71
  8
0
 10
4487.0943740877646633
 20
151.1650886334878976
 30
0.0
 40
0.0866060606741824
 50
177.7082421862359922
 51
272.2917146509017243
  0
ARC
  5
BD72
  8
0
 10
4487.0943740877646633
 20
150.0150150491743943
 30
0.0
 40
0.0866060606741824
 50
87.7082853490983041
 51
182.291757813763212
  0
ARC
  5
BD73
  8
0
 10
4485.7235916043291581
 20
151.16429753858651
 30
0.0
 40
0.0844419856930357
 50
266.0925809483911735
 51
3.9074515828933469
  0
ARC
  5
BD74
  8
0
 10
4485.7213005087678539
 20
150.013515049274389
 30
0.0
 40
0.0866060606741863
 50
357.7082421862384081
 51
92.2917146509016959
  0
ARC
  5
BD75
  8
0
 10
4486.5659624248610271
 20
147.9945700529248995
 30
0.0
 40
0.3426133504862876
 50
296.3135752620750054
 51
356.2374520952225225
  0
ARC
  5
BD76
  8
0
 10
4486.2496592724301081
 20
147.9945360794002056
 30
0.0
 40
0.3425583372167465
 50
183.7574584036169085
 51
243.6923141241746009
  0
LINE
  5
BD77
  8
0
 10
4485.9378372982673682
 20
149.4932880617811861
 30
0.0
 11
4486.8778372982660585
 21
149.4932880617811861
 31
0.0
  0
LINE
  5
BD78
  8
0
 10
4485.8578372982656219
 20
151.5900518413812108
 30
0.0
 11
4486.9578372982668952
 21
151.5900518413812108
 31
0.0
  0
ARC
  5
BD79
  8
0
 10
4483.9064919241600364
 20
178.3468038208661994
 30
0.0
 40
2.9952483225655331
 50
357.9575204261142858
 51
89.9742644841188621
  0
ARC
  5
BD7A
  8
0
 10
4483.9058890190108286
 20
178.3453482790781948
 30
0.0
 40
2.012704505161329
 50
357.0011509945410921
 51
89.9445382087989174
  0
ARC
  5
BD7B
  8
0
 10
4488.3054953235714493
 20
177.128627906839597
 30
0.0
 40
1.662936601335754
 50
141.2918305093446918
 51
157.6652504939121116
  0
ARC
  5
BD7C
  8
0
 10
4487.2069838387787968
 20
177.5885609514118926
 30
0.0
 40
0.4721209834791728
 50
158.6331665401139901
 51
203.8208095753361988
  0
ARC
  5
BD7D
  8
0
 10
4488.6138127272088241
 20
178.242399318103196
 30
0.0
 40
2.0233987717618298
 50
204.6690139745400927
 51
217.467182755860108
  0
ARC
  5
BD7E
  8
0
 10
4488.3971906987653711
 20
150.0760300963009968
 30
0.0
 40
1.7674576755750031
 50
141.820165442653888
 51
157.6173019385240082
  0
ARC
  5
BD7F
  8
0
 10
4487.2123356445090394
 20
150.5878711473305032
 30
0.0
 40
0.4774753794487504
 50
160.2698489013507128
 51
206.4865602010052044
  0
ARC
  5
BD80
  8
0
 10
4488.6674704486185874
 20
151.2794562735479076
 30
0.0
 40
2.0885315039172339
 50
205.664162095717387
 51
217.3786221521932873
  0
ARC
  5
BD81
  8
0
 10
4484.1344298132617041
 20
149.8883890531178054
 30
0.0
 40
2.1078311397473168
 50
25.7843571214661296
 51
37.4485036592563674
  0
ARC
  5
BD82
  8
0
 10
4485.6019806447693554
 20
150.5909034946147926
 30
0.0
 40
0.4808446956639209
 50
336.3528512739966914
 51
26.4746015550810014
  0
ARC
  5
BD83
  8
0
 10
4484.1892557802011652
 20
151.2537321983654977
 30
0.0
 40
2.04121213032154
 50
322.4621632378264735
 51
335.2152660000508035
  0
ARC
  5
BD84
  8
0
 10
4486.4078385609900579
 20
148.2959953599317942
 30
0.0
 40
0.6829474129108173
 50
243.0050301778447874
 51
296.9950192846899881
  0
ARC
  5
BD85
  8
0
 10
4488.2597564022407823
 20
151.4630590156274081
 30
0.0
 40
0.300810786628579
 50
272.4954929435390909
 51
302.265866730407879
  0
ARC
  5
BD86
  8
0
 10
4488.255457669720272
 20
149.7032985029715064
 30
0.0
 40
0.3147401411087853
 50
58.3964946559162712
 51
86.8315407543774569
  0
LINE
  5
BD87
  8
0
 10
4488.4860810687850972
 20
178.9961255795491866
 30
0.0
 11
4488.4860810687659978
 21
176.1839781029349865
 31
0.0
  0
LINE
  5
BD88
  8
0
 10
4470.5378372982668225
 20
180.2400518413811881
 30
0.0
 11
4471.3782147556776181
 21
180.2400518413811881
 31
0.0
  0
ARC
  5
BD89
  8
0
 10
4486.4377203900630775
 20
148.1970935099697044
 30
0.0
 40
0.7912562324580678
 50
257.5521645531762829
 51
267.8356161518482281
  0
ARC
  5
BD8A
  8
0
 10
4486.3594017018776867
 20
147.792878704144897
 30
0.0
 40
0.3798111728411225
 50
214.2949900516441062
 51
255.9451931960414868
  0
ARC
  5
BD8B
  8
0
 10
4486.3909122962677429
 20
147.9463079097484979
 30
0.0
 40
0.5114241607274918
 50
257.0670368086107942
 51
271.8964852706213833
  0
ARC
  5
BD8C
  8
0
 10
4486.3867861558901495
 20
147.9283397439992882
 30
0.0
 40
0.4929883256552366
 50
233.1492421644516924
 51
257.0670368086107942
  0
ARC
  5
BD8D
  8
0
 10
4486.2317577105050077
 20
147.7214912314009894
 30
0.0
 40
0.2344924339226769
 50
202.8454797123158926
 51
233.1492421644516924
  0
ARC
  5
BD8E
  8
0
 10
4486.1962409932939408
 20
147.709474499792492
 30
0.0
 40
0.1971150549125935
 50
180.2389352566395928
 51
203.634732034677512
  0
ARC
  5
BD8F
  8
0
 10
4486.3899044146419328
 20
147.9185497439727044
 30
0.0
 40
0.4691280696696361
 50
260.5910289219925176
 51
272.1907217154436012
  0
ARC
  5
BD90
  8
0
 10
4486.409619445469616
 20
148.037522980474705
 30
0.0
 40
0.5897237306376112
 50
245.8864357041528876
 51
260.5910289219925176
  0
ARC
  5
BD91
  8
0
 10
4486.3029452808777933
 20
147.7992012829006114
 30
0.0
 40
0.328617221859991
 50
225.085414054968993
 51
245.8864357041528876
  0
ARC
  5
BD92
  8
0
 10
4486.2701737507923099
 20
147.7663318981225871
 30
0.0
 40
0.2822020342609224
 50
208.004672287932209
 51
225.085414054968993
  0
ARC
  5
BD93
  8
0
 10
4486.1847980409847878
 20
147.7209278971851916
 30
0.0
 40
0.1855038691998439
 50
192.8133414253624096
 51
208.0046722879330048
  0
ARC
  5
BD94
  8
0
 10
4486.2445204114392254
 20
147.7345111118972909
 30
0.0
 40
0.2467514426583906
 50
184.0801161244098125
 51
192.8133414253624096
  0
ARC
  5
BD95
  8
0
 10
4486.1358392145803009
 20
147.7267586563162922
 30
0.0
 40
0.1377940972511744
 50
173.0259283221419082
 51
184.0801161244098125
  0
ARC
  5
BD96
  8
0
 10
4486.3904309254348846
 20
147.9990743354227902
 30
0.0
 40
0.5140006849648792
 50
260.0688846740109739
 51
271.9406638095550761
  0
ARC
  5
BD97
  8
0
 10
4486.3890542937961072
 20
147.991211804608696
 30
0.0
 40
0.5060185483164965
 50
237.6018400383105131
 51
260.0688846740109739
  0
ARC
  5
BD98
  8
0
 10
4486.2766519872702702
 20
147.8075003646544019
 30
0.0
 40
0.29069895552288
 50
212.2832793554302953
 51
236.9068228554691018
  0
ARC
  5
BD99
  8
0
 10
4486.2178968476910086
 20
147.7694801818527139
 30
0.0
 40
0.2207208373324433
 50
194.5659443884933921
 51
212.0856090941566094
  0
ARC
  5
BD9A
  8
0
 10
4486.1920300461706574
 20
147.7622994185840071
 30
0.0
 40
0.1938800152438318
 50
180.0989260322768928
 51
194.4345503843181859
  0
ARC
  5
BD9B
  8
0
 10
4486.2078241552208056
 20
147.7800470045982877
 30
0.0
 40
0.2099534065927084
 50
185.1041821194287991
 51
210.1078733994897902
  0
ARC
  5
BD9C
  8
0
 10
4486.2690970871981335
 20
147.8155769310882874
 30
0.0
 40
0.2807824110301593
 50
210.1078733994897902
 51
235.6309968799986052
  0
ARC
  5
BD9D
  8
0
 10
4486.382930230652164
 20
147.9820191347675973
 30
0.0
 40
0.4824281194247824
 50
235.6309968799986052
 51
250.3473755589348002
  0
ARC
  5
BD9E
  8
0
 10
4486.3664772264783096
 20
147.9359476776917859
 30
0.0
 40
0.4335069532140374
 50
250.3473755589348002
 51
264.0270970948005811
  0
ARC
  5
BD9F
  8
0
 10
4486.4143006617523497
 20
148.3930366335561928
 30
0.0
 40
0.8930908895462124
 50
264.0270970948006948
 51
269.585342793949394
  0
ARC
  5
BDA0
  8
0
 10
4486.3960539307709041
 20
148.1300067305620018
 30
0.0
 40
0.59455046350013
 50
261.1150330814314202
 51
271.1356168769968917
  0
ARC
  5
BDA1
  8
0
 10
4486.3773082956286089
 20
148.0100937750293895
 30
0.0
 40
0.4731811274162762
 50
236.4957873399073947
 51
261.1150330814314202
  0
ARC
  5
BDA2
  8
0
 10
4486.2773773949484166
 20
147.8591387694110892
 30
0.0
 40
0.2921463279103975
 50
214.0791494779417974
 51
236.4957873399077926
  0
ARC
  5
BDA3
  8
0
 10
4486.2401413908428367
 20
147.8339478565777938
 30
0.0
 40
0.2471896588714914
 50
199.0529097675450032
 51
214.0791494779417974
  0
ARC
  5
BDA4
  8
0
 10
4486.3180553825968673
 20
147.9183115084800022
 30
0.0
 40
0.3443696528260305
 50
212.3267574399843056
 51
241.3142661690133082
  0
ARC
  5
BDA5
  8
0
 10
4486.3888307945162524
 20
148.0476618932478914
 30
0.0
 40
0.4918168670138235
 50
241.3142661690133082
 51
256.6580247357863982
  0
ARC
  5
BDA6
  8
0
 10
4486.4098384727021767
 20
148.1362407169087874
 30
0.0
 40
0.5828527420517928
 50
256.6580247357862845
 51
264.6789601241993068
  0
ARC
  5
BDA7
  8
0
 10
4486.4063787458626393
 20
148.0990943070142976
 30
0.0
 40
0.5455455647551487
 50
264.6789601241993068
 51
270.1531844646938225
  0
ARC
  5
BDA8
  8
0
 10
4486.396435916363771
 20
148.0529431860225031
 30
0.0
 40
0.6466419357807073
 50
271.0102732096684122
 51
283.6019460852807015
  0
ARC
  5
BDA9
  8
0
 10
4486.4562728984574278
 20
147.792878704144897
 30
0.0
 40
0.3798111728411225
 50
284.0548068039585132
 51
325.7050099483557801
  0
ARC
  5
BDAA
  8
0
 10
4486.3060234597041926
 20
149.1753569443814058
 30
0.0
 40
1.743168939070818
 50
273.3483990432009136
 51
277.6880788775662268
  0
ARC
  5
BDAB
  8
0
 10
4486.428888444443146
 20
147.9283397439992882
 30
0.0
 40
0.4929883256552366
 50
282.9329631913890921
 51
306.8507578355482792
  0
ARC
  5
BDAC
  8
0
 10
4486.5839168898282878
 20
147.7214912314009894
 30
0.0
 40
0.2344924339226769
 50
306.8507578355482792
 51
337.154520287684079
  0
ARC
  5
BDAD
  8
0
 10
4486.6194336070402642
 20
147.709474499792492
 30
0.0
 40
0.1971150549125935
 50
336.3652679653217774
 51
359.7610647433596114
  0
ARC
  5
BDAE
  8
0
 10
4487.2905676113259688
 20
134.2078319096445966
 30
0.0
 40
13.2713221976661497
 50
93.4044553828383641
 51
93.8137939797935729
  0
ARC
  5
BDAF
  8
0
 10
4486.4060551548636795
 20
148.037522980474705
 30
0.0
 40
0.5897237306376112
 50
279.4089710780589257
 51
294.1135642958470839
  0
ARC
  5
BDB0
  8
0
 10
4486.5127293194545928
 20
147.7992012829006114
 30
0.0
 40
0.328617221859991
 50
294.1135642958470839
 51
314.9145859450309217
  0
ARC
  5
BDB1
  8
0
 10
4486.5455008495400762
 20
147.7663318981225871
 30
0.0
 40
0.2822020342609224
 50
314.9145859450309217
 51
331.9953277120678194
  0
ARC
  5
BDB2
  8
0
 10
4486.6308765593475982
 20
147.7209278971851916
 30
0.0
 40
0.1855038691998439
 50
331.9953277120670236
 51
347.1866585746374767
  0
ARC
  5
BDB3
  8
0
 10
4486.5711541888940701
 20
147.7345111118972909
 30
0.0
 40
0.2467514426583906
 50
347.1866585746374767
 51
355.9198838755900738
  0
ARC
  5
BDB4
  8
0
 10
4486.6798353857529946
 20
147.7267586563162922
 30
0.0
 40
0.1377940972511744
 50
355.9198838755900738
 51
6.9740716778588299
  0
ARC
  5
BDB5
  8
0
 10
4486.3731884131002516
 20
148.7443917345268005
 30
0.0
 40
1.259499956700439
 50
271.5764077429755048
 51
276.4140437734720877
  0
ARC
  5
BDB6
  8
0
 10
4486.4266203065380978
 20
147.991211804608696
 30
0.0
 40
0.5060185483164965
 50
279.9311153259890261
 51
302.3981599616898848
  0
ARC
  5
BDB7
  8
0
 10
4486.5390226130639348
 20
147.8075003646544019
 30
0.0
 40
0.29069895552288
 50
303.0931771445310119
 51
327.7167206445697047
  0
ARC
  5
BDB8
  8
0
 10
4486.5977777526431964
 20
147.7694801818527139
 30
0.0
 40
0.2207208373324433
 50
327.9143909058433906
 51
345.4340556115066079
  0
ARC
  5
BDB9
  8
0
 10
4486.6236445541608191
 20
147.7622994185840071
 30
0.0
 40
0.1938800152438318
 50
345.5654496156810183
 51
359.9010739677231072
  0
ARC
  5
BDBA
  8
0
 10
4486.6078504451115805
 20
147.7800470045982877
 30
0.0
 40
0.2099534065927084
 50
329.8921266005102098
 51
354.8958178805712009
  0
ARC
  5
BDBB
  8
0
 10
4486.546577513133343
 20
147.8155769310882874
 30
0.0
 40
0.2807824110301593
 50
304.3690031200014232
 51
329.8921266005102098
  0
ARC
  5
BDBC
  8
0
 10
4486.432744369682041
 20
147.9820191347675973
 30
0.0
 40
0.4824281194247824
 50
289.6526244410650861
 51
304.3690031200010253
  0
ARC
  5
BDBD
  8
0
 10
4486.4491973738549859
 20
147.9359476776917859
 30
0.0
 40
0.4335069532140374
 50
275.9729029051994189
 51
289.6526244410650861
  0
ARC
  5
BDBE
  8
0
 10
4486.3606277187745945
 20
149.1232584710884055
 30
0.0
 40
1.6239756840136199
 50
271.6658444571971813
 51
274.721715654066486
  0
ARC
  5
BDBF
  8
0
 10
4486.4196206695623914
 20
148.1300067305620871
 30
0.0
 40
0.5945504635002754
 50
268.8643831230029946
 51
278.8849669185685798
  0
ARC
  5
BDC0
  8
0
 10
4486.4383663047046866
 20
148.0100937750293895
 30
0.0
 40
0.4731811274162762
 50
278.8849669185685798
 51
303.5042126600922074
  0
ARC
  5
BDC1
  8
0
 10
4486.5382972053848789
 20
147.8591387694110892
 30
0.0
 40
0.2921463279103975
 50
303.5042126600922074
 51
325.9208505220581742
  0
ARC
  5
BDC2
  8
0
 10
4486.5755332094895493
 20
147.8339478565777938
 30
0.0
 40
0.2471896588714914
 50
325.9208505220581742
 51
340.9470902324550252
  0
ARC
  5
BDC3
  8
0
 10
4486.4976192177346093
 20
147.9183115084800022
 30
0.0
 40
0.3443696528260305
 50
298.6857338309868055
 51
327.6732425600158081
  0
ARC
  5
BDC4
  8
0
 10
4486.4268438058179527
 20
148.0476618932478914
 30
0.0
 40
0.4918168670138235
 50
283.3419752642134881
 51
298.6857338309868055
  0
ARC
  5
BDC5
  8
0
 10
4486.4058361276311189
 20
148.1362407169087874
 30
0.0
 40
0.5828527420517928
 50
275.3210398758008068
 51
283.3419752642137155
  0
ARC
  5
BDC6
  8
0
 10
4486.4092958544688372
 20
148.0990943070142976
 30
0.0
 40
0.5455455647551487
 50
269.8468155353061206
 51
275.3210398758008068
  0
LINE
  5
BDC7
  8
0
 10
4484.8478387105669754
 20
151.9900518412812005
 30
0.0
 11
4485.0278372982656947
 21
151.9900518412812005
 31
0.0
  0
LINE
  5
BDC8
  8
0
 10
4484.7878372982668225
 20
151.9300518412811982
 30
0.0
 11
4484.7878372982668225
 21
151.1400516447812095
 31
0.0
  0
LINE
  5
BDC9
  8
0
 10
4485.0878372982670044
 20
151.9300518412811982
 30
0.0
 11
4485.0878372982670044
 21
151.1400516382811929
 31
0.0
  0
ARC
  5
BDCA
  8
0
 10
4485.1478613460521956
 20
151.1400746677423115
 30
0.0
 40
0.0600240522039316
 50
180.0219827037522009
 51
270.3661788194290239
  0
ARC
  5
BDCB
  8
0
 10
4484.7278133946792877
 20
151.1400745363044109
 30
0.0
 40
0.0600239079522037
 50
269.6357397718076072
 51
359.9781489118702211
  0
ARC
  5
BDCC
  8
0
 10
4485.0278372982656947
 20
151.9300518412811982
 30
0.0
 40
0.06
 50
0.0
 51
90.0
  0
ARC
  5
BDCD
  8
0
 10
4484.847837298295417
 20
151.9300518412694032
 30
0.0
 40
0.0600000000283672
 50
89.9986513798986465
 51
179.9999999887783986
  0
ARC
  5
BDCE
  8
0
 10
4484.9378383757775737
 20
151.6574810926786938
 30
0.0
 40
0.6145693373410729
 50
249.979016161785097
 51
290.0209838384886893
  0
ARC
  5
BDCF
  8
0
 10
4489.0428372982660221
 20
151.5900518413311886
 30
0.0
 40
0.6249999999999324
 50
162.0797868598413061
 51
193.1168829764835095
  0
ARC
  5
BDD0
  8
0
 10
4488.4862180389445712
 20
151.7700518412947872
 30
0.0
 40
0.0400000001423085
 50
122.0785927537738047
 51
162.079786859844404
  0
CIRCLE
  5
BDD1
  8
0
 10
4486.4078373001657383
 20
165.789089638681105
 30
0.0
 40
0.1699999981000105
  0
CIRCLE
  5
BDD2
  8
0
 10
4486.4078373001657383
 20
165.7890896348812078
 30
0.0
 40
0.0804404037741529
  0
CIRCLE
  5
BDD3
  8
0
 10
4486.4078372982658038
 20
165.7890896348812078
 30
0.0
 40
0.0560415844126536
  0
ARC
  5
BDD4
  8
0
 10
4486.4078373001657383
 20
163.6976950364854133
 30
0.0
 40
0.7710933257436446
 50
78.1720416527531654
 51
101.8279583472460956
  0
LINE
  5
BDD5
  8
0
 10
4486.1628372982668225
 20
164.5229710648251
 30
0.0
 11
4486.1628372982668225
 21
165.3090896367828861
 31
0.0
  0
ARC
  5
BDD6
  8
0
 10
4486.2349372982671412
 20
164.5229710648251
 30
0.0
 40
0.0721
 50
179.9999999999878071
 51
281.8828184141898987
  0
ARC
  5
BDD7
  8
0
 10
4486.4078373001657383
 20
163.7208824223675947
 30
0.0
 40
0.7659623987913797
 50
78.0035356844657315
 51
101.9964643155341975
  0
ARC
  5
BDD8
  8
0
 10
4486.2334542246489946
 20
164.5415391418758873
 30
0.0
 40
0.0730172840979514
 50
194.7319337159223949
 51
281.9964907365655904
  0
LINE
  5
BDD9
  8
0
 10
4486.6528373020655636
 20
164.5229710648251
 30
0.0
 11
4486.6528373020655636
 21
165.3090896367828861
 31
0.0
  0
ARC
  5
BDDA
  8
0
 10
4486.5807373020670639
 20
164.5229710648251
 30
0.0
 40
0.0721
 50
258.1171815858099876
 51
0.0000000000122133
  0
ARC
  5
BDDB
  8
0
 10
4486.582220375684301
 20
164.5415391418758873
 30
0.0
 40
0.0730172840979514
 50
258.0035092634342959
 51
345.2680662840775199
  0
LINE
  5
BDDC
  8
0
 10
4470.6065331874078765
 20
179.8450490458197919
 30
0.0
 11
4470.5724827818876292
 21
179.8239063577593129
 31
0.0
  0
LINE
  5
BDDD
  8
0
 10
4470.5474926559027153
 20
179.8767567821915065
 30
0.0
 11
4470.6065331874078765
 21
179.8450490458197919
 31
0.0
  0
LINE
  5
BDDE
  8
0
 10
4470.6043632218161292
 20
179.912057781614692
 30
0.0
 11
4470.5474926559027153
 21
179.8767567821915065
 31
0.0
  0
LINE
  5
BDDF
  8
0
 10
4470.5453544205329308
 20
179.9437367837267061
 30
0.0
 11
4470.6043632218161292
 21
179.912057781614692
 31
0.0
  0
LINE
  5
BDE0
  8
0
 10
4470.6022902459890247
 20
179.9790820703836971
 30
0.0
 11
4470.5453544205329308
 21
179.9437367837267061
 31
0.0
  0
LINE
  5
BDE1
  8
0
 10
4470.5432925974509999
 20
180.010759703188711
 30
0.0
 11
4470.6022902459890247
 21
179.9790820703836971
 31
0.0
  0
LINE
  5
BDE2
  8
0
 10
4470.6001927689039803
 20
180.0460831777130863
 30
0.0
 11
4470.5432925974509999
 21
180.010759703188711
 31
0.0
  0
LINE
  5
BDE3
  8
0
 10
4470.5412394392769784
 20
180.0777344511305955
 30
0.0
 11
4470.6001927689039803
 21
180.0460831777130863
 31
0.0
  0
LINE
  5
BDE4
  8
0
 10
4470.5981457289335594
 20
180.1130684145707903
 30
0.0
 11
4470.5412394392769784
 21
180.0777344511305955
 31
0.0
  0
LINE
  5
BDE5
  8
0
 10
4470.5391524821461644
 20
180.1447510506619096
 30
0.0
 11
4470.5981457289335594
 21
180.1130684145707903
 31
0.0
  0
LINE
  5
BDE6
  8
0
 10
4470.5960080013592233
 20
180.1800492798898006
 30
0.0
 11
4470.5391524821461644
 21
180.1447510506619096
 31
0.0
  0
LINE
  5
BDE7
  8
0
 10
4470.5387291933084271
 20
180.2108051164821916
 30
0.0
 11
4470.5960080013592233
 21
180.1800492798898006
 31
0.0
  0
LINE
  5
BDE8
  8
0
 10
4471.3641313803682351
 20
179.844845923431194
 30
0.0
 11
4471.3093372983012159
 21
179.7900518413811994
 31
0.0
  0
LINE
  5
BDE9
  8
0
 10
4471.3113113747167517
 20
179.8785296091172938
 30
0.0
 11
4471.3641313803682351
 21
179.844845923431194
 31
0.0
  0
LINE
  5
BDEA
  8
0
 10
4471.3703201760008596
 20
179.9102086112293932
 30
0.0
 11
4471.3113113747167517
 21
179.8785296091172938
 31
0.0
  0
LINE
  5
BDEB
  8
0
 10
4471.3133843505438563
 20
179.945553897886299
 30
0.0
 11
4471.3703201760008596
 21
179.9102086112293932
 31
0.0
  0
LINE
  5
BDEC
  8
0
 10
4471.3723819990818811
 20
179.9772315306913129
 30
0.0
 11
4471.3133843505438563
 21
179.945553897886299
 31
0.0
  0
LINE
  5
BDED
  8
0
 10
4471.3154818276289006
 20
180.0125550052158019
 30
0.0
 11
4471.3723819990818811
 21
179.9772315306913129
 31
0.0
  0
LINE
  5
BDEE
  8
0
 10
4471.3744351572568121
 20
180.0442062786331974
 30
0.0
 11
4471.3154818276289006
 21
180.0125550052158019
 31
0.0
  0
LINE
  5
BDEF
  8
0
 10
4471.3175288675993215
 20
180.0795402420735059
 30
0.0
 11
4471.3744351572568121
 21
180.0442062786331974
 31
0.0
  0
LINE
  5
BDF0
  8
0
 10
4471.3765221143876261
 20
180.1112228781645115
 30
0.0
 11
4471.3175288675993215
 21
180.0795402420735059
 31
0.0
  0
LINE
  5
BDF1
  8
0
 10
4471.3196665951736577
 20
180.1465211073924024
 30
0.0
 11
4471.3765221143876261
 21
180.1112228781645115
 31
0.0
  0
LINE
  5
BDF2
  8
0
 10
4471.3762280693208595
 20
180.1768917717872966
 30
0.0
 11
4471.3196665951736577
 21
180.1465211073924024
 31
0.0
  0
LINE
  5
BDF3
  8
0
 10
4471.3762280693208595
 20
180.1768917717872966
 30
0.0
 11
4471.3782147556776181
 21
180.2400518413811881
 31
0.0
  0
LINE
  5
BDF4
  8
0
 10
4471.3762280693208595
 20
180.1768917717872966
 30
0.0
 11
4471.3153847312660218
 21
180.2118441566312015
 31
0.0
  0
LINE
  5
BDF5
  8
0
 10
4471.3153847312660218
 20
180.2118441566312015
 30
0.0
 11
4471.367265563413639
 21
180.2400518413811881
 31
0.0
  0
LINE
  5
BDF6
  8
0
 10
4470.5724827818876292
 20
179.8239063577593129
 30
0.0
 11
4471.3641313803682351
 21
179.844845923431194
 31
0.0
  0
LINE
  5
BDF7
  8
0
 10
4470.6065331874078765
 20
179.8450490458197919
 30
0.0
 11
4471.3113113747167517
 21
179.8785296091172938
 31
0.0
  0
LINE
  5
BDF8
  8
0
 10
4471.3703201760008596
 20
179.9102086112293932
 30
0.0
 11
4470.5474926559027153
 21
179.8767567821915065
 31
0.0
  0
LINE
  5
BDF9
  8
0
 10
4470.6043632218161292
 20
179.912057781614692
 30
0.0
 11
4471.3133843505438563
 21
179.945553897886299
 31
0.0
  0
LINE
  5
BDFA
  8
0
 10
4471.3723819990818811
 20
179.9772315306913129
 30
0.0
 11
4470.5453544205329308
 21
179.9437367837267061
 31
0.0
  0
LINE
  5
BDFB
  8
0
 10
4470.6022902459890247
 20
179.9790820703836971
 30
0.0
 11
4471.3154818276289006
 21
180.0125550052158019
 31
0.0
  0
LINE
  5
BDFC
  8
0
 10
4471.3744351572568121
 20
180.0442062786331974
 30
0.0
 11
4470.5432925974509999
 21
180.010759703188711
 31
0.0
  0
LINE
  5
BDFD
  8
0
 10
4470.6001927689039803
 20
180.0460831777130863
 30
0.0
 11
4471.3175288675993215
 21
180.0795402420735059
 31
0.0
  0
LINE
  5
BDFE
  8
0
 10
4471.3765221143876261
 20
180.1112228781645115
 30
0.0
 11
4470.5412394392769784
 21
180.0777344511305955
 31
0.0
  0
LINE
  5
BDFF
  8
0
 10
4470.5981457289335594
 20
180.1130684145707903
 30
0.0
 11
4471.3196665951736577
 21
180.1465211073924024
 31
0.0
  0
LINE
  5
BE00
  8
0
 10
4470.5391524821461644
 20
180.1447510506619096
 30
0.0
 11
4471.3762280693208595
 21
180.1768917717872966
 31
0.0
  0
LINE
  5
BE01
  8
0
 10
4470.5960080013592233
 20
180.1800492798898006
 30
0.0
 11
4471.3153847312660218
 21
180.2118441566312015
 31
0.0
  0
LINE
  5
BE02
  8
0
 10
4470.5387291933084271
 20
180.2108051164821916
 30
0.0
 11
4471.3256838505230917
 21
180.2400518413811881
 31
0.0
  0
LINE
  5
BE03
  8
0
 10
4470.4078372982658038
 20
180.3580518413812115
 30
0.0
 11
4470.4078372982658038
 21
181.3420518413811919
 31
0.0
  0
ARC
  5
BE04
  8
0
 10
4470.3978372982674045
 20
180.3680518413812024
 30
0.0
 40
0.01
 50
269.9999999999478746
 51
0.0000000000610666
  0
ARC
  5
BE05
  8
0
 10
4470.3978372982674045
 20
181.332051841381201
 30
0.0
 40
0.01
 50
0.0
 51
89.9999999995831246
  0
ENDSEC
  0
EOF
