  0
SECTION
  2
HEADER
  9
$ACADVER
  1
AC1009
  9
$INSBASE
 10
264.1603987160676752
 20
33.562307901866383
 30
0.0
  9
$EXTMIN
 10
245.5524644967784127
 20
16.8740983022529107
 30
-0.0000000349181948
  9
$EXTMAX
 10
264.1766065419761844
 20
56.5545070679384025
 30
0.0000000814935746
  9
$LIMMIN
 10
0.0
 20
0.0
  9
$LIMMAX
 10
11.6929133858000007
 20
8.2677165353999982
  9
$ORTHOMODE
 70
     0
  9
$REGENMODE
 70
     1
  9
$FILLMODE
 70
     1
  9
$QTEXTMODE
 70
     0
  9
$MIRRTEXT
 70
     0
  9
$DRAGMODE
 70
     2
  9
$LTSCALE
 40
0.6431102362
  9
$OSMODE
 70
   575
  9
$ATTMODE
 70
     1
  9
$TEXTSIZE
 40
0.2
  9
$TRACEWID
 40
0.05
  9
$TEXTSTYLE
  7
STANDARD
  9
$CLAYER
  8
0
  9
$CELTYPE
  6
BYLAYER
  9
$CECOLOR
 62
   256
  9
$DIMSCALE
 40
1.0
  9
$DIMASZ
 40
0.1875
  9
$DIMEXO
 40
0.0625
  9
$DIMDLI
 40
0.4443307087
  9
$DIMRND
 40
0.0
  9
$DIMDLE
 40
0.0
  9
$DIMEXE
 40
0.125
  9
$DIMTP
 40
0.01
  9
$DIMTM
 40
0.01
  9
$DIMTXT
 40
1.0
  9
$DIMCEN
 40
0.1052362205
  9
$DIMTSZ
 40
0.0
  9
$DIMTOL
 70
     1
  9
$DIMLIM
 70
     0
  9
$DIMTIH
 70
     0
  9
$DIMTOH
 70
     1
  9
$DIMSE1
 70
     0
  9
$DIMSE2
 70
     0
  9
$DIMTAD
 70
     0
  9
$DIMZIN
 70
     0
  9
$DIMBLK
  1

  9
$DIMASO
 70
     1
  9
$DIMSHO
 70
     1
  9
$DIMPOST
  1
\X
  9
$DIMAPOST
  1

  9
$DIMALT
 70
     1
  9
$DIMALTD
 70
     2
  9
$DIMALTF
 40
25.3999999999999986
  9
$DIMLFAC
 40
1.0
  9
$DIMTOFL
 70
     0
  9
$DIMTVP
 40
0.0
  9
$DIMTIX
 70
     0
  9
$DIMSOXD
 70
     0
  9
$DIMSAH
 70
     0
  9
$DIMBLK1
  1

  9
$DIMBLK2
  1

  9
$DIMSTYLE
  2
STANDARD
  9
$DIMCLRD
 70
     0
  9
$DIMCLRE
 70
     0
  9
$DIMCLRT
 70
     0
  9
$DIMTFAC
 40
1.0
  9
$DIMGAP
 40
0.09
  9
$LUNITS
 70
     2
  9
$LUPREC
 70
     4
  9
$SKETCHINC
 40
0.1
  9
$FILLETRAD
 40
0.0
  9
$AUNITS
 70
     0
  9
$AUPREC
 70
     0
  9
$MENU
  1
.
  9
$ELEVATION
 40
0.0
  9
$PELEVATION
 40
0.0
  9
$THICKNESS
 40
0.0
  9
$LIMCHECK
 70
     0
  9
$BLIPMODE
 70
     0
  9
$CHAMFERA
 40
0.0
  9
$CHAMFERB
 40
0.0
  9
$SKPOLY
 70
     0
  9
$TDCREATE
 40
2458172.5207638889551163
  9
$TDUPDATE
 40
2459580.5073958341963589
  9
$TDINDWG
 40
0.2043397569
  9
$TDUSRTIMER
 40
0.2043397569
  9
$USRTIMER
 70
     1
  9
$ANGBASE
 50
0.0
  9
$ANGDIR
 70
     0
  9
$PDMODE
 70
     0
  9
$PDSIZE
 40
0.3125
  9
$PLINEWID
 40
0.0
  9
$COORDS
 70
     1
  9
$SPLFRAME
 70
     0
  9
$SPLINETYPE
 70
     6
  9
$SPLINESEGS
 70
     8
  9
$ATTDIA
 70
     1
  9
$ATTREQ
 70
     1
  9
$HANDLING
 70
     1
  9
$HANDSEED
  5
494A
  9
$SURFTAB1
 70
     6
  9
$SURFTAB2
 70
     6
  9
$SURFTYPE
 70
     6
  9
$SURFU
 70
     6
  9
$SURFV
 70
     6
  9
$UCSNAME
  2

  9
$UCSORG
 10
0.0
 20
0.0
 30
0.0
  9
$UCSXDIR
 10
1.0
 20
0.0
 30
0.0
  9
$UCSYDIR
 10
0.0
 20
1.0
 30
0.0
  9
$PUCSNAME
  2

  9
$PUCSORG
 10
0.0
 20
0.0
 30
0.0
  9
$PUCSXDIR
 10
1.0
 20
0.0
 30
0.0
  9
$PUCSYDIR
 10
0.0
 20
1.0
 30
0.0
  9
$USERI1
 70
     0
  9
$USERI2
 70
     0
  9
$USERI3
 70
     0
  9
$USERI4
 70
     0
  9
$USERI5
 70
     0
  9
$USERR1
 40
0.0
  9
$USERR2
 40
0.0
  9
$USERR3
 40
0.0
  9
$USERR4
 40
0.0
  9
$USERR5
 40
0.0
  9
$WORLDVIEW
 70
     1
  9
$SHADEDGE
 70
     3
  9
$SHADEDIF
 70
    70
  9
$TILEMODE
 70
     1
  9
$MAXACTVP
 70
    64
  9
$PLIMCHECK
 70
     0
  9
$PEXTMIN
 10
1.0000000000000000E+20
 20
1.0000000000000000E+20
 30
1.0000000000000000E+20
  9
$PEXTMAX
 10
-1.0000000000000000E+20
 20
-1.0000000000000000E+20
 30
-1.0000000000000000E+20
  9
$PLIMMIN
 10
0.0
 20
0.0
  9
$PLIMMAX
 10
12.0
 20
9.0
  9
$UNITMODE
 70
     0
  9
$VISRETAIN
 70
     1
  9
$PLINEGEN
 70
     0
  9
$PSLTSCALE
 70
     1
  0
ENDSEC
  0
SECTION
  2
TABLES
  0
TABLE
  2
VPORT
 70
     1
  0
VPORT
  2
*ACTIVE
 70
     0
 10
0.0
 20
0.0
 11
1.0
 21
1.0
 12
-2.3629426330141139
 22
4.2565084517803733
 13
0.0
 23
0.0
 14
1.0
 24
1.0
 15
0.0
 25
0.0
 16
0.0
 26
0.0
 36
52.8911156380141207
 17
257.2274780273438068
 27
32.4577941363292695
 37
0.0
 40
53.28158315288956
 41
2.469551282051281
 42
50.0
 43
0.0
 44
0.0
 50
0.0
 51
0.0
 71
     0
 72
   100
 73
     1
 74
     1
 75
     0
 76
     0
 77
     0
 78
     0
  0
ENDTAB
  0
TABLE
  2
LTYPE
 70
     2
  0
LTYPE
  2
CONTINUOUS
 70
     0
  3
Solid line
 72
    65
 73
     0
 40
0.0
  0
LTYPE
  2
PHANTOM2
 70
     0
  3
___ _ _ ___ _ _ ___ _ _ ___ _ _
 72
    65
 73
     6
 40
1.25
 49
0.625
 49
-0.125
 49
0.125
 49
-0.125
 49
0.125
 49
-0.125
  0
ENDTAB
  0
TABLE
  2
LAYER
 70
     2
  0
LAYER
  2
0
 70
     0
 62
   255
  6
CONTINUOUS
  0
LAYER
  2
DEFPOINTS
 70
     0
 62
     7
  6
CONTINUOUS
  0
ENDTAB
  0
TABLE
  2
STYLE
 70
     1
  0
STYLE
  2
STANDARD
 70
     0
 40
0.0
 41
0.8
 50
0.0
 71
     0
 42
0.2
  3
txt
  4

  0
ENDTAB
  0
TABLE
  2
VIEW
 70
     0
  0
ENDTAB
  0
TABLE
  2
UCS
 70
     0
  0
ENDTAB
  0
TABLE
  2
APPID
 70
    10
  0
APPID
  2
ACAD
 70
     0
  0
APPID
  2
ACAD_MLEADERVER
 70
     0
  0
APPID
  2
ACAD_EXEMPT_FROM_CAD_STANDARDS
 70
     0
  0
APPID
  2
ACAD_DSTYLE_DIMJAG
 70
     0
  0
APPID
  2
ACAD_DSTYLE_DIMTALN
 70
     0
  0
APPID
  2
ACAD_NAV_VCDISPLAY
 70
     0
  0
APPID
  2
ACAECLAYERSTANDARD
 70
     0
  0
APPID
  2
ACCMTRANSPARENCY
 70
     0
  0
APPID
  2
DCO15
 70
     0
  0
APPID
  2
ACDBATTR
 70
     0
  0
ENDTAB
  0
TABLE
  2
DIMSTYLE
 70
     1
  0
DIMSTYLE
  2
STANDARD
 70
     0
  3

  4

  5

  6

  7

 40
1.0
 41
0.1875
 42
0.0625
 43
0.38
 44
0.125
 45
0.0
 46
0.0
 47
0.01
 48
0.01
140
0.15625
141
0.09
142
0.0
143
25.3999999999999986
144
1.0
145
0.0
146
1.0
147
0.09
 71
     1
 72
     0
 73
     1
 74
     1
 75
     0
 76
     0
 77
     0
 78
     4
170
     0
171
     2
172
     0
173
     0
174
     0
175
     0
176
     0
177
     0
178
     0
  0
ENDTAB
  0
ENDSEC
  0
SECTION
  2
BLOCKS
  0
BLOCK
  8
0
  2
$MODEL_SPACE
 70
     0
 10
0.0
 20
0.0
 30
0.0
  3
$MODEL_SPACE
  1

  0
ENDBLK
  5
21
  8
0
  0
BLOCK
 67
     1
  8
0
  2
$PAPER_SPACE
 70
     0
 10
0.0
 20
0.0
 30
0.0
  3
$PAPER_SPACE
  1

  0
ENDBLK
  5
1D
 67
     1
  8
0
  0
ENDSEC
  0
SECTION
  2
ENTITIES
  0
ATTDEF
  5
829
  8
DEFPOINTS
 10
264.1603161706655101
 20
33.56573017723845
 30
0.0
 40
0.001
  1
K-45209
  3

  2
MODELNUMBER
 70
     0
1001
ACDBATTR
1070
     0
1070
     1
  0
ATTDEF
  5
82A
  8
DEFPOINTS
 10
264.1603161706655101
 20
33.5640635105717919
 30
0.0
 40
0.001
  1
HYDRORAIL
  3

  2
TRADENAME
 70
     0
1001
ACDBATTR
1070
     0
1070
     1
  0
ATTDEF
  5
82B
  8
DEFPOINTS
 10
264.1603161706655101
 20
33.5623968439051197
 30
0.0
 40
0.001
  1
SHOWER COLUMN
  3

  2
PRODUCT
 70
     0
1001
ACDBATTR
1070
     0
1070
     1
  0
LINE
  5
46BA
  8
0
 10
245.8601438799676941
 20
55.0567704471663788
 30
0.0
 11
245.8259264722678097
 21
55.0355204765205883
 31
0.0
  0
LINE
  5
46BB
  8
0
 10
245.8489417735677023
 20
55.4117624149663897
 30
0.0
 11
245.792830798367703
 21
55.3769229179663824
 31
0.0
  0
LINE
  5
46BC
  8
0
 10
245.8511627425677091
 20
55.3407395832663767
 30
0.0
 11
245.7950208008676896
 21
55.3059357988663791
 31
0.0
  0
LINE
  5
46BD
  8
0
 10
245.8533476285676898
 20
55.2697591265663775
 30
0.0
 11
245.7972857290677098
 21
55.2349554420663935
 31
0.0
  0
LINE
  5
46BE
  8
0
 10
245.8556299617677041
 20
55.198746324566379
 30
0.0
 11
245.7994784920325912
 21
55.1639261875515672
 31
0.0
  0
LINE
  5
46BF
  8
0
 10
245.8578253659676989
 20
55.1277688344663801
 30
0.0
 11
245.8017597402676984
 21
55.0929613986663824
 31
0.0
  0
LINE
  5
46C0
  8
0
 10
246.568497259867712
 20
55.3084007523663814
 30
0.0
 11
246.6267166985676909
 21
55.3396687414663901
 31
0.0
  0
LINE
  5
46C1
  8
0
 10
246.5707803571677061
 20
55.379390981966381
 30
0.0
 11
246.6289784394678009
 21
55.4106277080664569
 31
0.0
  0
LINE
  5
46C2
  8
0
 10
246.5618987160677023
 20
55.0023079018663807
 30
0.0
 11
246.6172140551676932
 21
55.0576232409663788
 31
0.0
  0
LINE
  5
46C3
  8
0
 10
246.5640198027676888
 20
55.1663896705663888
 30
0.0
 11
246.6222414750677103
 21
55.1976600635663885
 31
0.0
  0
LINE
  5
46C4
  8
0
 10
246.5662650193677052
 20
55.2373539441663866
 30
0.0
 11
246.6244591328677132
 21
55.2686029338663829
 31
0.0
  0
LINE
  5
46C5
  8
0
 10
246.561795511067686
 20
55.0953461947663925
 30
0.0
 11
246.6199913060677034
 21
55.1265964435663776
 31
0.0
  0
LINE
  5
46C6
  8
0
 10
246.6294822639993072
 20
55.4111723642924687
 30
0.0
 11
246.6289784394676872
 21
55.4106277080663929
 31
0.0
  0
LINE
  5
46C7
  8
0
 10
264.1603987160676752
 20
18.5623079018663795
 30
0.0
 11
263.835971430667712
 21
18.5679708011663784
 31
0.0
  0
LINE
  5
46C8
  8
0
 10
262.7347006197676933
 20
20.6209939191663914
 30
0.0
 11
263.5254153617677275
 21
20.6347958963663913
 31
0.0
  0
LINE
  5
46C9
  8
0
 10
262.7347006197676933
 20
19.5036218845663782
 30
0.0
 11
263.5254153617677275
 21
19.48981990746638
 31
0.0
  0
LINE
  5
46CA
  8
0
 10
264.1603987160676752
 20
21.5623079018663795
 30
0.0
 11
263.835971430667712
 21
21.5566450025663912
 31
0.0
  0
LINE
  5
46CB
  8
0
 10
263.6460522604676839
 20
19.4563643345663806
 30
0.0
 11
263.6583902110676831
 21
19.4492410154663808
 31
0.0
  0
LINE
  5
46CC
  8
0
 10
245.5603987160677093
 20
56.5193078984663728
 30
0.0
 11
245.5603987160677093
 21
55.6053264768663809
 31
0.0
  0
LINE
  5
46CD
  8
0
 10
245.6603987160677036
 20
56.5543079018663803
 30
0.0
 11
245.6603987160677036
 21
55.5703079018663786
 31
0.0
  0
LINE
  5
46CE
  8
0
 10
245.9123987160677132
 20
55.572307901866381
 30
0.0
 11
245.9123987160677132
 21
55.5779451080623872
 31
0.0
  0
LINE
  5
46CF
  8
0
 10
246.6294822639993072
 20
55.4111723642924687
 30
0.0
 11
246.6303987160677025
 21
55.4403079018663902
 31
0.0
  0
LINE
  5
46D0
  8
0
 10
246.5083987160676884
 20
55.572307901866381
 30
0.0
 11
246.5083987160676884
 21
55.5782095739299677
 31
0.0
  0
LINE
  5
46D1
  8
0
 10
246.6303987160677025
 20
55.4403079018663902
 30
0.0
 11
246.6303987160677025
 21
55.4523079018663765
 31
0.0
  0
LINE
  5
46D2
  8
0
 10
261.2053987160676911
 20
18.7705441223663811
 30
0.0
 11
261.1603987160676752
 21
18.8155441223663793
 31
0.0
  0
LINE
  5
46D3
  8
0
 10
263.646052249260606
 20
47.6682514626499128
 30
0.0
 11
263.6583902110676831
 21
47.6753747882663816
 31
0.0
  0
LINE
  5
46D4
  8
0
 10
261.076150284067694
 20
36.3492477797663867
 30
0.0
 11
261.4153987160677275
 21
36.3492477797663867
 31
0.0
  0
LINE
  5
46D5
  8
0
 10
261.9053987160676797
 20
36.3492477797663867
 30
0.0
 11
262.2445970539677091
 21
36.3492477797663867
 31
0.0
  0
LINE
  5
46D6
  8
0
 10
261.1465500448676949
 20
36.949247779766381
 30
0.0
 11
262.1742473873677
 21
36.949247779766381
 31
0.0
  0
LINE
  5
46D7
  8
0
 10
262.3053880538677163
 20
37.8586369446663866
 30
0.0
 11
262.2245152383953268
 21
37.8586369455663885
 31
0.0
  0
LINE
  5
46D8
  8
0
 10
261.0962821937677063
 20
37.8586369455663885
 30
0.0
 11
261.015409378267691
 21
37.8586369446663866
 31
0.0
  0
LINE
  5
46D9
  8
0
 10
261.015409378267691
 20
37.8598586146663791
 30
0.0
 11
261.0962608694676987
 21
37.8598586139663809
 31
0.0
  0
LINE
  5
46DA
  8
0
 10
262.2245365626965281
 20
37.859858613966388
 30
0.0
 11
262.3053880538677163
 21
37.8598586146663791
 31
0.0
  0
LINE
  5
46DB
  8
0
 10
262.1897823895677107
 20
37.9092477797663818
 30
0.0
 11
261.1310150446677198
 21
37.9092477797663818
 31
0.0
  0
LINE
  5
46DC
  8
0
 10
261.0541568925676756
 20
38.1092477797663918
 30
0.0
 11
262.2666401443677273
 21
38.1092477797663918
 31
0.0
  0
LINE
  5
46DD
  8
0
 10
259.7453987160677116
 20
19.6023079018663786
 30
0.0
 11
259.7453987160677116
 21
20.522307901866391
 31
0.0
  0
LINE
  5
46DE
  8
0
 10
259.8253987160676957
 20
20.5523079018663886
 30
0.0
 11
259.8253987160676957
 21
19.572307901866381
 31
0.0
  0
LINE
  5
46DF
  8
0
 10
260.0403987160677275
 20
21.4023079018663793
 30
0.0
 11
260.0403987160677275
 21
20.6123077053663906
 31
0.0
  0
LINE
  5
46E0
  8
0
 10
260.340398716067682
 20
21.4023079018663793
 30
0.0
 11
260.340398716067682
 21
20.61230769876639
 31
0.0
  0
LINE
  5
46E1
  8
0
 10
261.0411555989676913
 20
36.3836369455663799
 30
0.0
 11
261.015409378267691
 21
37.8586369446663866
 31
0.0
  0
LINE
  5
46E2
  8
0
 10
261.1115553755677183
 20
36.9836369455663885
 30
0.0
 11
261.0960203677677214
 21
37.8736369454663873
 31
0.0
  0
LINE
  5
46E3
  8
0
 10
261.3215340051676776
 20
36.984857684466391
 30
0.0
 11
261.3059989591677095
 21
37.8748598772663811
 31
0.0
  0
LINE
  5
46E4
  8
0
 10
262.3016352149676891
 20
38.0748586139663914
 30
0.0
 11
262.3053880538677163
 21
37.8598586146663791
 31
0.0
  0
LINE
  5
46E5
  8
0
 10
261.0154093781677034
 20
37.8586369455663885
 30
0.0
 11
261.0154093781677034
 21
37.8598586139663809
 31
0.0
  0
LINE
  5
46E6
  8
0
 10
261.0603987160677093
 20
47.6623079018663773
 30
0.0
 11
261.0603987160677093
 21
46.4623079018663674
 31
0.0
  0
LINE
  5
46E7
  8
0
 10
261.0603987160677093
 20
21.0123079018663788
 30
0.0
 11
261.0603987160677093
 21
20.6423079017663902
 31
0.0
  0
LINE
  5
46E8
  8
0
 10
261.0603987160677093
 20
19.4823079020663812
 30
0.0
 11
261.0603987160677093
 21
19.1123079018663802
 31
0.0
  0
LINE
  5
46E9
  8
0
 10
261.1603987160676752
 20
17.4443432562663787
 30
0.0
 11
261.1603987160676752
 21
18.3173079018663785
 31
0.0
  0
LINE
  5
46EA
  8
0
 10
261.1603987160676752
 20
18.8155441223663793
 30
0.0
 11
261.1603987160676752
 21
18.9355441223663803
 31
0.0
  0
LINE
  5
46EB
  8
0
 10
261.1683987160677134
 20
21.0623079018663795
 30
0.0
 11
261.1683987160677134
 21
36.3492477797663867
 31
0.0
  0
LINE
  5
46EC
  8
0
 10
261.1683987160677134
 20
38.1092477797663918
 30
0.0
 11
261.1683987160677134
 21
46.4123079018663773
 31
0.0
  0
LINE
  5
46ED
  8
0
 10
261.1683987160677134
 20
47.7123079018663674
 30
0.0
 11
261.1683987160677134
 21
48.562307901866383
 31
0.0
  0
LINE
  5
46EE
  8
0
 10
261.2053987160676911
 20
18.3553079018663787
 30
0.0
 11
261.2053987160676911
 21
18.7705441223663811
 31
0.0
  0
LINE
  5
46EF
  8
0
 10
261.3028987160677161
 20
18.9655441223663814
 30
0.0
 11
261.3028987160677161
 21
19.0323079018663783
 31
0.0
  0
LINE
  5
46F0
  8
0
 10
261.3453987160676775
 20
18.3473079018663903
 30
0.0
 11
261.3453987160676775
 21
18.3553079018663787
 31
0.0
  0
LINE
  5
46F1
  8
0
 10
261.4153987160677275
 20
36.949247779766381
 30
0.0
 11
261.4153987160677275
 21
36.1567620469663922
 31
0.0
  0
LINE
  5
46F2
  8
0
 10
261.9053987160676797
 20
36.1567620468663833
 30
0.0
 11
261.9053987160676797
 21
36.949247779766381
 31
0.0
  0
LINE
  5
46F3
  8
0
 10
261.9753987160676729
 20
18.3473079018663903
 30
0.0
 11
261.9753987160676729
 21
18.3553079018663787
 31
0.0
  0
LINE
  5
46F4
  8
0
 10
262.0178987160676911
 20
18.9655441223663814
 30
0.0
 11
262.0178987160676911
 21
19.0323079018663783
 31
0.0
  0
LINE
  5
46F5
  8
0
 10
262.1153987160677161
 20
18.7705441223663811
 30
0.0
 11
262.1153987160677161
 21
18.3553079018663787
 31
0.0
  0
LINE
  5
46F6
  8
0
 10
262.1523987160676938
 20
21.0623079018663795
 30
0.0
 11
262.1523987160676938
 21
36.3492477797663867
 31
0.0
  0
LINE
  5
46F7
  8
0
 10
262.1523987160676938
 20
38.1092477797663918
 30
0.0
 11
262.1523987160676938
 21
46.4123079018663773
 31
0.0
  0
LINE
  5
46F8
  8
0
 10
262.1523987160676938
 20
47.7123079018663674
 30
0.0
 11
262.1523987160676938
 21
48.562307901866383
 31
0.0
  0
LINE
  5
46F9
  8
0
 10
262.1603987160676752
 20
17.4443432562663787
 30
0.0
 11
262.1603987160676752
 21
18.3173079018663785
 31
0.0
  0
LINE
  5
46FA
  8
0
 10
262.1603987160676752
 20
18.8155441223663686
 30
0.0
 11
262.1603987160676752
 21
18.9355441223663803
 31
0.0
  0
LINE
  5
46FB
  8
0
 10
262.2603987160676979
 20
47.6623079018663773
 30
0.0
 11
262.2603987160676979
 21
47.640807901566383
 31
0.0
  0
LINE
  5
46FC
  8
0
 10
262.2603987160676979
 20
46.4838079018663777
 30
0.0
 11
262.2603987160676979
 21
46.4623079018663674
 31
0.0
  0
LINE
  5
46FD
  8
0
 10
262.2603987160676979
 20
21.0123079018663788
 30
0.0
 11
262.2603987160676979
 21
20.6408079019663795
 31
0.0
  0
LINE
  5
46FE
  8
0
 10
262.2603987160676979
 20
19.4838079018663812
 30
0.0
 11
262.2603987160676979
 21
19.1123079018663802
 31
0.0
  0
LINE
  5
46FF
  8
0
 10
262.3053880538677163
 20
37.8586369455663885
 30
0.0
 11
262.3053880538677163
 21
37.8598586139663809
 31
0.0
  0
LINE
  5
4700
  8
0
 10
261.0191622171677182
 20
38.0748586139663914
 30
0.0
 11
261.015409378267691
 21
37.8598586146663791
 31
0.0
  0
LINE
  5
4701
  8
0
 10
262.0147984725676906
 20
37.8748598552663793
 30
0.0
 11
261.9992634209676794
 21
36.9848573449663931
 31
0.0
  0
LINE
  5
4702
  8
0
 10
262.2092420565676889
 20
36.9836369455663885
 30
0.0
 11
262.2247770643676859
 21
37.8736369454663873
 31
0.0
  0
LINE
  5
4703
  8
0
 10
262.279641833167716
 20
36.3836369455663799
 30
0.0
 11
262.3053880538677163
 21
37.8586369446663866
 31
0.0
  0
LINE
  5
4704
  8
0
 10
245.8588987160676993
 20
55.0023079018663807
 30
0.0
 11
245.825950002667696
 21
55.0352566152663698
 31
0.0
  0
LINE
  5
4705
  8
0
 10
262.6953987160677002
 20
19.5436157923663814
 30
0.0
 11
262.6953987160677002
 21
20.5810000063663807
 31
0.0
  0
LINE
  5
4706
  8
0
 10
262.6953987160677002
 20
46.5436157973663782
 30
0.0
 11
262.6953987160677002
 21
47.5810000063663807
 31
0.0
  0
LINE
  5
4707
  8
0
 10
263.672958998367676
 20
46.4197724556663829
 30
0.0
 11
263.6729591262690064
 21
47.7048457336073426
 31
0.0
  0
LINE
  5
4708
  8
0
 10
263.7007200200677062
 20
21.0694220099247786
 30
0.0
 11
263.7007200200677062
 21
21.2546155941663812
 31
0.0
  0
LINE
  5
4709
  8
0
 10
263.7384051440012058
 20
21.4683743482414613
 30
0.0
 11
263.7384055122677182
 21
18.6562383345663783
 31
0.0
  0
LINE
  5
470A
  8
0
 10
263.7384050693657969
 20
48.4683737151478198
 30
0.0
 11
263.7384055122677182
 21
45.6562383345663818
 31
0.0
  0
LINE
  5
470B
  8
0
 10
263.672958998367676
 20
19.4197724556663793
 30
0.0
 11
263.6729590611677168
 21
20.704831247866391
 31
0.0
  0
LINE
  5
470C
  8
0
 10
263.6792834000676748
 20
46.311055815066382
 30
0.0
 11
263.6949047755676929
 21
46.1243479085663779
 31
0.0
  0
LINE
  5
470D
  8
0
 10
263.6949047755676929
 20
46.1243479085663779
 30
0.0
 11
263.7212449799677074
 21
45.8102210905663867
 31
0.0
  0
LINE
  5
470E
  8
0
 10
264.1603987160676752
 20
18.5623079018663795
 30
0.0
 11
264.1603987160676752
 21
21.5623079018663795
 31
0.0
  0
LINE
  5
470F
  8
0
 10
264.1603987160676752
 20
45.562307901866383
 30
0.0
 11
264.1603987160676752
 21
48.562307901866383
 31
0.0
  0
LINE
  5
4710
  8
0
 10
263.6795712149677229
 20
20.8170032591663912
 30
0.0
 11
263.7212405239677082
 21
21.3143417552663905
 31
0.0
  0
LINE
  5
4711
  8
0
 10
261.1103987198677032
 20
46.4123079018663773
 30
0.0
 11
262.210398712267704
 21
46.4123079018663773
 31
0.0
  0
LINE
  5
4712
  8
0
 10
262.6953987160677002
 20
46.5738079018663811
 30
0.0
 11
262.3503986609676986
 21
46.5738079018663811
 31
0.0
  0
LINE
  5
4713
  8
0
 10
263.835971430667712
 20
45.567970801166382
 30
0.0
 11
264.1603987160676752
 21
45.562307901866383
 31
0.0
  0
LINE
  5
4714
  8
0
 10
262.7347006197676933
 20
46.5036218845663925
 30
0.0
 11
263.5254153617677275
 21
46.4898199074663765
 31
0.0
  0
LINE
  5
4715
  8
0
 10
262.7347006197676933
 20
47.6209939191663665
 30
0.0
 11
263.5254153617677275
 21
47.6347958963663771
 31
0.0
  0
LINE
  5
4716
  8
0
 10
263.835971430667712
 20
48.5566450025663769
 30
0.0
 11
264.1603987160676752
 21
48.562307901866383
 31
0.0
  0
LINE
  5
4717
  8
0
 10
262.6953987160677002
 20
47.5508079018663778
 30
0.0
 11
262.3503986577676983
 21
47.5508079018663778
 31
0.0
  0
LINE
  5
4718
  8
0
 10
262.2103824566676735
 20
47.7123079018663674
 30
0.0
 11
261.1103987198677032
 21
47.7123079018663674
 31
0.0
  0
LINE
  5
4719
  8
0
 10
246.6268852885677063
 20
55.3414390262663787
 30
0.0
 11
246.57082149026769
 21
55.3762414379663781
 31
0.0
  0
LINE
  5
471A
  8
0
 10
246.617121263367693
 20
55.0579275010663878
 30
0.0
 11
246.5618414641677134
 21
55.0922483990663778
 31
0.0
  0
LINE
  5
471B
  8
0
 10
246.6201503161676953
 20
55.1284098151663926
 30
0.0
 11
246.5640476149334006
 21
55.1632477621073107
 31
0.0
  0
LINE
  5
471C
  8
0
 10
246.6224294186677071
 20
55.1993967714663825
 30
0.0
 11
246.5663066139676971
 21
55.2342407279663803
 31
0.0
  0
LINE
  5
471D
  8
0
 10
246.6246195540676922
 20
55.2704069981663721
 30
0.0
 11
246.5684836122676984
 21
55.3052644453663831
 31
0.0
  0
LINE
  5
471E
  8
0
 10
245.8019240290676919
 20
55.0911412915663874
 30
0.0
 11
245.8601438476677004
 21
55.0598710128663811
 31
0.0
  0
LINE
  5
471F
  8
0
 10
245.7996397150677126
 20
55.1621486946663779
 30
0.0
 11
245.8578495492677121
 21
55.1308910226663826
 31
0.0
  0
LINE
  5
4720
  8
0
 10
245.7974635062676896
 20
55.2330912593663825
 30
0.0
 11
245.8556633379677123
 21
55.2018532235663812
 31
0.0
  0
LINE
  5
4721
  8
0
 10
245.7951673580676868
 20
55.304151953266377
 30
0.0
 11
245.8533725889676873
 21
55.272898255566389
 31
0.0
  0
LINE
  5
4722
  8
0
 10
245.7929915876677001
 20
55.3751165818663793
 30
0.0
 11
245.8511909692676909
 21
55.3438631183663787
 31
0.0
  0
LINE
  5
4723
  8
0
 10
245.7903987160676991
 20
55.4466109277663932
 30
0.0
 11
245.8489303637676926
 21
55.4149131217663822
 31
0.0
  0
LINE
  5
4724
  8
0
 10
263.646052249260606
 20
46.4563643410828533
 30
0.0
 11
263.6583902110676831
 21
46.4492410154663773
 31
0.0
  0
LINE
  5
4725
  8
0
 10
262.1603987160676752
 20
18.8155441223663686
 30
0.0
 11
262.1153987160677161
 21
18.7705441223663811
 31
0.0
  0
LINE
  5
4726
  8
0
 10
263.646052249260606
 20
20.6682514626498985
 30
0.0
 11
263.6583902110676831
 21
20.6753747882663816
 31
0.0
  0
LINE
  5
4727
  8
0
 10
245.8588987160676993
 20
55.0023079018663807
 30
0.0
 11
246.5618987160677023
 21
55.0023079018663807
 31
0.0
  0
LINE
  5
4728
  8
0
 10
246.6303987160677025
 20
55.4523079018663765
 30
0.0
 11
245.9665455030676924
 21
55.4523079018663765
 31
0.0
  0
LINE
  5
4729
  8
0
 10
245.8686158513677071
 20
55.4523079018663765
 30
0.0
 11
245.7903987181676939
 21
55.4523079018663765
 31
0.0
  0
LINE
  5
472A
  8
0
 10
254.1603987160677036
 20
55.5703079018663786
 30
0.0
 11
246.5203987160676888
 21
55.5703079018663786
 31
0.0
  0
LINE
  5
472B
  8
0
 10
245.9003987160677127
 20
55.5703079018663786
 30
0.0
 11
245.6603987160677036
 21
55.5703079018663786
 31
0.0
  0
LINE
  5
472C
  8
0
 10
245.5953987160677059
 20
55.5703079018663786
 30
0.0
 11
245.6503987160677127
 21
55.5703079018663786
 31
0.0
  0
LINE
  5
472D
  8
0
 10
254.1603987160677036
 20
56.5543079018663803
 30
0.0
 11
245.6603987160677036
 21
56.5543079018663803
 31
0.0
  0
LINE
  5
472E
  8
0
 10
245.5953987160677059
 20
56.5543079018663803
 30
0.0
 11
245.6503987160677127
 21
56.5543079018663803
 31
0.0
  0
ARC
  5
472F
  8
0
 10
254.1603987160677036
 20
48.562307901866383
 30
0.0
 40
7.992
 50
0.0
 51
90.0
  0
ARC
  5
4730
  8
0
 10
254.1603987160677036
 20
48.562307901866383
 30
0.0
 40
7.0079999999999991
 50
0.0
 51
90.0
  0
ARC
  5
4731
  8
0
 10
259.9803743481842275
 20
20.6123322698305707
 30
0.0
 40
0.0600243729098895
 50
270.0232588302915815
 51
359.9765521888047033
  0
ARC
  5
4732
  8
0
 10
260.4004229726717767
 20
20.612332158553361
 30
0.0
 40
0.0600242615877775
 50
180.0233479357054023
 51
269.9768469657680043
  0
ARC
  5
4733
  8
0
 10
260.2803987160676797
 20
21.4023079018663793
 30
0.0
 40
0.0600000000000165
 50
0.0000000000069209
 51
90.0
  0
ARC
  5
4734
  8
0
 10
260.1003987160676729
 20
21.4023079018663687
 30
0.0
 40
0.0600000000000237
 50
90.0
 51
179.999999999988006
  0
ARC
  5
4735
  8
0
 10
259.7753987160676843
 20
20.522307901866391
 30
0.0
 40
0.03
 50
90.0
 51
179.9999958985999058
  0
ARC
  5
4736
  8
0
 10
259.7753987160676843
 20
19.6023079018663786
 30
0.0
 40
0.03
 50
180.00000410139981
 51
270.0
  0
ARC
  5
4737
  8
0
 10
259.8053987160677138
 20
19.5923079018663806
 30
0.0
 40
0.02
 50
270.0
 51
0.0
  0
ARC
  5
4738
  8
0
 10
259.8053987160677138
 20
20.5323079018663783
 30
0.0
 40
0.02
 50
0.0
 51
90.0
  0
ARC
  5
4739
  8
0
 10
245.8573953364677038
 20
90.190582468166383
 30
0.0
 40
34.7382763784000019
 50
270.0185066222010164
 51
270.1797470784987922
  0
ARC
  5
473A
  8
0
 10
246.6283987160676929
 20
55.572307901866381
 30
0.0
 40
0.12
 50
180.0
 51
270.0
  0
ARC
  5
473B
  8
0
 10
245.7923987160677086
 20
55.572307901866381
 30
0.0
 40
0.12
 50
270.0
 51
0.0
  0
ARC
  5
473C
  8
0
 10
245.5953987186092036
 20
55.6053079093329288
 30
0.0
 40
0.0350000074665514
 50
179.9696045392707902
 51
269.9999958394949999
  0
ARC
  5
473D
  8
0
 10
245.5953987160677059
 20
56.5193079018663767
 30
0.0
 40
0.035
 50
90.0
 51
180.0000055658998122
  0
ARC
  5
473E
  8
0
 10
245.6503987160677127
 20
55.5803079018663766
 30
0.0
 40
0.01
 50
270.0
 51
0.0
  0
ARC
  5
473F
  8
0
 10
245.6503987160677127
 20
56.5443079018663894
 30
0.0
 40
0.01
 50
0.0
 51
90.0
  0
ARC
  5
4740
  8
0
 10
264.2953987160677229
 20
21.0623079018663795
 30
0.0
 40
0.625
 50
162.0797868606001089
 51
193.567415414296903
  0
ARC
  5
4741
  8
0
 10
263.5210522604676839
 20
20.8847578200663797
 30
0.0
 40
0.25
 50
271.0000000000001137
 51
299.99999703419968
  0
ARC
  5
4742
  8
0
 10
263.5210522605539722
 20
19.2398579842760498
 30
0.0
 40
0.2499999993889185
 50
59.999999941986971
 51
89.0000000173421597
  0
ARC
  5
4743
  8
0
 10
261.8523411068676978
 20
17.20971976716638
 30
0.0
 40
0.2177564708
 50
349.3598192884999207
 51
1.9173126577835251
  0
ARC
  5
4744
  8
0
 10
261.8534090353676902
 20
17.2242725823663783
 30
0.0
 40
0.2166885314
 50
336.5712101090804822
 51
3.0609466065302331
  0
ARC
  5
4745
  8
0
 10
261.831246821344223
 20
17.1726650662276583
 30
0.0
 40
0.2388906203189942
 50
346.5625158573582212
 51
4.6103194754292733
  0
ARC
  5
4746
  8
0
 10
261.4449954173676929
 20
17.1991634275663792
 30
0.0
 40
0.1942954512
 50
174.3064734975295096
 51
179.9974085670999955
  0
ARC
  5
4747
  8
0
 10
261.4448120114677181
 20
17.1991725890663787
 30
0.0
 40
0.1941120451
 50
180.0001102936998905
 51
184.2994600760999049
  0
ARC
  5
4748
  8
0
 10
263.8377166716981037
 20
18.66795557074337
 30
0.0
 40
0.1000000000775093
 50
186.7289394605743951
 51
268.9999997644306973
  0
ARC
  5
4749
  8
0
 10
263.8377166716676925
 20
21.4566602330663798
 30
0.0
 40
0.1
 50
91.0000002188996149
 51
173.2710605445998908
  0
ARC
  5
474A
  8
0
 10
262.3504327476478011
 20
20.6408419334207807
 30
0.0
 40
0.0900340380117743
 50
180.0216569066205068
 51
269.9782998668800928
  0
ARC
  5
474B
  8
0
 10
260.9703616242796897
 20
20.6423430934368497
 30
0.0
 40
0.0900370986654059
 50
270.3729183957772761
 51
359.9776055173568921
  0
ARC
  5
474C
  8
0
 10
262.3504325899235141
 20
19.4837740280363114
 30
0.0
 40
0.0900338802280105
 50
90.0216000530484166
 51
179.9784433644331898
  0
ARC
  5
474D
  8
0
 10
260.9703646208370742
 20
19.4822738066560497
 30
0.0
 40
0.0900341016864135
 50
0.0216975915011529
 51
89.9782684736969856
  0
ARC
  5
474E
  8
0
 10
263.6833902110677172
 20
20.6320735180663917
 30
0.0
 40
0.05
 50
102.0416699784417034
 51
119.9999987853991001
  0
ARC
  5
474F
  8
0
 10
263.6833902110677172
 20
19.4925422856663815
 30
0.0
 40
0.05
 50
240.0000012145995072
 51
257.958259171858117
  0
ARC
  5
4750
  8
0
 10
262.2103986991285183
 20
21.0123078956790117
 30
0.0
 40
0.0500000169392511
 50
0.0000070901979377
 51
89.9624253533248464
  0
ARC
  5
4751
  8
0
 10
261.1103987160677207
 20
21.0123079018663788
 30
0.0
 40
0.05
 50
90.0
 51
180.0
  0
ARC
  5
4752
  8
0
 10
262.2103987160676866
 20
19.1123079018663802
 30
0.0
 40
0.05
 50
270.0
 51
0.0
  0
ARC
  5
4753
  8
0
 10
261.1103987160677207
 20
19.1123079018663802
 30
0.0
 40
0.05
 50
180.0
 51
270.0
  0
ARC
  5
4754
  8
0
 10
263.7387794565677268
 20
21.2423079018663792
 30
0.0
 40
0.04
 50
121.1762336629581966
 51
162.0797868606001089
  0
ARC
  5
4755
  8
0
 10
262.7353987160677207
 20
20.5810000113663882
 30
0.0
 40
0.0399999999999927
 50
91.0000001410904957
 51
180.0000071619832056
  0
ARC
  5
4756
  8
0
 10
262.7353987160677207
 20
19.5436157923663814
 30
0.0
 40
0.04
 50
180.0
 51
268.9999998588996846
  0
ARC
  5
4757
  8
0
 10
262.1303987160677025
 20
18.9355441223663803
 30
0.0
 40
0.03
 50
0.0
 51
90.0
  0
ARC
  5
4758
  8
0
 10
261.1903987160677048
 20
18.9355441223663803
 30
0.0
 40
0.03
 50
90.0
 51
180.0
  0
ARC
  5
4759
  8
0
 10
262.1303987160677025
 20
18.3173079018663785
 30
0.0
 40
0.0300000000000083
 50
0.0000000000032569
 51
90.0
  0
ARC
  5
475A
  8
0
 10
261.1903987160677048
 20
18.3173079018663714
 30
0.0
 40
0.0300000000000111
 50
90.0
 51
179.9999999999828901
  0
ARC
  5
475B
  8
0
 10
262.0478987160677207
 20
19.0323079018663783
 30
0.0
 40
0.03
 50
90.0
 51
180.0
  0
ARC
  5
475C
  8
0
 10
261.2728987160676866
 20
19.0323079018663783
 30
0.0
 40
0.03
 50
0.0
 51
90.0
  0
ARC
  5
475D
  8
0
 10
261.6603985481676773
 20
35.3610249652663811
 30
0.0
 40
0.7660281042000001
 50
78.0046139507007155
 51
101.9953613959004031
  0
ARC
  5
475E
  8
0
 10
261.4754225612676919
 20
36.1568195751663808
 30
0.0
 40
0.0600238727
 50
180.0549135327997874
 51
197.846740847699806
  0
ARC
  5
475F
  8
0
 10
261.0932043258677027
 20
37.8592477818663866
 30
0.0
 40
0.0373422476
 50
179.0627264967997974
 51
180.9372735820998059
  0
ARC
  5
4760
  8
0
 10
261.271004311843285
 20
37.8742477796978818
 30
0.0
 40
0.0350000000685031
 50
1.002068434684328
 51
89.9999999599989167
  0
ARC
  5
4761
  8
0
 10
261.1465500448676949
 20
36.9842477797663918
 30
0.0
 40
0.035
 50
180.9999999999998863
 51
269.9999983446003853
  0
ARC
  5
4762
  8
0
 10
261.1310150370676979
 20
37.8742477797663781
 30
0.0
 40
0.035000000000009
 50
89.9999875586406404
 51
180.9999999999864997
  0
ARC
  5
4763
  8
0
 10
261.286539319690803
 20
36.9842477797013771
 30
0.0
 40
0.0349999999349935
 50
269.9999999621842903
 51
0.998478223224105
  0
ARC
  5
4764
  8
0
 10
261.0761502682677246
 20
36.3842477797663832
 30
0.0
 40
0.0350000000000068
 50
181.0000004759019134
 51
270.0000258649473039
  0
ARC
  5
4765
  8
0
 10
261.0541568864676947
 20
38.0742477797663881
 30
0.0
 40
0.0349999999999971
 50
89.9999900141713454
 51
178.9999998040063076
  0
CIRCLE
  5
4766
  8
0
 10
261.6603987160676752
 20
37.4292477797663921
 30
0.0
 40
0.1315
  0
CIRCLE
  5
4767
  8
0
 10
261.6603987160676752
 20
37.4292477797663921
 30
0.0
 40
0.097823812195621
  0
ARC
  5
4768
  8
0
 10
261.8453453617638047
 20
36.1568218145691418
 30
0.0
 40
0.0600533839896084
 50
339.2694365035703754
 51
359.9429769948152966
  0
ARC
  5
4769
  8
0
 10
262.2275930583676882
 20
37.8592477773663916
 30
0.0
 40
0.0373422955
 50
359.062733814861474
 51
0.9372733974423882
  0
ARC
  5
476A
  8
0
 10
262.1742473872677124
 20
36.9842477797663918
 30
0.0
 40
0.035
 50
270.000001814799873
 51
358.9999999999997726
  0
ARC
  5
476B
  8
0
 10
262.1897823949677218
 20
37.874247779766371
 30
0.0
 40
0.0350000000000134
 50
359.0000000000180194
 51
90.0000088398926152
  0
ARC
  5
476C
  8
0
 10
262.0497931202966129
 20
37.8742477796779511
 30
0.0
 40
0.0350000000884379
 50
90.0000000472134758
 51
178.9979675532547105
  0
ARC
  5
476D
  8
0
 10
262.0342581124929211
 20
36.9842477798320033
 30
0.0
 40
0.0350000000656132
 50
179.0020778477741885
 51
269.9999999588346213
  0
ARC
  5
476E
  8
0
 10
262.2446471018291732
 20
36.3842478063772887
 30
0.0
 40
0.0350000623935476
 50
269.9180706542827011
 51
358.9999577377561195
  0
ARC
  5
476F
  8
0
 10
262.2666405456815824
 20
38.0742477798143426
 30
0.0
 40
0.0349999999543399
 50
0.9999998813542084
 51
90.0006569598233739
  0
ARC
  5
4770
  8
0
 10
262.3504325889538791
 20
46.4837740290009407
 30
0.0
 40
0.0900338792580836
 50
90.0215910996917046
 51
179.9784439780698904
  0
ARC
  5
4771
  8
0
 10
262.3504327339152269
 20
47.640841919691951
 30
0.0
 40
0.0900340242741498
 50
180.0216484277391089
 51
269.9783146483096061
  0
ARC
  5
4772
  8
0
 10
262.2103987118421173
 20
47.6623079002830821
 30
0.0
 40
0.050000004225609
 50
0.0000018143266045
 51
90.0186270565058635
  0
ARC
  5
4773
  8
0
 10
261.1103987160677207
 20
46.4623079018663674
 30
0.0
 40
0.05
 50
180.0
 51
270.0000043381991759
  0
ARC
  5
4774
  8
0
 10
262.2103987160676866
 20
46.4623079018663674
 30
0.0
 40
0.05
 50
269.9999956617991188
 51
0.0
  0
ARC
  5
4775
  8
0
 10
261.1103987160677207
 20
47.6623079018663773
 30
0.0
 40
0.05
 50
89.9999956633999005
 51
180.0
  0
ARC
  5
4776
  8
0
 10
264.2953987160677229
 20
46.062307901866383
 30
0.0
 40
0.625
 50
166.4358598504265103
 51
197.9202131393996922
  0
ARC
  5
4777
  8
0
 10
263.5210522604676839
 20
47.8847578200663833
 30
0.0
 40
0.25
 50
271.0000000000001137
 51
299.99999703419968
  0
ARC
  5
4778
  8
0
 10
263.5210522604676839
 20
46.2398579836663828
 30
0.0
 40
0.25
 50
60.0000029658002916
 51
88.9999999999998579
  0
ARC
  5
4779
  8
0
 10
263.8377166716676925
 20
45.6679555706663791
 30
0.0
 40
0.1
 50
186.7289394491999985
 51
268.9999997811004278
  0
ARC
  5
477A
  8
0
 10
263.8377166717244222
 20
48.4566602329230633
 30
0.0
 40
0.1000000001442976
 50
91.0000002499262166
 51
173.2732263116423042
  0
ARC
  5
477B
  8
0
 10
263.6833902110677172
 20
47.6320735180663775
 30
0.0
 40
0.05
 50
102.0415951172201972
 51
119.9999987853991001
  0
ARC
  5
477C
  8
0
 10
263.6833902110677172
 20
46.4925422856663886
 30
0.0
 40
0.05
 50
240.0000012145995072
 51
257.9582605887185878
  0
ARC
  5
477D
  8
0
 10
263.7387794565677268
 20
45.8823079018663833
 30
0.0
 40
0.04
 50
197.9202131393996922
 51
238.819289987765103
  0
ARC
  5
477E
  8
0
 10
262.7353987160677207
 20
47.5810000113663918
 30
0.0
 40
0.0399999999999961
 50
91.0000001410790844
 51
180.0000071619780897
  0
ARC
  5
477F
  8
0
 10
262.7353987160677207
 20
46.5436157923663671
 30
0.0
 40
0.0399999999999853
 50
179.9999928380219103
 51
268.9999998589208872
  0
ARC
  5
4780
  8
0
 10
275.6557444925676919
 20
20.0623079018663795
 30
0.0
 40
12.0
 50
183.0693486149999956
 51
186.728945362799692
  0
ARC
  5
4781
  8
0
 10
273.1463296909382166
 20
20.2026895584451687
 30
0.0
 40
9.4866694558866982
 50
176.2871872077442106
 51
176.9658423161226892
  0
ARC
  5
4782
  8
0
 10
275.6301779681680841
 20
20.0652421291680696
 30
0.0
 40
11.9742657781510093
 50
173.2706638175451133
 51
174.0122780903409136
  0
ARC
  5
4783
  8
0
 10
275.6557444925676919
 20
47.062307901866383
 30
0.0
 40
12.0
 50
185.9891751792997923
 51
186.7289453628999922
  0
ARC
  5
4784
  8
0
 10
275.6557437974562959
 20
47.0623078597435125
 30
0.0
 40
11.9999993036150308
 50
183.0693485918473868
 51
183.5893117099508913
  0
ARC
  5
4785
  8
0
 10
275.6557444551439744
 20
47.0623079044728527
 30
0.0
 40
11.9999999624903992
 50
173.2710726770241934
 51
176.9306399814101098
  0
ARC
  5
4786
  8
0
 10
264.5239845241293892
 20
45.9577347689907825
 30
0.0
 40
2.8207367619216401
 50
143.3676148585682029
 51
149.1327890313349087
  0
ARC
  5
4787
  8
0
 10
262.9796743495115265
 20
46.8759260667021422
 30
0.0
 40
1.0240951019497571
 50
148.8994264828870939
 51
160.6377049968409949
  0
ARC
  5
4788
  8
0
 10
262.4529045285893858
 20
47.0619288717097817
 30
0.0
 40
0.465452152068859
 50
160.7407656468108996
 51
200.6193875208531949
  0
ARC
  5
4789
  8
0
 10
263.5186354567945841
 20
47.5008205643212378
 30
0.0
 40
1.6178610729319369
 50
201.8756559813766955
 51
218.9480555867156113
  0
ARC
  5
478A
  8
0
 10
246.3724566170170931
 20
54.8418306014812202
 30
0.0
 40
0.868054053054988
 50
111.0320727230788975
 51
122.9434928394960025
  0
ARC
  5
478B
  8
0
 10
246.2096756033081988
 20
55.2702203210428777
 30
0.0
 40
0.4097872291493089
 50
78.8637095711995215
 51
111.2849358698426983
  0
ARC
  5
478C
  8
0
 10
246.120357723127313
 20
54.9758421145263085
 30
0.0
 40
0.7165349735711151
 50
56.061733774953872
 51
76.4018051168473136
  0
ARC
  5
478D
  8
0
 10
245.7934006817988006
 20
55.3760633212974014
 30
0.0
 40
0.0010313455087337
 50
123.5430279633769004
 51
246.6304180803151098
  0
LINE
  5
478E
  8
0
 10
245.7903987181676939
 20
55.4523079018663765
 30
0.0
 11
245.7903987160676991
 21
55.4466109277663932
 31
0.0
  0
ARC
  5
478F
  8
0
 10
245.8463656731036053
 20
55.41332846007424
 30
0.0
 40
0.0030147621599168
 50
328.7040358114069249
 51
31.7109380782008188
  0
ARC
  5
4790
  8
0
 10
245.8500467044451057
 20
55.3423115637467902
 30
0.0
 40
0.0019278650683685
 50
305.373103549662801
 51
53.5913859108416091
  0
ARC
  5
4791
  8
0
 10
245.7957824756433922
 20
55.3051004333244833
 30
0.0
 40
0.0011304795674907
 50
132.3581272767412997
 51
237.0353895672647013
  0
ARC
  5
4792
  8
0
 10
245.8523762808059985
 20
55.2713365138539885
 30
0.0
 40
0.0018524759456712
 50
301.624568505710215
 51
57.4642899410316872
  0
ARC
  5
4793
  8
0
 10
245.7978798075492932
 20
55.2340715279913965
 30
0.0
 40
0.0010650039127783
 50
123.9050401772820038
 51
246.9899996842991072
  0
ARC
  5
4794
  8
0
 10
245.853719846964708
 20
55.2003204729558732
 30
0.0
 40
0.002475173067251
 50
320.5076580976897844
 51
38.2613769829092902
  0
ARC
  5
4795
  8
0
 10
245.8002421034341012
 20
55.1630993909008112
 30
0.0
 40
0.0011254754880043
 50
132.7248950732781907
 51
237.6404819221787932
  0
ARC
  5
4796
  8
0
 10
245.8561638771060984
 20
55.1293428914939767
 30
0.0
 40
0.0022887115946254
 50
316.5478860375591239
 51
42.5645484302246899
  0
ARC
  5
4797
  8
0
 10
245.8023723727480103
 20
55.0920992286997802
 30
0.0
 40
0.0010576651678346
 50
125.3964752635789068
 51
244.9189781050291117
  0
ARC
  5
4798
  8
0
 10
245.8583749677445951
 20
55.0583207115889905
 30
0.0
 40
0.0023520991120955
 50
318.7688631235895969
 51
41.2323306284470874
  0
ARC
  5
4799
  8
0
 10
245.8260914439055966
 20
55.0354022084099981
 30
0.0
 40
0.0002029851897391
 50
144.3632741296148936
 51
225.8287163516671967
  0
ARC
  5
479A
  8
0
 10
246.616987296969711
 20
55.0577203649795024
 30
0.0
 40
0.0002466826995812
 50
336.8138069455147843
 51
57.1070100248010704
  0
ARC
  5
479B
  8
0
 10
246.5624844929357096
 20
55.0938071765249617
 30
0.0
 40
0.0016862008071047
 50
114.1169274106549949
 51
247.5828138505875984
  0
ARC
  5
479C
  8
0
 10
246.6196489416182942
 20
55.1275401220662218
 30
0.0
 40
0.0010038637991769
 50
289.9406583350714754
 51
60.0367252714033768
  0
ARC
  5
479D
  8
0
 10
246.5648577482849078
 20
55.1648260107318293
 30
0.0
 40
0.00177403065589
 50
118.1862940302163025
 51
242.8280436775397959
  0
ARC
  5
479E
  8
0
 10
246.621880486360709
 20
55.1985776525751604
 30
0.0
 40
0.0009860438304728
 50
291.4751731730494839
 51
56.1719940651708072
  0
ARC
  5
479F
  8
0
 10
246.5673645129793954
 20
55.2358117481530186
 30
0.0
 40
0.0018940049487255
 50
125.4865996100997023
 51
236.044327307487805
  0
ARC
  5
47A0
  8
0
 10
246.6239402194682953
 20
55.2695582413851767
 30
0.0
 40
0.0010871446875026
 50
298.5103626759025133
 51
51.3266448600807266
  0
ARC
  5
47A1
  8
0
 10
246.569728104860701
 20
55.3068272131663718
 30
0.0
 40
0.0019977499870796
 50
128.0330287910636002
 51
231.4683306453057128
  0
ARC
  5
47A2
  8
0
 10
246.6261841463972075
 20
55.3406126282359097
 30
0.0
 40
0.0010837592204597
 50
299.4322094919228903
 51
49.6876750705899468
  0
ARC
  5
47A3
  8
0
 10
246.57262602142319
 20
55.3778400457745406
 30
0.0
 40
0.0024107840250291
 50
139.9592182834562095
 51
221.5372644182947965
  0
ARC
  5
47A4
  8
0
 10
221.8929963913811036
 20
643.9873367140576192
 30
0.0
 40
589.0962664897873537
 50
272.3251023431948283
 51
272.4065407597615263
  0
ARC
  5
47A5
  8
0
 10
245.9956040165911872
 20
54.293536379294622
 30
0.0
 40
1.1295209318769091
 50
91.4578522662907147
 51
97.4385966255967446
  0
ARC
  5
47A6
  8
0
 10
262.963954339259999
 20
-285.3014270695592245
 30
0.0
 40
341.0732714853455718
 50
92.754990420709305
 51
92.8757926394110171
  0
ARC
  5
47A7
  8
0
 10
253.0577630828057067
 20
-104.9499839660442007
 30
0.0
 40
160.4195331771479118
 50
92.297344775205076
 51
92.5949946871448333
  0
ARC
  5
47A8
  8
0
 10
244.8578833583254095
 20
82.4811895155429085
 30
0.0
 40
27.2281032386128885
 50
272.0970660351205765
 51
273.6003800453108283
  0
ARC
  5
47A9
  8
0
 10
298.995792484799324
 20
-1180.0222731143799137
 30
0.0
 40
1236.401378277116919
 50
92.4276275455882796
 51
92.4660423718834039
  0
ARC
  5
47AA
  8
0
 10
244.6034585795630107
 20
87.384829370085825
 30
0.0
 40
32.208880165859803
 50
272.2290318550803931
 51
273.4923498452340027
  0
ARC
  5
47AB
  8
0
 10
236.8409355604873099
 20
272.7389252223558174
 30
0.0
 40
217.7601639287522062
 50
272.3576894729393985
 51
272.5746307832002913
  0
ARC
  5
47AC
  8
0
 10
244.2414232059306016
 20
94.2722149841961965
 30
0.0
 40
39.1762582234552781
 50
272.3655982181726927
 51
273.3974489502218717
  0
ARC
  5
47AD
  8
0
 10
244.7596905163844099
 20
83.7122237890274761
 30
0.0
 40
28.6750491133408403
 50
272.2005283680684897
 51
273.6011743801585112
  0
ARC
  5
47AE
  8
0
 10
235.1260605654144058
 20
312.0256039223943958
 30
0.0
 40
257.1551805528804948
 50
272.379196949775519
 51
272.5619196132265074
  0
ARC
  5
47AF
  8
0
 10
260.1903987158676728
 20
21.1286160968186607
 30
0.0
 40
0.6133768304013071
 50
249.978848141737501
 51
290.0211518582623853
  0
ARC
  5
47B0
  8
0
 10
259.1344334602013078
 20
20.9360482146255293
 30
0.0
 40
2.4130277791944561
 50
322.9540829084127722
 51
331.9374466562097155
  0
ARC
  5
47B1
  8
0
 10
260.551147143792889
 20
20.1587853614240586
 30
0.0
 40
0.7974551711757253
 50
333.3322680785684042
 51
345.5681378388770781
  0
ARC
  5
47B2
  8
0
 10
260.8830808888793058
 20
20.0633140630197886
 30
0.0
 40
0.4523062202135365
 50
346.800947116954319
 51
359.8725547610309263
  0
ARC
  5
47B3
  8
0
 10
260.8449473297616805
 20
20.057719744688189
 30
0.0
 40
0.4904601222620612
 50
0.5360077721295466
 51
20.4278025276176294
  0
ARC
  5
47B4
  8
0
 10
260.1969615660930231
 20
19.8045698125764709
 30
0.0
 40
1.186103568363039
 50
20.9623446342588515
 51
32.8655421268100909
  0
ARC
  5
47B5
  8
0
 10
258.3715349525473925
 20
18.6595491779626101
 30
0.0
 40
3.3408562518600231
 50
32.3708051427722694
 51
36.4049333371360575
  0
ARC
  5
47B6
  8
0
 10
264.1513738847996251
 20
20.9108110746184614
 30
0.0
 40
2.368992432196662
 50
208.100799024417995
 51
217.0396196354512028
  0
ARC
  5
47B7
  8
0
 10
262.5820618350115865
 20
20.083392340726661
 30
0.0
 40
0.5950088877413326
 50
182.0307388717554034
 51
208.9964722996477917
  0
ARC
  5
47B8
  8
0
 10
262.4903242802975001
 20
20.0563865312249909
 30
0.0
 40
0.5029325018250405
 50
158.676887827685789
 51
179.3254123915471894
  0
ARC
  5
47B9
  8
0
 10
263.74317316722329
 20
19.4881605812811998
 30
0.0
 40
1.878088368230463
 50
142.1399875324804896
 51
156.4261335566708055
  0
ARC
  5
47BA
  8
0
 10
261.4437966780704983
 20
17.5777154248375105
 30
0.0
 40
0.2834634524609789
 50
181.2316476139475867
 51
221.6219301531303927
  0
ARC
  5
47BB
  8
0
 10
261.6107773522832076
 20
17.7414715013589408
 30
0.0
 40
0.5171856191427412
 50
222.8965170214706006
 51
259.8061164918710233
  0
ARC
  5
47BC
  8
0
 10
261.6599396249433198
 20
17.9077761067167813
 30
0.0
 40
0.6898261824612526
 50
258.2316576014703173
 51
288.5690757121976162
  0
ARC
  5
47BD
  8
0
 10
261.7306835851022129
 20
17.7149361534090488
 30
0.0
 40
0.4845301039736431
 50
287.9007559174975199
 51
315.3965070819061793
  0
ARC
  5
47BE
  8
0
 10
261.870602148629473
 20
17.5796328324619111
 30
0.0
 40
0.2899072546421664
 50
315.017712786569291
 51
358.4166730068646984
  0
ARC
  5
47BF
  8
0
 10
261.439073972173901
 20
17.4459773009054189
 30
0.0
 40
0.278680046770028
 50
180.3359565886534881
 51
207.7359077970870942
  0
ARC
  5
47C0
  8
0
 10
261.5003038238560862
 20
17.478655349907541
 30
0.0
 40
0.3480832418715291
 50
207.8062316712774873
 51
224.9278552846693913
  0
ARC
  5
47C1
  8
0
 10
261.6169373658481732
 20
17.6147697301259392
 30
0.0
 40
0.5269715276128224
 50
226.4502120909533005
 51
257.7804585173723808
  0
ARC
  5
47C2
  8
0
 10
261.6605305015726231
 20
17.769339369602271
 30
0.0
 40
0.6873371930503761
 50
256.9560460062758125
 51
280.9081967251344736
  0
ARC
  5
47C3
  8
0
 10
261.686705530460074
 20
17.6600059438196695
 30
0.0
 40
0.5750478307503232
 50
280.4087843430997964
 51
302.0133330545817785
  0
ARC
  5
47C4
  8
0
 10
261.7781504684959941
 20
17.5155818255189111
 30
0.0
 40
0.4041117465195539
 50
301.8748395274437257
 51
323.4177477641853216
  0
ARC
  5
47C5
  8
0
 10
261.8607009277719726
 20
17.4537047730218191
 30
0.0
 40
0.3009467017195476
 50
323.5109028783804206
 51
346.9793163670066747
  0
ARC
  5
47C6
  8
0
 10
261.8920751162506804
 20
17.4445532661553315
 30
0.0
 40
0.2683236820016442
 50
347.3738244161121997
 51
359.9551560956845719
  0
ARC
  5
47C7
  8
0
 10
261.5833431091032821
 20
17.3979416278129797
 30
0.0
 40
0.3577778204615704
 50
211.4941545166674928
 51
253.1723929093319896
  0
ARC
  5
47C8
  8
0
 10
261.6602285600375239
 20
17.5863604147861103
 30
0.0
 40
0.5607099515973621
 50
251.2256825884331874
 51
290.2533737397412779
  0
ARC
  5
47C9
  8
0
 10
261.7196401223365001
 20
17.4324200727451206
 30
0.0
 40
0.3957285306833005
 50
289.8988901047354148
 51
313.1603732190366145
  0
ARC
  5
47CA
  8
0
 10
261.7871929236147253
 20
17.3565078444589886
 30
0.0
 40
0.2941579143672472
 50
313.6768109139762828
 51
330.006462380792982
  0
ARC
  5
47CB
  8
0
 10
261.56160420516062
 20
17.351111294701159
 30
0.0
 40
0.3265613032954512
 50
202.1819847674418895
 51
251.9072961208246966
  0
ARC
  5
47CC
  8
0
 10
261.6502742226768987
 20
17.5719699271230603
 30
0.0
 40
0.5642549726041703
 50
250.3131886531022872
 51
285.3317302949383816
  0
ARC
  5
47CD
  8
0
 10
261.6925327922572819
 20
17.4485677529721812
 30
0.0
 40
0.4341471306691142
 50
284.2592252730970017
 51
309.9445019430642105
  0
ARC
  5
47CE
  8
0
 10
261.7855610388373861
 20
17.3403354230251487
 30
0.0
 40
0.2914464141007844
 50
309.5844231800580815
 51
334.6751329120137939
  0
ARC
  5
47CF
  8
0
 10
261.4612212161189859
 20
17.2521995742315113
 30
0.0
 40
0.2106871545521743
 50
184.5358952311651137
 51
212.1015748173244049
  0
ARC
  5
47D0
  8
0
 10
261.5943155679387928
 20
17.3628146031393911
 30
0.0
 40
0.3829054030580239
 50
215.5412717928672919
 51
257.9137981850528831
  0
ARC
  5
47D1
  8
0
 10
261.6494175229648818
 20
17.5421731556445515
 30
0.0
 40
0.5700594816838678
 50
256.2726832092491804
 51
285.9454194608176181
  0
ARC
  5
47D2
  8
0
 10
261.7090170704598791
 20
17.3796788246618483
 30
0.0
 40
0.3976457941329883
 50
284.1201426459847994
 51
321.9735667148555081
  0
ARC
  5
47D3
  8
0
 10
261.8261116703881726
 20
17.2811717135377592
 30
0.0
 40
0.2447853985629867
 50
323.2524841125976991
 51
348.3673083890055864
  0
ARC
  5
47D4
  8
0
 10
261.4687396464865969
 20
17.2390379365711013
 30
0.0
 40
0.218056314258207
 50
180.7875520325509058
 51
219.5871062410639922
  0
ARC
  5
47D5
  8
0
 10
261.5981074533411856
 20
17.359177571375259
 30
0.0
 40
0.3944440577839723
 50
221.0611486669255896
 51
257.8148839524366167
  0
ARC
  5
47D6
  8
0
 10
261.6493999821980765
 20
17.5279434420461016
 30
0.0
 40
0.5704188362506564
 50
256.3567271056687105
 51
285.9978976110184021
  0
ARC
  5
47D7
  8
0
 10
261.6955068889520248
 20
17.3924186207982316
 30
0.0
 40
0.4274923167602803
 50
285.0636372196142929
 51
312.5742011748286018
  0
ARC
  5
47D8
  8
0
 10
261.8108824598887736
 20
17.2714234165290392
 30
0.0
 40
0.2603530343840111
 50
311.8910576570086732
 51
351.8764557483880822
  0
ARC
  5
47D9
  8
0
 10
261.6591631896861827
 20
17.41972031051003
 30
0.0
 40
0.4978474141274429
 50
269.1923687728117898
 51
312.4539707127901238
  0
ARC
  5
47DA
  8
0
 10
261.6439583995950215
 20
17.4454784172604818
 30
0.0
 40
0.5236200769155381
 50
244.3330444364256948
 51
270.8959274780681881
  0
ARC
  5
47DB
  8
0
 10
261.5633381357870917
 20
17.2808865517218599
 30
0.0
 40
0.3403519545994668
 50
219.864559409679913
 51
244.5643493738041911
  0
ARC
  5
47DC
  8
0
 10
261.4704290683790191
 20
17.2045071843622992
 30
0.0
 40
0.2200831928443212
 50
185.1844036831600135
 51
220.1057633667311961
  0
ARC
  5
47DD
  8
0
 10
261.8249422402623168
 20
17.2168832552065894
 30
0.0
 40
0.2460148940881579
 50
323.6927808430755249
 51
348.8983606126308814
  0
ARC
  5
47DE
  8
0
 10
261.7324454295076066
 20
17.2902518190318197
 30
0.0
 40
0.3640224551058806
 50
297.0200945614388957
 51
323.0072086077587983
  0
ARC
  5
47DF
  8
0
 10
261.6526998319329209
 20
17.4490946290051703
 30
0.0
 40
0.5417569574234417
 50
270.3296267541825841
 51
296.9014735878125748
  0
ARC
  5
47E0
  8
0
 10
261.6450904911685029
 20
17.4378817199515197
 30
0.0
 40
0.5306434991650955
 50
246.1944282993734987
 51
271.1582193528262223
  0
ARC
  5
47E1
  8
0
 10
261.5799786940287959
 20
17.2901353152321988
 30
0.0
 40
0.3691859491498008
 50
225.7116093876315119
 51
246.1845890575891076
  0
ARC
  5
47E2
  8
0
 10
261.4838500522195091
 20
17.1959854786408783
 30
0.0
 40
0.2346865842088904
 50
192.4472118010052952
 51
226.4611673735383874
  0
ARC
  5
47E3
  8
0
 10
261.4456560333672996
 20
17.1845873895064614
 30
0.0
 40
0.1949551091758769
 50
177.8576918930590125
 51
191.595528841388699
  0
ARC
  5
47E4
  8
0
 10
261.556638287831106
 20
17.2050352179545598
 30
0.0
 40
0.3023622760479543
 50
206.9187373885665977
 51
245.3217585568141033
  0
ARC
  5
47E5
  8
0
 10
261.6585924210302778
 20
17.4051372779971203
 30
0.0
 40
0.5268349883606664
 50
244.3325508939279871
 51
275.6263946158370004
  0
ARC
  5
47E6
  8
0
 10
261.6745641520295749
 20
17.3730877457451101
 30
0.0
 40
0.4935387550737957
 50
274.1457575721403828
 51
303.7373807715657108
  0
ARC
  5
47E7
  8
0
 10
261.7793263738316796
 20
17.2144327496789984
 30
0.0
 40
0.3034205842925386
 50
303.9253672288584198
 51
327.4976137577056079
  0
ARC
  5
47E8
  8
0
 10
261.850128101241296
 20
17.1702680540761001
 30
0.0
 40
0.2199788166444947
 50
327.2900031109418251
 51
346.0269178690912213
  0
ARC
  5
47E9
  8
0
 10
261.4862200390267049
 20
36.1617875377802491
 30
0.0
 40
0.0718383449313467
 50
198.9791810954413052
 51
240.5541264458975093
  0
ARC
  5
47EA
  8
0
 10
261.4853117408229082
 20
36.1642107351504904
 30
0.0
 40
0.0735287178426314
 50
242.09891198193219
 51
271.4134735267895167
  0
ARC
  5
47EB
  8
0
 10
261.4840948445698245
 20
36.176978029688442
 30
0.0
 40
0.0688097802699981
 50
183.2935210019431054
 51
284.3878538254239174
  0
ARC
  5
47EC
  8
0
 10
261.6605758144635843
 20
35.1811446264186998
 30
0.0
 40
0.9259503113341265
 50
79.2008336545814728
 51
100.7965060623527052
  0
ARC
  5
47ED
  8
0
 10
261.8349205527733261
 20
36.1625363851279076
 30
0.0
 40
0.0718451029101338
 50
269.320374147705877
 51
337.9498931436834255
  0
ARC
  5
47EE
  8
0
 10
261.8367026636723836
 20
36.1769776119176569
 30
0.0
 40
0.0688094641955889
 50
255.6120017259530925
 51
356.7099512526064018
  0
ARC
  5
47EF
  8
0
 10
261.8056444207691129
 20
17.2403338581898211
 30
0.0
 40
0.2669352052787623
 50
315.2472999247236203
 51
337.4844554883301271
  0
LINE
  5
47F0
  8
0
 10
245.9668672232324127
 20
55.4226916973335335
 30
0.0
 11
246.5060676348059872
 21
55.4523079018663907
 31
0.0
  0
LINE
  5
47F1
  8
0
 10
245.8260914439055966
 20
55.0354022084099981
 30
0.0
 11
246.6172339796692938
 21
55.0577203649795095
 31
0.0
  0
LINE
  5
47F2
  8
0
 10
260.1003987160676729
 20
21.4623079018663816
 30
0.0
 11
260.2803987160676797
 21
21.4623079018663816
 31
0.0
  0
LINE
  5
47F3
  8
0
 10
262.6953987160677002
 20
20.5523079018663886
 30
0.0
 11
262.3503986482676851
 21
20.5508079018663814
 31
0.0
  0
LINE
  5
47F4
  8
0
 10
262.6953987160677002
 20
19.572307901866381
 30
0.0
 11
262.3503986478676779
 21
19.5738079018663811
 31
0.0
  0
LINE
  5
47F5
  8
0
 10
260.9703987695722844
 20
19.572307901866381
 30
0.0
 11
259.8253987160676957
 21
19.572307901866381
 31
0.0
  0
LINE
  5
47F6
  8
0
 10
259.8053987160677138
 20
19.572307901866381
 30
0.0
 11
259.7753987160676843
 21
19.572307901866381
 31
0.0
  0
LINE
  5
47F7
  8
0
 10
260.9709476404507882
 20
20.5523079018663886
 30
0.0
 11
260.4003987170742107
 21
20.5523079018663886
 31
0.0
  0
LINE
  5
47F8
  8
0
 10
259.9803987146688087
 20
20.5523079018663886
 30
0.0
 11
259.8253987160676957
 21
20.5523079018663886
 31
0.0
  0
LINE
  5
47F9
  8
0
 10
259.8053987160677138
 20
20.5523079018663886
 30
0.0
 11
259.7753987160676843
 21
20.5523079018663886
 31
0.0
  0
LINE
  5
47FA
  8
0
 10
262.2104314892022217
 20
21.0623079018663795
 30
0.0
 11
261.1103987160677207
 21
21.0623079018663795
 31
0.0
  0
LINE
  5
47FB
  8
0
 10
261.1103987160677207
 20
19.0623079018663795
 30
0.0
 11
262.2103987160676866
 21
19.0623079018663795
 31
0.0
  0
LINE
  5
47FC
  8
0
 10
261.1903987160677048
 20
18.9655441223663814
 30
0.0
 11
262.1303987160677025
 21
18.9655441223663814
 31
0.0
  0
LINE
  5
47FD
  8
0
 10
262.1153987160677161
 20
18.3553079018663787
 30
0.0
 11
261.2053987160676911
 21
18.3553079018663787
 31
0.0
  0
LINE
  5
47FE
  8
0
 10
262.1303987160677025
 20
18.3473079018663796
 30
0.0
 11
261.1903987160677048
 21
18.3473079018663796
 31
0.0
  0
ENDSEC
  0
EOF
