  0
SECTION
  2
HEADER
  9
$ACADVER
  1
AC1009
  9
$INSBASE
 10
-39.269943313399999
 20
0.1989611104999991
 30
0.0
  9
$EXTMIN
 10
-39.277807747673997
 20
0.1844938469567534
 30
0.0
  9
$EXTMAX
 10
-10.21002243264971
 20
17.051509749449998
 30
0.0
  9
$LIMMIN
 10
0.0
 20
0.0
  9
$LIMMAX
 10
22.0
 20
17.0
  9
$ORTHOMODE
 70
     0
  9
$REGENMODE
 70
     1
  9
$FILLMODE
 70
     1
  9
$QTEXTMODE
 70
     0
  9
$MIRRTEXT
 70
     0
  9
$DRAGMODE
 70
     2
  9
$LTSCALE
 40
1.2099999999999991
  9
$OSMODE
 70
    47
  9
$ATTMODE
 70
     1
  9
$TEXTSIZE
 40
0.2
  9
$TRACEWID
 40
0.05
  9
$TEXTSTYLE
  7
STANDARD
  9
$CLAYER
  8
0
  9
$CELTYPE
  6
BYLAYER
  9
$CECOLOR
 62
   256
  9
$DIMSCALE
 40
1.0
  9
$DIMASZ
 40
0.1875
  9
$DIMEXO
 40
0.0625
  9
$DIMDLI
 40
0.8359999999999999
  9
$DIMRND
 40
0.0
  9
$DIMDLE
 40
0.0
  9
$DIMEXE
 40
0.125
  9
$DIMTP
 40
0.0
  9
$DIMTM
 40
0.0
  9
$DIMTXT
 40
0.15625
  9
$DIMCEN
 40
0.198
  9
$DIMTSZ
 40
0.0
  9
$DIMTOL
 70
     0
  9
$DIMLIM
 70
     0
  9
$DIMTIH
 70
     1
  9
$DIMTOH
 70
     1
  9
$DIMSE1
 70
     0
  9
$DIMSE2
 70
     0
  9
$DIMTAD
 70
     0
  9
$DIMZIN
 70
     0
  9
$DIMBLK
  1

  9
$DIMASO
 70
     1
  9
$DIMSHO
 70
     1
  9
$DIMPOST
  1

  9
$DIMAPOST
  1

  9
$DIMALT
 70
     0
  9
$DIMALTD
 70
     2
  9
$DIMALTF
 40
25.399999999999999
  9
$DIMLFAC
 40
1.0
  9
$DIMTOFL
 70
     0
  9
$DIMTVP
 40
0.0
  9
$DIMTIX
 70
     0
  9
$DIMSOXD
 70
     0
  9
$DIMSAH
 70
     0
  9
$DIMBLK1
  1

  9
$DIMBLK2
  1

  9
$DIMSTYLE
  2
STANDARD
  9
$DIMCLRD
 70
     0
  9
$DIMCLRE
 70
     0
  9
$DIMCLRT
 70
     0
  9
$DIMTFAC
 40
1.0
  9
$DIMGAP
 40
0.09
  9
$LUNITS
 70
     2
  9
$LUPREC
 70
     4
  9
$SKETCHINC
 40
0.1
  9
$FILLETRAD
 40
0.1927
  9
$AUNITS
 70
     0
  9
$AUPREC
 70
     0
  9
$MENU
  1
.
  9
$ELEVATION
 40
0.0
  9
$PELEVATION
 40
0.0
  9
$THICKNESS
 40
0.0
  9
$LIMCHECK
 70
     0
  9
$BLIPMODE
 70
     0
  9
$CHAMFERA
 40
0.0
  9
$CHAMFERB
 40
0.0
  9
$SKPOLY
 70
     0
  9
$TDCREATE
 40
2457343.5290496759
  9
$TDUPDATE
 40
2457343.6590762148
  9
$TDINDWG
 40
0.1093621181
  9
$TDUSRTIMER
 40
0.1093621181
  9
$USRTIMER
 70
     1
  9
$ANGBASE
 50
0.0
  9
$ANGDIR
 70
     0
  9
$PDMODE
 70
     0
  9
$PDSIZE
 40
0.3125
  9
$PLINEWID
 40
0.0
  9
$COORDS
 70
     1
  9
$SPLFRAME
 70
     0
  9
$SPLINETYPE
 70
     6
  9
$SPLINESEGS
 70
     8
  9
$ATTDIA
 70
     0
  9
$ATTREQ
 70
     1
  9
$HANDLING
 70
     1
  9
$HANDSEED
  5
16EC
  9
$SURFTAB1
 70
     6
  9
$SURFTAB2
 70
     6
  9
$SURFTYPE
 70
     6
  9
$SURFU
 70
     6
  9
$SURFV
 70
     6
  9
$UCSNAME
  2

  9
$UCSORG
 10
0.0
 20
0.0
 30
0.0
  9
$UCSXDIR
 10
1.0
 20
0.0
 30
0.0
  9
$UCSYDIR
 10
0.0
 20
1.0
 30
0.0
  9
$PUCSNAME
  2

  9
$PUCSORG
 10
0.0
 20
0.0
 30
0.0
  9
$PUCSXDIR
 10
1.0
 20
0.0
 30
0.0
  9
$PUCSYDIR
 10
0.0
 20
1.0
 30
0.0
  9
$USERI1
 70
     0
  9
$USERI2
 70
     0
  9
$USERI3
 70
     0
  9
$USERI4
 70
     0
  9
$USERI5
 70
     0
  9
$USERR1
 40
0.0
  9
$USERR2
 40
0.0
  9
$USERR3
 40
0.0
  9
$USERR4
 40
0.0
  9
$USERR5
 40
0.0
  9
$WORLDVIEW
 70
     1
  9
$SHADEDGE
 70
     3
  9
$SHADEDIF
 70
    70
  9
$TILEMODE
 70
     1
  9
$MAXACTVP
 70
    48
  9
$PLIMCHECK
 70
     0
  9
$PEXTMIN
 10
1.0000000000000000E+020
 20
1.0000000000000000E+020
 30
1.0000000000000000E+020
  9
$PEXTMAX
 10
-1.0000000000000000E+020
 20
-1.0000000000000000E+020
 30
-1.0000000000000000E+020
  9
$PLIMMIN
 10
0.0
 20
0.0
  9
$PLIMMAX
 10
12.0
 20
9.0
  9
$UNITMODE
 70
     0
  9
$VISRETAIN
 70
     1
  9
$PLINEGEN
 70
     0
  9
$PSLTSCALE
 70
     1
  0
ENDSEC
  0
SECTION
  2
TABLES
  0
TABLE
  2
VPORT
 70
     1
  0
VPORT
  2
*ACTIVE
 70
     0
 10
0.0
 20
0.0
 11
1.0
 21
1.0
 12
-30.05546636355049
 22
9.2242288416649174
 13
0.0
 23
0.0
 14
1.0
 24
1.0
 15
0.0
 25
0.0
 16
0.0
 26
0.0
 36
1.0
 17
0.0
 27
0.0
 37
0.0
 40
49.846485712061629
 41
2.0329087048832268
 42
50.0
 43
0.0
 44
0.0
 50
0.0
 51
0.0
 71
     0
 72
   100
 73
     1
 74
     1
 75
     0
 76
     0
 77
     0
 78
     0
  0
ENDTAB
  0
TABLE
  2
LTYPE
 70
     7
  0
LTYPE
  2
CONTINUOUS
 70
     0
  3
Solid line
 72
    65
 73
     0
 40
0.0
  0
ENDTAB
  0
TABLE
  2
LAYER
 70
    36
  0
LAYER
  2
0
 70
     0
 62
     7
  6
CONTINUOUS
  0
LAYER
  2
DEFPOINTS
 70
     0
 62
     7
  6
CONTINUOUS
  0
ENDTAB
  0
TABLE
  2
STYLE
 70
     2
  0
STYLE
  2
STANDARD
 70
     0
 40
0.0
 41
0.8
 50
0.0
 71
     0
 42
0.2
  3
txt
  4

  0
ENDTAB
  0
TABLE
  2
VIEW
 70
     1
  0
ENDTAB
  0
TABLE
  2
UCS
 70
     0
  0
ENDTAB
  0
TABLE
  2
APPID
 70
     5
  0
APPID
  2
ACAD
 70
     0
  0
APPID
  2
ACAD_MLEADERVER
 70
     0
  0
APPID
  2
ACAD_NAV_VCDISPLAY
 70
     0
  0
APPID
  2
ACAD_EXEMPT_FROM_CAD_STANDARDS
 70
     0
  0
APPID
  2
ACAD_DSTYLE_DIMRADIAL_EXTENSION
 70
     0
  0
ENDTAB
  0
TABLE
  2
DIMSTYLE
 70
     2
  0
DIMSTYLE
  2
STANDARD
 70
     0
  3

  4

  5

  6

  7

 40
1.0
 41
0.1875
 42
0.0625
 43
0.38
 44
0.125
 45
0.0
 46
0.0
 47
1.5
 48
1.5
140
0.15625
141
0.09
142
0.0
143
25.399999999999999
144
1.0
145
0.0
146
1.0
147
0.09
 71
     0
 72
     0
 73
     1
 74
     1
 75
     0
 76
     0
 77
     0
 78
     4
170
     0
171
     2
172
     0
173
     0
174
     0
175
     0
176
     0
177
     0
178
     0
  0
ENDTAB
  0
ENDSEC
  0
SECTION
  2
BLOCKS
  0
BLOCK
  8
0
  2
$MODEL_SPACE
 70
     0
 10
0.0
 20
0.0
 30
0.0
  3
$MODEL_SPACE
  1

  0
ENDBLK
  5
21
  8
0
  0
BLOCK
 67
     1
  8
0
  2
$PAPER_SPACE
 70
     0
 10
0.0
 20
0.0
 30
0.0
  3
$PAPER_SPACE
  1

  0
ENDBLK
  5
1D
 67
     1
  8
0
  0
ENDSEC
  0
SECTION
  2
ENTITIES
  0
LINE
  5
1516
  8
0
 10
-34.556330463701038
 20
0.9349446803610275
 30
0.0
 11
-34.651705619231024
 21
0.4272384594595583
 31
0.0
  0
ARC
  5
1524
  8
0
 10
-34.462318338134828
 20
0.3916611105000002
 30
0.0
 40
0.1927
 50
169.3606964079041
 51
270.0
  0
LINE
  5
1526
  8
0
 10
-12.130822090909181
 20
0.4213681688908526
 30
0.0
 11
-13.330344844854819
 21
8.109264575282344
 31
0.0
  0
ARC
  5
1527
  8
0
 10
-12.32121846871549
 20
0.3916611105000001
 30
0.0
 40
0.1927
 50
270.0
 51
8.8682105812586354
  0
ARC
  5
1528
  8
0
 10
-11.11501166178723
 20
8.4320006909967002
 30
0.0
 40
2.2387182601242088
 50
130.56807157863011
 51
188.2888532065765
  0
ARC
  5
1529
  8
0
 10
-14.65976866809679
 20
14.144058828377609
 30
0.0
 40
4.522687419245087
 50
297.5064436469886
 51
328.52873862508488
  0
ARC
  5
152A
  8
0
 10
-15.483715289399671
 20
14.64173403024598
 30
0.0
 40
5.4852579072011887
 50
328.58817568115609
 51
344.03507326629699
  0
ARC
  5
152B
  8
0
 10
-10.45579818334428
 20
13.17878334652057
 30
0.0
 40
0.2500000031529685
 50
349.45234339285059
 51
14.327841279236351
  0
ARC
  5
152C
  8
0
 10
-31.979047836385458
 20
7.5479318836824358
 30
0.0
 40
22.497619603807301
 50
14.657269686199671
 51
19.92920573036001
  0
ARC
  5
152D
  8
0
 10
-11.073427712274819
 20
15.1152657250461
 30
0.0
 40
0.2648093921210084
 50
22.46246890007254
 51
87.796108684556287
  0
ARC
  5
152E
  8
0
 10
-33.183516470605362
 20
0.556915237087991
 30
0.0
 40
1.423911440350216
 50
155.8059788828842
 51
164.60425658204821
  0
LINE
  5
152F
  8
0
 10
-34.4823556411
 20
1.1404738024000061
 30
0.0
 11
-34.478098780904268
 21
1.163802508576671
 31
0.0
  0
ARC
  5
1530
  8
0
 10
-38.946783943950081
 20
1.6937582626945269
 30
0.0
 40
4.5000000208609263
 50
353.23669822611538
 51
13.28747187869461
  0
ARC
  5
1531
  8
0
 10
-41.597039277980357
 20
0.5516728668258195
 30
0.0
 40
7.358967668758277
 50
17.202002126495781
 51
37.252773657017052
  0
ARC
  5
1532
  8
0
 10
269.07038715390422
 20
206.14206528457379
 30
0.0
 40
365.19127376477201
 50
212.962441030045
 51
213.4197362103356
  0
ARC
  5
1533
  8
0
 10
-33.081632072639763
 20
10.16725261158235
 30
0.0
 40
5.049770767041089
 50
171.35295028363461
 51
212.61517615967369
  0
ARC
  5
1534
  8
0
 10
-34.887461986772301
 20
10.224394379793869
 30
0.0
 40
3.2629677505206258
 50
153.03034656377079
 51
167.57477731614861
  0
LINE
  5
1535
  8
0
 10
-37.795571729499997
 20
11.70421067419999
 30
0.0
 11
-37.644650679800002
 21
13.4126379875
 31
0.0
  0
LINE
  5
1536
  8
0
 10
-37.644650679800002
 20
13.4126379875
 30
0.0
 11
-37.655873042499998
 21
13.4747246835
 31
0.0
  0
LINE
  5
1537
  8
0
 10
-37.655873042499998
 20
13.4747246835
 30
0.0
 11
-37.704532243300001
 21
13.6898792395
 31
0.0
  0
LINE
  5
1538
  8
0
 10
-37.704532243300001
 20
13.6898792395
 30
0.0
 11
-37.706856235700187
 21
14.203020672710741
 31
0.0
  0
ARC
  5
1539
  8
0
 10
-37.886828820840577
 20
14.199879239400859
 30
0.0
 40
0.1800000000991533
 50
0.9999997576338341
 51
89.999984672883826
  0
ARC
  5
153B
  8
0
 10
-38.060291689401943
 20
14.569879239495179
 30
0.0
 40
0.1899999999951856
 50
183.00000000280241
 51
270.0000000005827
  0
LINE
  5
153C
  8
0
 10
-38.250031301
 20
14.559935407799999
 30
0.0
 11
-38.269940715399997
 21
15.129879239499999
 31
0.0
  0
ARC
  5
153D
  8
0
 10
-38.019943313400013
 20
15.129879239499999
 30
0.0
 40
0.2499999999999929
 50
89.999999999998394
 51
180.0000000000004
  0
LINE
  5
153E
  8
0
 10
-38.019943313399999
 20
15.379879239499999
 30
0.0
 11
-11.063243929464941
 21
15.379879225690299
 31
0.0
  0
ARC
  5
153F
  8
0
 10
-33.989618090528012
 20
0.8074823703935766
 30
0.0
 40
0.5844767776511456
 50
96.284182761919766
 51
153.26503586606151
  0
LINE
  5
1540
  8
0
 10
-34.053594866700017
 20
1.388447150499998
 30
0.0
 11
-23.24927917393461
 21
1.364971751903991
 31
0.0
  0
ARC
  5
1541
  8
0
 10
-23.22444844202257
 20
2.2669052494622282
 30
0.0
 40
0.902275182202028
 50
268.42300930726628
 51
358.70004074495631
  0
ARC
  5
1542
  8
0
 10
-40153.629815834211
 20
959.22451161297647
 30
0.0
 40
40142.717029353851
 50
358.6339738026258
 51
358.6423707745339
  0
ARC
  5
1543
  8
0
 10
34.153239211502303
 20
-307.0204072476094
 30
0.0
 40
320.21233843169227
 50
98.46045029553629
 51
99.178820383501687
  0
ARC
  5
1544
  8
0
 10
-24.358235714228542
 20
89.978844351660157
 30
0.0
 40
81.227885501629146
 50
271.9367668029513
 51
275.24993557019098
  0
ARC
  5
1545
  8
0
 10
-22.610180319272189
 20
8.0924420074448893
 30
0.0
 40
0.4300199997490862
 50
4.5420364197682153
 51
84.989499020341185
  0
ARC
  5
1546
  8
0
 10
-21.742277754417319
 20
7.4427056921830879
 30
0.0
 40
1.3608089969708901
 50
84.549311150320236
 51
127.6028878473987
  0
ARC
  5
1547
  8
0
 10
-20.29969380612981
 20
7.3172643374255406
 30
0.0
 40
2.571915752141491
 50
152.09802437864769
 51
178.4549407596291
  0
ARC
  5
1548
  8
0
 10
-68.993796305349989
 20
13.47207732580606
 30
0.0
 40
46.522846697012717
 50
349.70093851539201
 51
352.48383120308171
  0
ARC
  5
1549
  8
0
 10
-24.13400070784051
 20
5.329779108561139
 30
0.0
 40
0.9301493751728619
 50
307.21819552224667
 51
349.13430867862297
  0
ARC
  5
154A
  8
0
 10
-23.574670149947458
 20
4.1890857926763116
 30
0.0
 40
0.3999935875893783
 50
357.5648157402818
 51
89.530988364960734
  0
LINE
  5
154B
  8
0
 10
-23.175037785900301
 20
4.1720903898065789
 30
0.0
 11
-23.290969939699998
 21
1.9626790636
 31
0.0
  0
ARC
  5
154C
  8
0
 10
-23.96841540646658
 20
2.0462719160854119
 30
0.0
 40
0.6825834201247816
 50
273.45738664619648
 51
352.96559065337112
  0
LINE
  5
154D
  8
0
 10
-23.571395920099999
 20
4.589065979099999
 30
0.0
 11
-26.002368630497941
 21
4.6807464525940841
 31
0.0
  0
ARC
  5
154E
  8
0
 10
-25.266082633782169
 20
11.485001365585489
 30
0.0
 40
6.8439755802691993
 50
242.97698073327541
 51
263.82407678671109
  0
ARC
  5
154F
  8
0
 10
-20.608558966096538
 20
18.697670788066631
 30
0.0
 40
15.41002336534579
 50
225.57006818800181
 51
239.73319293510309
  0
ARC
  5
1550
  8
0
 10
-43.978033463664438
 20
-5.7360692599495327
 30
0.0
 40
18.402475299088891
 50
46.866018255345878
 51
53.970188978462723
  0
ARC
  5
1551
  8
0
 10
-33.445040588377481
 20
8.7516545231025429
 30
0.0
 40
0.4905340815400428
 50
53.547392277736357
 51
222.27308592952389
  0
ARC
  5
1552
  8
0
 10
-24.441393451947761
 20
16.47623140996911
 30
0.0
 40
12.35350760753866
 50
220.69290023887791
 51
232.34318638413879
  0
ARC
  5
1553
  8
0
 10
-39.968857231857768
 20
-4.5479392168104411
 30
0.0
 40
13.788230166162579
 50
41.135304372920402
 51
54.635334553021181
  0
ARC
  5
1554
  8
0
 10
-31.636636879093881
 20
2.681741993899811
 30
0.0
 40
2.7570179286633438
 50
13.94370060898825
 51
41.886995995754091
  0
LINE
  5
1555
  8
0
 10
-26.590576226668698
 20
4.7704113955483312
 30
0.0
 11
-26.619506702900001
 21
4.6220823007999989
 31
0.0
  0
LINE
  5
1556
  8
0
 10
-26.619506702900001
 20
4.6220823007999989
 30
0.0
 11
-28.17409668779522
 21
2.5590716015993311
 31
0.0
  0
LINE
  5
1557
  8
0
 10
-28.17409668779522
 20
2.5590716015993311
 30
0.0
 11
-28.3178314550637
 21
2.4537580484266011
 31
0.0
  0
ARC
  5
1558
  8
0
 10
-28.12334959526817
 20
3.6318453259118741
 30
0.0
 40
0.8849041345314962
 50
198.83898145190349
 51
234.31611856532331
  0
LINE
  5
1559
  8
0
 10
-28.6395254372
 20
2.9130840097999999
 30
0.0
 11
-28.31783145052065
 21
2.4537580422261258
 31
0.0
  0
LINE
  5
155A
  8
0
 10
-28.31783145052065
 20
2.4537580422261258
 30
0.0
 11
-27.9898922912
 21
2.0386705253000001
 31
0.0
  0
LINE
  5
155B
  8
0
 10
-27.9898922912
 20
2.0386705253000001
 30
0.0
 11
-27.846645847475902
 21
1.6155571201002701
 31
0.0
  0
LINE
  5
155C
  8
0
 10
-27.846645847475902
 20
1.6155571201002701
 30
0.0
 11
-27.846645847475909
 21
1.37496081722033
 31
0.0
  0
LINE
  5
155D
  8
0
 10
-36.675362255092352
 20
6.4317672219358419
 30
0.0
 11
-33.863312165500012
 21
4.2525274654
 31
0.0
  0
LINE
  5
155E
  8
0
 10
-33.863312165500012
 20
4.2525274654
 30
0.0
 11
-32.477662072699999
 21
3.0680658118999991
 31
0.0
  0
ARC
  5
155F
  8
0
 10
-33.024573573328453
 20
2.5389124615504199
 30
0.0
 40
0.7609963585365203
 50
12.66130290739977
 51
44.054541452657141
  0
LINE
  5
1560
  8
0
 10
-32.282082164117853
 20
2.7057131885227581
 30
0.0
 11
-32.282082164117853
 21
1.3845980435325991
 31
0.0
  0
ARC
  5
156B
  8
0
 10
-29.865894125835808
 20
1.334914804046194
 30
0.0
 40
1.192627784137575
 50
2.0106507919777421
 51
39.894658285115767
  0
ARC
  5
156C
  8
0
 10
-29.38415956001586
 20
1.535378608196871
 30
0.0
 40
0.7115811440250739
 50
52.490248675110031
 51
145.2481801470521
  0
ARC
  5
156D
  8
0
 10
-28.316063842370941
 20
1.209511766828075
 30
0.0
 40
1.8073893430503329
 50
156.1264960762845
 51
174.5908229838866
  0
ARC
  5
156E
  8
0
 10
-33.404496502793627
 20
8.7327545864139307
 30
0.0
 40
0.5274046385840491
 50
236.44826828712269
 51
29.920904614173029
  0
ARC
  5
1570
  8
0
 10
-24.63809709979898
 20
14.4705185390415
 30
0.0
 40
6.250297936162541
 50
247.49080785896049
 51
293.76708364679502
  0
LINE
  5
1571
  8
0
 10
-10.2606918204
 20
12.9398366427
 30
0.0
 11
-28.8609497808296
 21
12.9398366427
 31
0.0
  0
ARC
  5
1572
  8
0
 10
-70.303495573407631
 20
-24.537151625640341
 30
0.0
 40
54.573945105296389
 50
36.52654659039419
 51
37.510708394726571
  0
ARC
  5
1574
  8
0
 10
-26.514883940097459
 20
7.8515477754554031
 30
0.0
 40
0.0923678846779914
 50
282.38951125253351
 51
21.458980631085339
  0
ARC
  5
1575
  8
0
 10
-26.53944181044761
 20
8.0644948801707415
 30
0.0
 40
0.3063944708784874
 50
254.3667834354645
 51
278.32760357932659
  0
ARC
  5
1576
  8
0
 10
-26.632891531483939
 20
7.8501967679977271
 30
0.0
 40
0.2069777122765001
 50
9.7755165018072532
 51
27.259483860265622
  0
ARC
  5
1577
  8
0
 10
-25.54479061971384
 20
11.44260556754203
 30
0.0
 40
3.827868834388338
 50
236.6255709101325
 51
253.65548435913749
  0
ARC
  5
1578
  8
0
 10
-23.251193837371041
 20
14.599576475463779
 30
0.0
 40
7.728026940582895
 50
223.45845886529949
 51
235.30062292825741
  0
ARC
  5
1579
  8
0
 10
-54.546852640862809
 20
-14.41865772976308
 30
0.0
 40
34.951282706899683
 50
42.700282933432561
 51
48.198724566490583
  0
ARC
  5
157A
  8
0
 10
-34.117842670241373
 20
8.2615496604337064
 30
0.0
 40
4.4285361806152066
 50
49.64225683091685
 51
62.70038295773363
  0
ARC
  5
157B
  8
0
 10
-32.512315647373093
 20
11.23399555761414
 30
0.0
 40
1.052707280980463
 50
66.153772254921549
 51
88.596556645248924
  0
LINE
  5
157C
  8
0
 10
-32.486532468999989
 20
12.2863870471
 30
0.0
 11
-35.386624239100001
 21
12.286387214599999
 31
0.0
  0
ARC
  5
157D
  8
0
 10
-35.467268841474471
 20
11.81254673896238
 30
0.0
 40
0.4806539186442697
 50
80.341172429000665
 51
122.8033296752909
  0
ARC
  5
157E
  8
0
 10
-35.418381188653107
 20
11.92490968048854
 30
0.0
 40
0.425103946575013
 50
136.6815757859404
 51
171.9354834988975
  0
ARC
  5
157F
  8
0
 10
-36.029891570634213
 20
11.6611413155479
 30
0.0
 40
0.0553086398659624
 50
217.70541170605961
 51
330.1357102896647
  0
ARC
  5
1580
  8
0
 10
-36.453620798846657
 20
12.00425277934638
 30
0.0
 40
0.5998980298931855
 50
321.8400620456772
 51
344.03921330697608
  0
ARC
  5
1581
  8
0
 10
-36.572769056224637
 20
12.096767139062671
 30
0.0
 40
0.7420228359034395
 50
339.69672445605198
 51
351.301412021766
  0
ARC
  5
1582
  8
0
 10
-35.575405860122359
 20
12.011306808193501
 30
0.0
 40
0.6281068102027668
 50
185.51480689994159
 51
218.3192947291532
  0
ARC
  5
1583
  8
0
 10
-36.556963290730302
 20
11.936317991450689
 30
0.0
 40
0.3566579077536167
 50
2.350304581169143
 51
75.435415283159443
  0
ARC
  5
1584
  8
0
 10
-36.812946578183947
 20
10.077175857799739
 30
0.0
 40
2.2312774023766191
 50
81.087766289893025
 51
104.00935797016569
  0
ARC
  5
1585
  8
0
 10
-36.864486574941573
 20
11.38920229128512
 30
0.0
 40
0.9829292173629513
 50
119.8079679761566
 51
161.3080918203863
  0
ARC
  5
1586
  8
0
 10
-37.176731309817299
 20
13.554475207045311
 30
0.0
 40
0.4880894386558562
 50
198.19199221077099
 51
257.78384011692532
  0
ARC
  5
1587
  8
0
 10
-36.63774650461999
 20
40.344227242570618
 30
0.0
 40
27.274352418178491
 50
268.65065610812798
 51
270.81852098172988
  0
ARC
  5
1588
  8
0
 10
-36.025908115110738
 20
13.02877984490569
 30
0.0
 40
0.1954358650383918
 50
17.267984688685392
 51
153.3656502039243
  0
LINE
  5
1589
  8
0
 10
-35.808948471199997
 20
13.069880297499999
 30
0.0
 11
-31.954532243300001
 21
13.069879239500001
 31
0.0
  0
ARC
  5
158A
  8
0
 10
-31.954532239503731
 20
12.809879249442989
 30
0.0
 40
0.2599999900570094
 50
47.800000488249552
 51
90.000000836577044
  0
LINE
  5
158B
  8
0
 10
-31.779884894600009
 20
13.0024884386
 30
0.0
 11
-27.021984585727299
 21
8.6867266935789011
 31
0.0
  0
ARC
  5
158C
  8
0
 10
-21.421095129382351
 20
13.631759211019171
 30
0.0
 40
7.4718123044588651
 50
185.31312510782411
 51
221.3405408468152
  0
LINE
  5
158D
  8
0
 10
-26.606572662231311
 20
14.37987923345811
 30
0.0
 11
-38.060291689400003
 21
14.379879239499999
 31
0.0
  0
ARC
  5
158E
  8
0
 10
-26.606728058060821
 20
12.37987948419031
 30
0.0
 40
1.9999997493333379
 50
68.850494470596203
 51
90.000463520520924
  0
ARC
  5
158F
  8
0
 10
-35.479689323465742
 20
-5.3531552807517393
 30
0.0
 40
21.820857242819638
 50
60.745240569488359
 51
63.915446087358099
  0
ARC
  5
1590
  8
0
 10
-21.725201292420461
 20
19.34440496514879
 30
0.0
 40
6.4487678756008942
 50
241.3615434372476
 51
263.28792868190919
  0
ARC
  5
1592
  8
0
 10
-14.74375084970807
 20
17.962350347190039
 30
0.0
 40
2.675788399525056
 50
285.17620260050461
 51
301.00427122640019
  0
LINE
  5
1593
  8
0
 10
-34.675943313400012
 20
15.629879239499999
 30
0.0
 11
-34.675943313400012
 21
15.379879239499999
 31
0.0
  0
LINE
  5
1594
  8
0
 10
-37.3639433134
 20
15.629879239499999
 30
0.0
 11
-37.3639433134
 21
15.379879239499999
 31
0.0
  0
LINE
  5
1595
  8
0
 10
-37.3639433134
 20
15.629879239499999
 30
0.0
 11
-34.675943313400012
 21
15.629879239499999
 31
0.0
  0
LINE
  5
1596
  8
0
 10
-34.849165823500002
 20
15.985879239499999
 30
0.0
 11
-34.849165823500002
 21
15.629879239499999
 31
0.0
  0
LINE
  5
1597
  8
0
 10
-37.190720803400012
 20
15.985879239499999
 30
0.0
 11
-37.190720803400012
 21
15.629879239499999
 31
0.0
  0
LINE
  5
1598
  8
0
 10
-37.175720803399997
 20
16.000879239500001
 30
0.0
 11
-34.864165823500002
 21
16.000879239500001
 31
0.0
  0
ARC
  5
1599
  8
0
 10
-34.864165823499988
 20
15.98587923950001
 30
0.0
 40
0.0149999999999899
 50
359.9999999999593
 51
90.0000000000271
  0
ARC
  5
159A
  8
0
 10
-37.175720803399997
 20
15.985879239499999
 30
0.0
 40
0.0150000000000077
 50
90.000000000027143
 51
179.99999999998639
  0
LINE
  5
159B
  8
0
 10
-36.893412425800001
 20
16.119910127099999
 30
0.0
 11
-36.893412425800001
 21
16.000879239500001
 31
0.0
  0
LINE
  5
159C
  8
0
 10
-35.147443313400011
 20
16.120879239499999
 30
0.0
 11
-35.147443313400011
 21
16.000879239500001
 31
0.0
  0
LINE
  5
159D
  8
0
 10
-35.147443313400011
 20
16.120879239499999
 30
0.0
 11
-36.892443313400008
 21
16.120879239499999
 31
0.0
  0
LINE
  5
15A0
  8
0
 10
-27.289088292500001
 20
15.6511258506
 30
0.0
 11
-27.024835644119719
 21
15.379879233867291
 31
0.0
  0
LINE
  5
15A1
  8
0
 10
-15.60124700349737
 20
15.674879239499999
 30
0.0
 11
-18.119329712399999
 21
15.379879239499999
 31
0.0
  0
LINE
  5
15A2
  8
0
 10
-11.6515351562
 20
15.674879239499999
 30
0.0
 11
-28.961918422
 21
15.6748792069
 31
0.0
  0
ARC
  5
15A3
  8
0
 10
-28.812058951908949
 20
12.925893160975781
 30
0.0
 40
2.7530677691371932
 50
93.120359459935727
 51
110.2865293972485
  0
ARC
  5
15A4
  8
0
 10
-29.87994331130264
 20
15.919879240542111
 30
0.0
 40
0.4270000020973609
 50
179.9999020209338
 51
285.00021365242139
  0
LINE
  5
15A5
  8
0
 10
-30.306943313399621
 20
15.919879808931389
 30
0.0
 11
-30.306919865352501
 21
16.808805412776358
 31
0.0
  0
ARC
  5
15A6
  8
0
 10
-30.055886971445901
 20
16.804391538430451
 30
0.0
 40
0.2510716951586982
 50
79.761951059421691
 51
178.99268055798061
  0
LINE
  5
15A7
  8
0
 10
-30.010798670650001
 20
17.051509749449998
 30
0.0
 11
-28.406892604700001
 21
16.859604754199999
 31
0.0
  0
LINE
  5
15A8
  8
0
 10
-28.406892604700001
 20
16.859604754199999
 30
0.0
 11
-26.338481480799999
 21
16.678603037849999
 31
0.0
  0
LINE
  5
15A9
  8
0
 10
-26.338481480799999
 20
16.678603037849999
 30
0.0
 11
-24.679352576599999
 21
16.579683123399999
 31
0.0
  0
LINE
  5
15AA
  8
0
 10
-24.679352576599999
 20
16.579683123399999
 30
0.0
 11
-22.5820216742
 21
16.5276090913
 31
0.0
  0
LINE
  5
15AB
  8
0
 10
-22.5820216742
 20
16.5276090913
 30
0.0
 11
-20.468175899199998
 21
16.520168767249999
 31
0.0
  0
LINE
  5
15AC
  8
0
 10
-20.468175899199998
 20
16.520168767249999
 30
0.0
 11
-16.79954108435
 21
16.501818700649999
 31
0.0
  0
LINE
  5
15AD
  8
0
 10
-16.79954108435
 20
16.501818700649999
 30
0.0
 11
-14.63914813295
 21
16.5257170185
 31
0.0
  0
LINE
  5
15AE
  8
0
 10
-14.63914813295
 20
16.5257170185
 30
0.0
 11
-13.0208781981
 21
16.5114223438
 31
0.0
  0
LINE
  5
15AF
  8
0
 10
-13.0208781981
 20
16.5114223438
 30
0.0
 11
-12.381722663737181
 21
16.524587161091748
 31
0.0
  0
LINE
  5
15B0
  8
0
 10
-12.381722663737181
 20
16.524587161091748
 30
0.0
 11
-12.203970117900001
 21
16.5084041922
 31
0.0
  0
ARC
  5
15BA
  8
0
 10
-12.259594506259459
 20
15.960238670283291
 30
0.0
 40
0.5509805005611137
 50
22.9596793456151
 51
84.205817855993402
  0
LINE
  5
15BB
  8
0
 10
-11.751101954999999
 20
16.174253870800001
 30
0.0
 11
-11.591529122900001
 21
15.74987473
 31
0.0
  0
ARC
  5
15BC
  8
0
 10
-11.65582748916186
 20
15.739817375463369
 30
0.0
 40
0.0650801834986626
 50
273.78624856413489
 51
8.8899966456787212
  0
LINE
  5
15BD
  8
0
 10
-36.200605407115077
 20
13.11639269669055
 30
0.0
 11
-36.200605412500003
 21
11.9509441935
 31
0.0
  0
LINE
  5
15BE
  8
0
 10
-35.839281166900001
 20
11.984546796805709
 30
0.0
 11
-35.839281166900001
 21
13.086793287700001
 31
0.0
  0
ARC
  5
15BF
  8
0
 10
-35.803074353727709
 20
13.11607193135786
 30
0.0
 40
0.046563637041554
 50
218.9607400127033
 51
262.75268610581543
  0
ARC
  5
15C0
  8
0
 10
-36.2780068024637
 20
13.152806681966849
 30
0.0
 40
0.0855391959561209
 50
290.44914994652328
 51
334.8050525457104
  0
ARC
  5
15C3
  8
0
 10
-22.258435709109659
 20
13.546824524874779
 30
0.0
 40
6.6302082386434966
 50
172.78197559990221
 51
185.2523474071242
  0
LINE
  5
15D3
  8
0
 10
-34.462318338134828
 20
0.1989611104999999
 30
0.0
 11
-12.32121846871549
 21
0.1989611105
 31
0.0
  0
ATTDEF
  5
15E3
  8
DEFPOINTS
 10
-39.277807747673997
 20
0.1896631735539937
 30
0.0
 40
0.001
  1
K-4406
  3

  2
MODELNUMBER
 70
     0
  0
ATTDEF
  5
15E4
  8
DEFPOINTS
 10
-39.27780131019923
 20
0.1879156783856128
 30
0.0
 40
0.001
  1
WELLWORTH
  3

  2
TRADENAME
 70
     0
  0
ATTDEF
  5
15E5
  8
DEFPOINTS
 10
-39.277759269229783
 20
0.1861110031339219
 30
0.0
 40
0.001
  1
TOILET
  3

  2
PRODUCT
 70
     0
  0
ATTDEF
  5
15E6
  8
DEFPOINTS
 10
-39.277807747673997
 20
0.1844938469567534
 30
0.0
 40
0.001
  1
VITREOUS CHINA
  3

  2
MATERIAL
 70
     0
  0
ENDSEC
  0
EOF
