  0
SECTION
  2
HEADER
  9
$ACADVER
  1
AC1009
  9
$INSBASE
 10
5.9158579486995828
 20
28.531977084899999
 30
0.0
  9
$EXTMIN
 10
-1.6507635936764919
 20
-0.5405288491170941
 30
0.0
  9
$EXTMAX
 10
13.52352203574744
 20
28.538483953732591
 30
0.0
  9
$LIMMIN
 10
0.0
 20
0.0
  9
$LIMMAX
 10
23.3858267717
 20
33.110236220499999
  9
$ORTHOMODE
 70
     1
  9
$REGENMODE
 70
     1
  9
$FILLMODE
 70
     1
  9
$QTEXTMODE
 70
     0
  9
$MIRRTEXT
 70
     0
  9
$DRAGMODE
 70
     2
  9
$LTSCALE
 40
2.1582968795999991
  9
$OSMODE
 70
    47
  9
$ATTMODE
 70
     1
  9
$TEXTSIZE
 40
0.001
  9
$TRACEWID
 40
0.05
  9
$TEXTSTYLE
  7
STANDARD
  9
$CLAYER
  8
0
  9
$CELTYPE
  6
BYLAYER
  9
$CECOLOR
 62
   256
  9
$DIMSCALE
 40
1.0
  9
$DIMASZ
 40
0.1875
  9
$DIMEXO
 40
0.0625
  9
$DIMDLI
 40
1.4911869349999991
  9
$DIMRND
 40
0.0
  9
$DIMDLE
 40
0.0
  9
$DIMEXE
 40
0.125
  9
$DIMTP
 40
0.0
  9
$DIMTM
 40
0.0
  9
$DIMTXT
 40
0.15625
  9
$DIMCEN
 40
0.353175853
  9
$DIMTSZ
 40
0.0
  9
$DIMTOL
 70
     0
  9
$DIMLIM
 70
     0
  9
$DIMTIH
 70
     1
  9
$DIMTOH
 70
     1
  9
$DIMSE1
 70
     0
  9
$DIMSE2
 70
     0
  9
$DIMTAD
 70
     0
  9
$DIMZIN
 70
     0
  9
$DIMBLK
  1

  9
$DIMASO
 70
     1
  9
$DIMSHO
 70
     1
  9
$DIMPOST
  1

  9
$DIMAPOST
  1

  9
$DIMALT
 70
     0
  9
$DIMALTD
 70
     2
  9
$DIMALTF
 40
25.399999999999999
  9
$DIMLFAC
 40
1.0
  9
$DIMTOFL
 70
     0
  9
$DIMTVP
 40
0.0
  9
$DIMTIX
 70
     0
  9
$DIMSOXD
 70
     0
  9
$DIMSAH
 70
     0
  9
$DIMBLK1
  1

  9
$DIMBLK2
  1

  9
$DIMSTYLE
  2
STANDARD
  9
$DIMCLRD
 70
     0
  9
$DIMCLRE
 70
     0
  9
$DIMCLRT
 70
     0
  9
$DIMTFAC
 40
1.0
  9
$DIMGAP
 40
0.09
  9
$LUNITS
 70
     2
  9
$LUPREC
 70
     4
  9
$SKETCHINC
 40
0.1
  9
$FILLETRAD
 40
0.0
  9
$AUNITS
 70
     0
  9
$AUPREC
 70
     0
  9
$MENU
  1
.
  9
$ELEVATION
 40
0.0
  9
$PELEVATION
 40
0.0
  9
$THICKNESS
 40
0.0
  9
$LIMCHECK
 70
     0
  9
$BLIPMODE
 70
     0
  9
$CHAMFERA
 40
0.0
  9
$CHAMFERB
 40
0.0
  9
$SKPOLY
 70
     0
  9
$TDCREATE
 40
2457170.481972639
  9
$TDUPDATE
 40
2457323.6853329628
  9
$TDINDWG
 40
0.1600587847
  9
$TDUSRTIMER
 40
0.1600587847
  9
$USRTIMER
 70
     1
  9
$ANGBASE
 50
0.0
  9
$ANGDIR
 70
     0
  9
$PDMODE
 70
     0
  9
$PDSIZE
 40
0.3125
  9
$PLINEWID
 40
0.0
  9
$COORDS
 70
     1
  9
$SPLFRAME
 70
     0
  9
$SPLINETYPE
 70
     6
  9
$SPLINESEGS
 70
     8
  9
$ATTDIA
 70
     0
  9
$ATTREQ
 70
     1
  9
$HANDLING
 70
     1
  9
$HANDSEED
  5
D52
  9
$SURFTAB1
 70
     6
  9
$SURFTAB2
 70
     6
  9
$SURFTYPE
 70
     6
  9
$SURFU
 70
     6
  9
$SURFV
 70
     6
  9
$UCSNAME
  2

  9
$UCSORG
 10
0.0
 20
0.0
 30
0.0
  9
$UCSXDIR
 10
1.0
 20
0.0
 30
0.0
  9
$UCSYDIR
 10
0.0
 20
1.0
 30
0.0
  9
$PUCSNAME
  2

  9
$PUCSORG
 10
0.0
 20
0.0
 30
0.0
  9
$PUCSXDIR
 10
1.0
 20
0.0
 30
0.0
  9
$PUCSYDIR
 10
0.0
 20
1.0
 30
0.0
  9
$USERI1
 70
     0
  9
$USERI2
 70
     0
  9
$USERI3
 70
     0
  9
$USERI4
 70
     0
  9
$USERI5
 70
     0
  9
$USERR1
 40
0.0
  9
$USERR2
 40
0.0
  9
$USERR3
 40
0.0
  9
$USERR4
 40
0.0
  9
$USERR5
 40
0.0
  9
$WORLDVIEW
 70
     1
  9
$SHADEDGE
 70
     3
  9
$SHADEDIF
 70
    70
  9
$TILEMODE
 70
     1
  9
$MAXACTVP
 70
    48
  9
$PLIMCHECK
 70
     0
  9
$PEXTMIN
 10
1.0000000000000000E+020
 20
1.0000000000000000E+020
 30
1.0000000000000000E+020
  9
$PEXTMAX
 10
-1.0000000000000000E+020
 20
-1.0000000000000000E+020
 30
-1.0000000000000000E+020
  9
$PLIMMIN
 10
0.0
 20
0.0
  9
$PLIMMAX
 10
12.0
 20
9.0
  9
$UNITMODE
 70
     0
  9
$VISRETAIN
 70
     1
  9
$PLINEGEN
 70
     0
  9
$PSLTSCALE
 70
     1
  0
ENDSEC
  0
SECTION
  2
TABLES
  0
TABLE
  2
VPORT
 70
     1
  0
VPORT
  2
*ACTIVE
 70
     0
 10
0.0
 20
0.0
 11
1.0
 21
1.0
 12
18.54244038372471
 22
3.5575576808559499
 13
0.0
 23
0.0
 14
1.0
 24
1.0
 15
0.0
 25
0.0
 16
0.0
 26
0.0
 36
1.0
 17
0.0
 27
0.0
 37
0.0
 40
67.182667602239178
 41
2.0329087048832268
 42
50.0
 43
0.0
 44
0.0
 50
0.0
 51
0.0
 71
     0
 72
   100
 73
     1
 74
     1
 75
     0
 76
     0
 77
     0
 78
     0
  0
ENDTAB
  0
TABLE
  2
LTYPE
 70
     1
  0
LTYPE
  2
CONTINUOUS
 70
     0
  3
Solid line
 72
    65
 73
     0
 40
0.0
  0
ENDTAB
  0
TABLE
  2
LAYER
 70
     2
  0
LAYER
  2
0
 70
     0
 62
     7
  6
CONTINUOUS
  0
LAYER
  2
DEFPOINTS
 70
     0
 62
     7
  6
CONTINUOUS
  0
ENDTAB
  0
TABLE
  2
STYLE
 70
     1
  0
STYLE
  2
STANDARD
 70
     0
 40
0.0
 41
0.8
 50
0.0
 71
     0
 42
0.001
  3
txt
  4

  0
ENDTAB
  0
TABLE
  2
VIEW
 70
     0
  0
ENDTAB
  0
TABLE
  2
UCS
 70
     0
  0
ENDTAB
  0
TABLE
  2
APPID
 70
     7
  0
APPID
  2
ACAD
 70
     0
  0
APPID
  2
ACAD_MLEADERVER
 70
     0
  0
APPID
  2
ACAD_NAV_VCDISPLAY
 70
     0
  0
APPID
  2
ACAD_EXEMPT_FROM_CAD_STANDARDS
 70
     0
  0
APPID
  2
ACAD_DSTYLE_DIMRADIAL_EXTENSION
 70
     0
  0
APPID
  2
ACAUTHENVIRON
 70
     0
  0
APPID
  2
ACDBATTR
 70
     0
  0
ENDTAB
  0
TABLE
  2
DIMSTYLE
 70
     1
  0
DIMSTYLE
  2
STANDARD
 70
     0
  3

  4

  5

  6

  7

 40
1.0
 41
0.1875
 42
0.0625
 43
0.38
 44
0.125
 45
0.0
 46
0.0
 47
1.5
 48
1.5
140
0.15625
141
0.09
142
0.0
143
25.399999999999999
144
1.0
145
0.0
146
1.0
147
0.09
 71
     0
 72
     0
 73
     1
 74
     1
 75
     0
 76
     0
 77
     0
 78
     4
170
     0
171
     2
172
     0
173
     0
174
     0
175
     0
176
     0
177
     0
178
     0
  0
ENDTAB
  0
ENDSEC
  0
SECTION
  2
BLOCKS
  0
BLOCK
  8
0
  2
$MODEL_SPACE
 70
     2
 10
0.0
 20
0.0
 30
0.0
  3
$MODEL_SPACE
  1

  0
ENDBLK
  5
21
  8
0
  0
BLOCK
 67
     1
  8
0
  2
$PAPER_SPACE
 70
     0
 10
0.0
 20
0.0
 30
0.0
  3
$PAPER_SPACE
  1

  0
ENDBLK
  5
1D
 67
     1
  8
0
  0
ENDSEC
  0
SECTION
  2
ENTITIES
  0
LINE
  5
BDA
  8
0
 10
4.3469367458839221
 20
27.0921355588731
 30
0.0
 11
0.682421239962423
 21
18.3417838205437
 31
0.0
  0
ARC
  5
BDB
  8
0
 10
4791.3528485373454
 20
-1662.450702601225
 30
0.0
 40
5076.9662718392719
 50
160.6667302934089
 51
160.72828850784691
  0
ARC
  5
BDC
  8
0
 10
8.2898132413691439
 20
9.9908874560032572
 30
0.0
 40
9.9405768350456363
 50
161.20392664289719
 51
184.80007868748351
  0
ARC
  5
BDD
  8
0
 10
11.40225683155078
 20
10.09784663283734
 30
0.0
 40
13.05196148507164
 50
184.12463290913081
 51
221.97658915782219
  0
ARC
  5
BDE
  8
0
 10
6.1228664886474808
 20
5.4994482677734551
 30
0.0
 40
6.0526792019814488
 50
223.04126880222159
 51
238.31397261792731
  0
ARC
  5
BDF
  8
0
 10
5.9083418611820653
 20
4.8449149128266242
 30
0.0
 40
5.3854437619437183
 50
236.598117753872
 51
269.68860626026918
  0
ARC
  5
BE0
  8
0
 10
5.9083418611820688
 20
4.8449149128266313
 30
0.0
 40
5.3854437619437254
 50
269.68860626026918
 51
302.7790947666665
  0
ARC
  5
BE1
  8
0
 10
5.7009443425681816
 20
5.5017413722509723
 30
0.0
 40
6.0526792019814426
 50
301.06323990261109
 51
319.96098260560728
  0
ARC
  5
BE2
  8
0
 10
-0.1402290933259636
 20
9.5341118646453609
 30
0.0
 40
13.13590245075047
 50
322.88669364813819
 51
348.84530725990942
  0
ARC
  5
BE3
  8
0
 10
1.06803813969725
 20
9.7270619256311406
 30
0.0
 40
11.995251688812941
 50
346.82415154943629
 51
19.837652111805269
  0
ARC
  5
BE4
  8
0
 10
-5.5695643952835212
 20
7.3535401380380376
 30
0.0
 40
19.044444918139671
 50
19.777965664138058
 51
31.89941697791275
  0
ARC
  5
BE5
  8
0
 10
16.09642541110982
 20
19.874758371230119
 30
0.0
 40
6.021982002314469
 50
194.04214795275479
 51
204.085505748342
  0
ARC
  5
BE6
  8
0
 10
10.112357971789351
 20
18.381683815579521
 30
0.0
 40
0.1455814274109066
 50
12.668460479229919
 51
83.522830369834836
  0
LINE
  5
BE7
  8
0
 10
10.128780619700001
 20
18.526335979900001
 30
0.0
 11
9.270856777428067
 21
18.526068563599999
 31
0.0
  0
ARC
  5
BE8
  8
0
 10
9.2736122150147082
 20
18.493287112259221
 30
0.0
 40
0.0328970513618081
 50
94.804689844249225
 51
174.68116825083621
  0
LINE
  5
BE9
  8
0
 10
9.2408568090000003
 20
18.496336598300001
 30
0.0
 11
9.240856772199999
 21
18.350424576799998
 31
0.0
  0
ARC
  5
BEA
  8
0
 10
9.1834937090597411
 20
18.37004998325207
 30
0.0
 40
0.0606273666856981
 50
267.50718136821399
 51
341.11283905258699
  0
LINE
  5
BEB
  8
0
 10
9.1808567721999985
 20
18.3094799894
 30
0.0
 11
2.6508567722
 21
18.309480055799991
 31
0.0
  0
ARC
  5
BEC
  8
0
 10
2.6482207646708922
 20
18.37004979503735
 30
0.0
 40
0.0606270718984041
 50
198.88706826534761
 51
272.49195166221222
  0
LINE
  5
BED
  8
0
 10
2.5908579487000001
 20
18.350424576799998
 30
0.0
 11
2.5908579118999988
 21
18.496336598300001
 31
0.0
  0
ARC
  5
BEE
  8
0
 10
2.5581025058852909
 20
18.493287112259221
 30
0.0
 40
0.0328970513618057
 50
5.3188317491637944
 51
85.195310155751571
  0
LINE
  5
BEF
  8
0
 10
2.5608579434719321
 20
18.526068563599999
 30
0.0
 11
1.7029341012000001
 21
18.526335979900001
 31
0.0
  0
ARC
  5
BF0
  8
0
 10
1.719356749110649
 20
18.381683815579521
 30
0.0
 40
0.1455814274109072
 50
96.477169630164809
 51
167.33153952077009
  0
ARC
  5
BF1
  8
0
 10
-4.2647106902098697
 20
19.874758371230129
 30
0.0
 40
6.0219820023145134
 50
335.91449425165831
 51
345.95785204724513
  0
ARC
  5
BF2
  8
0
 10
17.40127911618351
 20
7.3535401380380421
 30
0.0
 40
19.044444918139661
 50
148.10058302208719
 51
160.22203433586171
  0
ARC
  5
BF3
  8
0
 10
10.76367658120275
 20
9.7270619256311335
 30
0.0
 40
11.995251688812949
 50
160.16234788819469
 51
193.17584845056371
  0
ARC
  5
BF4
  8
0
 10
11.145914911148591
 20
9.4029873135800344
 30
0.0
 40
12.300150806457809
 50
191.2998170521991
 51
225.4311336974533
  0
CIRCLE
  5
BF5
  8
0
 10
5.9158579487000003
 20
25.281977084899999
 30
0.0
 40
1.344000000000001
  0
CIRCLE
  5
BF6
  8
0
 10
5.9158579487000003
 20
25.281977084899999
 30
0.0
 40
0.8000000000000007
  0
LINE
  5
BF7
  8
0
 10
4.770988262788407
 20
25.544377492638471
 30
0.0
 11
5.1161776866792916
 21
24.42169105674709
 31
0.0
  0
LINE
  5
BF8
  8
0
 10
5.1161776866792916
 20
24.42169105674709
 30
0.0
 11
6.261047372590884
 21
24.159290649008611
 31
0.0
  0
LINE
  5
BF9
  8
0
 10
6.261047372590884
 20
24.159290649008611
 30
0.0
 11
7.0607276346115926
 21
25.019576677161531
 31
0.0
  0
LINE
  5
BFA
  8
0
 10
7.0607276346115926
 20
25.019576677161531
 30
0.0
 11
6.715538210720708
 21
26.142263113052909
 31
0.0
  0
LINE
  5
BFB
  8
0
 10
6.715538210720708
 20
26.142263113052909
 30
0.0
 11
5.5706685248091148
 21
26.404663520791392
 31
0.0
  0
LINE
  5
BFC
  8
0
 10
5.5706685248091148
 20
26.404663520791392
 30
0.0
 11
4.770988262788407
 21
25.544377492638471
 31
0.0
  0
ARC
  5
BFD
  8
0
 10
5.9133209934960389
 20
4.9070274299290872
 30
0.0
 40
3.1690324159005501
 50
237.56443480083499
 51
300.83500461747741
  0
ARC
  5
BFE
  8
0
 10
3.296409576321504
 20
1.073856326715805
 30
0.0
 40
0.8412473841741833
 50
255.3006101028098
 51
281.41144009529228
  0
ARC
  5
BFF
  8
0
 10
3.2227688304711619
 20
1.0401348574573881
 30
0.0
 40
0.8265329211291932
 50
286.88617610757291
 51
345.36117025865349
  0
ARC
  5
C00
  8
0
 10
0.2150078566799447
 20
2.064251487591771
 30
0.0
 40
4.0021331441098189
 50
342.05606209710191
 51
15.763441569988229
  0
ARC
  5
C01
  8
0
 10
-3.1817875031840628
 20
1.133752680393094
 30
0.0
 40
7.5240148276553542
 50
15.555622996558469
 51
34.92819572480564
  0
ARC
  5
C02
  8
0
 10
11.87282992085845
 20
9.8504868685958442
 30
0.0
 40
9.9195428886071468
 50
173.9446285941666
 51
206.3889491546727
  0
ARC
  5
C03
  8
0
 10
6.4561800414071522
 20
10.62561406932169
 30
0.0
 40
4.455811844658335
 50
126.3191798047272
 51
176.50953383960919
  0
ARC
  5
C04
  8
0
 10
5.742338888756052
 20
10.83507320846935
 30
0.0
 40
3.8904897660834732
 50
88.024134358304494
 51
119.6607288132429
  0
ARC
  5
C05
  8
0
 10
6.0106155954320526
 20
10.835073208469341
 30
0.0
 40
3.8904897660834741
 50
60.339271186757038
 51
91.975865641695492
  0
ARC
  5
C06
  8
0
 10
5.2967744427809489
 20
10.62561406932169
 30
0.0
 40
4.4558118446583359
 50
3.4904661603907901
 51
53.68082019527278
  0
ARC
  5
C07
  8
0
 10
-0.1198754366703714
 20
9.8504868685958442
 30
0.0
 40
9.9195428886071717
 50
333.61105084532721
 51
6.0553714058331742
  0
ARC
  5
C08
  8
0
 10
14.93474198737213
 20
1.1337526803930971
 30
0.0
 40
7.5240148276553187
 50
145.0718042751943
 51
164.4443770034415
  0
ARC
  5
C09
  8
0
 10
11.53794662750815
 20
2.064251487591775
 30
0.0
 40
4.0021331441098136
 50
164.23655843001171
 51
197.943937902898
  0
ARC
  5
C0A
  8
0
 10
8.5301856537169432
 20
1.0401348574573881
 30
0.0
 40
0.8265329211291952
 50
194.63882974134631
 51
253.11382389242701
  0
ARC
  5
C0B
  8
0
 10
8.4565449078666006
 20
1.073856326715809
 30
0.0
 40
0.8412473841741853
 50
258.58855990470772
 51
295.96166977685419
  0
LINE
  5
C0C
  8
0
 10
9.2658567721999994
 20
18.526336598299999
 30
0.0
 11
9.2658567721999994
 21
18.7086605559
 31
0.0
  0
ARC
  5
C0D
  8
0
 10
8.6458567720611708
 20
18.708660555847469
 30
0.0
 40
0.6200000001388286
 50
0.000000004854188
 51
82.906106692527985
  0
ARC
  5
C0E
  8
0
 10
6.0866210150299276
 20
-1.3153362413705549
 30
0.0
 40
20.80687698890463
 50
82.722249507297263
 51
90.470236189025641
  0
ARC
  5
C0F
  8
0
 10
5.7450937064009224
 20
-1.3153362416415559
 30
0.0
 40
20.806876989171261
 50
89.529763812442454
 51
97.277750494170832
  0
ARC
  5
C10
  8
0
 10
3.1858579487810221
 20
18.70866055582843
 30
0.0
 40
0.6200000000810239
 50
97.093893305712427
 51
179.99999999338641
  0
LINE
  5
C11
  8
0
 10
2.5658579487000002
 20
18.7086605559
 30
0.0
 11
2.5658579487000002
 21
18.526336598299999
 31
0.0
  0
LINE
  5
C12
  8
0
 10
7.5549796386038031
 20
14.405906489673949
 30
0.0
 11
7.3647064385994643
 21
12.1554935503304
 31
0.0
  0
ARC
  5
C13
  8
0
 10
6.5657920113453248
 20
12.093228328090079
 30
0.0
 40
0.8013371450116638
 50
320.80033005597221
 51
4.4564689345724187
  0
ARC
  5
C14
  8
0
 10
6.7603306558081444
 20
11.931233961849751
 30
0.0
 40
0.5482014130812815
 50
265.03280174759789
 51
321.07039768068063
  0
LINE
  5
C15
  8
0
 10
6.7128644125000001
 20
11.3850913568
 30
0.0
 11
5.1183667962000001
 21
11.385034281799999
 31
0.0
  0
ARC
  5
C16
  8
0
 10
5.0714253669242249
 20
11.931287067803931
 30
0.0
 40
0.5482659974861721
 50
218.9312846971971
 51
274.91156228226367
  0
ARC
  5
C17
  8
0
 10
5.2692019576618767
 20
12.094990339132609
 30
0.0
 40
0.8049914251196216
 50
175.58651399397991
 51
219.14939463192491
  0
LINE
  5
C18
  8
0
 10
4.4665976003000001
 20
12.1569374138
 30
0.0
 11
4.2740667004363351
 21
14.43786204505235
 31
0.0
  0
ARC
  5
C19
  8
0
 10
1.0902285352581531
 20
31.901622903713712
 30
0.0
 40
31.672826881436858
 50
286.9705838184903
 51
288.57427436300071
  0
ARC
  5
C1A
  8
0
 10
10.708808265520069
 20
3.608005832106211
 30
0.0
 40
1.79222282759764
 50
285.21267470206948
 51
333.97296625371121
  0
ARC
  5
C1B
  8
0
 10
9.8970444423748152
 20
3.8056412304495661
 30
0.0
 40
2.6144925198984992
 50
337.89009863268012
 51
20.726000244509219
  0
ARC
  5
C1C
  8
0
 10
0.4718480670557437
 20
10.157252306400361
 30
0.0
 40
13.051961485071629
 50
335.43348695709341
 51
355.25257961140761
  0
ARC
  5
C1D
  8
0
 10
3.5829452007018139
 20
10.01646881095097
 30
0.0
 40
9.9405768350456274
 50
354.5771338330548
 51
18.173285877641248
  0
ARC
  5
C1E
  8
0
 10
-4797.3761000313589
 20
-1610.3369240514569
 30
0.0
 40
5076.9662718381242
 50
18.648924012686919
 51
18.71048222712519
  0
LINE
  5
C1F
  8
0
 10
11.2806576835128
 20
18.284183470174639
 30
0.0
 11
7.4847791525254292
 21
27.092135556814959
 31
0.0
  0
ARC
  5
C20
  8
0
 10
7.0358579468723219
 20
26.87197708272711
 30
0.0
 40
0.5000000025977274
 50
26.12410527725855
 51
73.739795160455373
  0
ARC
  5
C21
  8
0
 10
5.9158579487000011
 20
23.03197708490001
 30
0.0
 40
4.499999999999992
 50
73.739795291700005
 51
106.2602047083106
  0
ARC
  5
C22
  8
0
 10
4.7958579494791831
 20
26.87197708344419
 30
0.0
 40
0.5000000016157488
 50
106.26020474730591
 51
153.8758879583109
  0
ARC
  5
C23
  8
0
 10
15.27651125788622
 20
5.4303137499970653
 30
0.0
 40
3.016380449060919
 50
185.81649868944919
 51
193.4071388937077
  0
ARC
  5
C24
  8
0
 10
12.873805338410181
 20
5.2084093174526016
 30
0.0
 40
0.6039843276381585
 50
178.04494981051701
 51
187.97371095249409
  0
ATTDEF
  5
C30
  8
DEFPOINTS
 10
5.9131023787421251
 20
28.537483953732579
 30
0.0
 40
0.001
  1
K-4405
  3

  2
MODELNUMBER
 70
     0
  0
ATTDEF
  5
C32
  8
DEFPOINTS
 10
5.9131088162168899
 20
28.535736458564202
 30
0.0
 40
0.001
  1
HIGHLINE
  3

  2
TRADENAME
 70
     0
  0
ATTDEF
  5
C33
  8
DEFPOINTS
 10
5.9131508571863369
 20
28.533931783312511
 30
0.0
 40
0.001
  1
TOILET
  3

  2
PRODUCT
 70
     0
  0
ATTDEF
  5
C34
  8
DEFPOINTS
 10
5.9131023787421251
 20
28.532314627135339
 30
0.0
 40
0.001
  1
VITREOUS CHINA
  3

  2
MATERIAL
 70
     0
  0
ENDSEC
  0
EOF
