  0
SECTION
  2
HEADER
  9
$ACADVER
  1
AC1009
  9
$INSBASE
 10
120.2378690624964
 20
-3.6931659100999989
 30
0.0
  9
$EXTMIN
 10
93.734674793852804
 20
-3.6862362910522761
 30
0.0
  9
$EXTMAX
 10
120.24491636057709
 20
12.98214447704501
 30
0.0
  9
$LIMMIN
 10
0.0
 20
0.0
  9
$LIMMAX
 10
11.692913385800001
 20
8.2677165353999982
  9
$ORTHOMODE
 70
     0
  9
$REGENMODE
 70
     1
  9
$FILLMODE
 70
     1
  9
$QTEXTMODE
 70
     0
  9
$MIRRTEXT
 70
     0
  9
$DRAGMODE
 70
     2
  9
$LTSCALE
 40
0.6431102362
  9
$OSMODE
 70
  3071
  9
$ATTMODE
 70
     1
  9
$TEXTSIZE
 40
0.2
  9
$TRACEWID
 40
0.05
  9
$TEXTSTYLE
  7
STANDARD
  9
$CLAYER
  8
0
  9
$CELTYPE
  6
BYLAYER
  9
$CECOLOR
 62
   256
  9
$DIMSCALE
 40
1.0
  9
$DIMASZ
 40
0.1875
  9
$DIMEXO
 40
0.0625
  9
$DIMDLI
 40
0.4443307087
  9
$DIMRND
 40
0.0
  9
$DIMDLE
 40
0.0
  9
$DIMEXE
 40
0.125
  9
$DIMTP
 40
0.01
  9
$DIMTM
 40
0.01
  9
$DIMTXT
 40
1.0
  9
$DIMCEN
 40
0.1052362205
  9
$DIMTSZ
 40
0.0
  9
$DIMTOL
 70
     1
  9
$DIMLIM
 70
     0
  9
$DIMTIH
 70
     1
  9
$DIMTOH
 70
     1
  9
$DIMSE1
 70
     0
  9
$DIMSE2
 70
     0
  9
$DIMTAD
 70
     0
  9
$DIMZIN
 70
     0
  9
$DIMBLK
  1

  9
$DIMASO
 70
     1
  9
$DIMSHO
 70
     1
  9
$DIMPOST
  1
\X
  9
$DIMAPOST
  1

  9
$DIMALT
 70
     1
  9
$DIMALTD
 70
     2
  9
$DIMALTF
 40
25.399999999999999
  9
$DIMLFAC
 40
1.0
  9
$DIMTOFL
 70
     0
  9
$DIMTVP
 40
0.0
  9
$DIMTIX
 70
     0
  9
$DIMSOXD
 70
     0
  9
$DIMSAH
 70
     0
  9
$DIMBLK1
  1

  9
$DIMBLK2
  1

  9
$DIMSTYLE
  2
STANDARD
  9
$DIMCLRD
 70
     0
  9
$DIMCLRE
 70
     0
  9
$DIMCLRT
 70
     0
  9
$DIMTFAC
 40
1.0
  9
$DIMGAP
 40
0.09
  9
$LUNITS
 70
     2
  9
$LUPREC
 70
     4
  9
$SKETCHINC
 40
0.1
  9
$FILLETRAD
 40
0.0
  9
$AUNITS
 70
     0
  9
$AUPREC
 70
     0
  9
$MENU
  1
.
  9
$ELEVATION
 40
0.0
  9
$PELEVATION
 40
0.0
  9
$THICKNESS
 40
0.0
  9
$LIMCHECK
 70
     0
  9
$BLIPMODE
 70
     0
  9
$CHAMFERA
 40
0.0
  9
$CHAMFERB
 40
0.0
  9
$SKPOLY
 70
     0
  9
$TDCREATE
 40
2458215.4419350931
  9
$TDUPDATE
 40
2458215.6453790511
  9
$TDINDWG
 40
0.1152665509
  9
$TDUSRTIMER
 40
0.1152665509
  9
$USRTIMER
 70
     1
  9
$ANGBASE
 50
0.0
  9
$ANGDIR
 70
     0
  9
$PDMODE
 70
     0
  9
$PDSIZE
 40
0.3125
  9
$PLINEWID
 40
0.0
  9
$COORDS
 70
     1
  9
$SPLFRAME
 70
     0
  9
$SPLINETYPE
 70
     6
  9
$SPLINESEGS
 70
     8
  9
$ATTDIA
 70
     1
  9
$ATTREQ
 70
     1
  9
$HANDLING
 70
     1
  9
$HANDSEED
  5
17B2
  9
$SURFTAB1
 70
     6
  9
$SURFTAB2
 70
     6
  9
$SURFTYPE
 70
     6
  9
$SURFU
 70
     6
  9
$SURFV
 70
     6
  9
$UCSNAME
  2

  9
$UCSORG
 10
0.0
 20
0.0
 30
0.0
  9
$UCSXDIR
 10
1.0
 20
0.0
 30
0.0
  9
$UCSYDIR
 10
0.0
 20
1.0
 30
0.0
  9
$PUCSNAME
  2

  9
$PUCSORG
 10
0.0
 20
0.0
 30
0.0
  9
$PUCSXDIR
 10
1.0
 20
0.0
 30
0.0
  9
$PUCSYDIR
 10
0.0
 20
1.0
 30
0.0
  9
$USERI1
 70
     0
  9
$USERI2
 70
     0
  9
$USERI3
 70
     0
  9
$USERI4
 70
     0
  9
$USERI5
 70
     0
  9
$USERR1
 40
0.0
  9
$USERR2
 40
0.0
  9
$USERR3
 40
0.0
  9
$USERR4
 40
0.0
  9
$USERR5
 40
0.0
  9
$WORLDVIEW
 70
     1
  9
$SHADEDGE
 70
     3
  9
$SHADEDIF
 70
    70
  9
$TILEMODE
 70
     1
  9
$MAXACTVP
 70
    64
  9
$PLIMCHECK
 70
     0
  9
$PEXTMIN
 10
1.0000000000000000E+020
 20
1.0000000000000000E+020
 30
1.0000000000000000E+020
  9
$PEXTMAX
 10
-1.0000000000000000E+020
 20
-1.0000000000000000E+020
 30
-1.0000000000000000E+020
  9
$PLIMMIN
 10
0.0
 20
0.0
  9
$PLIMMAX
 10
12.0
 20
9.0
  9
$UNITMODE
 70
     0
  9
$VISRETAIN
 70
     1
  9
$PLINEGEN
 70
     0
  9
$PSLTSCALE
 70
     1
  0
ENDSEC
  0
SECTION
  2
TABLES
  0
TABLE
  2
VPORT
 70
     1
  0
VPORT
  2
*ACTIVE
 70
     0
 10
0.0
 20
0.0
 11
1.0
 21
1.0
 12
0.0
 22
0.0
 13
0.0
 23
0.0
 14
1.0
 24
1.0
 15
0.0
 25
0.0
 16
-0.0000000000000142
 26
0.0
 36
88.061543127206548
 17
106.9888954878278
 27
4.6479540929963683
 37
0.0
 40
31.32587089291739
 41
2.0983240223463682
 42
50.0
 43
0.0
 44
0.0
 50
0.0
 51
0.0
 71
     0
 72
   100
 73
     1
 74
     1
 75
     0
 76
     0
 77
     0
 78
     0
  0
ENDTAB
  0
TABLE
  2
LTYPE
 70
     2
  0
LTYPE
  2
CONTINUOUS
 70
     0
  3
Solid line
 72
    65
 73
     0
 40
0.0
  0
LTYPE
  2
PHANTOM2
 70
     0
  3
___ _ _ ___ _ _ ___ _ _ ___ _ _
 72
    65
 73
     6
 40
1.25
 49
0.625
 49
-0.125
 49
0.125
 49
-0.125
 49
0.125
 49
-0.125
  0
ENDTAB
  0
TABLE
  2
LAYER
 70
     2
  0
LAYER
  2
0
 70
     0
 62
   255
  6
CONTINUOUS
  0
LAYER
  2
DEFPOINTS
 70
     0
 62
     7
  6
CONTINUOUS
  0
ENDTAB
  0
TABLE
  2
STYLE
 70
     1
  0
STYLE
  2
STANDARD
 70
     0
 40
0.0
 41
0.8
 50
0.0
 71
     0
 42
0.2
  3
txt
  4

  0
ENDTAB
  0
TABLE
  2
VIEW
 70
     0
  0
ENDTAB
  0
TABLE
  2
UCS
 70
     0
  0
ENDTAB
  0
TABLE
  2
APPID
 70
     9
  0
APPID
  2
ACAD
 70
     0
  0
APPID
  2
ACAD_MLEADERVER
 70
     0
  0
APPID
  2
ACAD_EXEMPT_FROM_CAD_STANDARDS
 70
     0
  0
APPID
  2
ACAD_NAV_VCDISPLAY
 70
     0
  0
APPID
  2
ACAD_DSTYLE_DIMJAG
 70
     0
  0
APPID
  2
ACAD_DSTYLE_DIMTALN
 70
     0
  0
APPID
  2
ACAECLAYERSTANDARD
 70
     0
  0
APPID
  2
ACCMTRANSPARENCY
 70
     0
  0
APPID
  2
AcDbAttr
 70
     0
  0
ENDTAB
  0
TABLE
  2
DIMSTYLE
 70
     1
  0
DIMSTYLE
  2
STANDARD
 70
     0
  3

  4

  5

  6

  7

 40
1.0
 41
0.1875
 42
0.0625
 43
0.38
 44
0.125
 45
0.0
 46
0.0
 47
0.01
 48
0.01
140
0.15625
141
0.09
142
0.0
143
25.399999999999999
144
1.0
145
0.0
146
1.0
147
0.09
 71
     1
 72
     0
 73
     1
 74
     1
 75
     0
 76
     0
 77
     0
 78
     4
170
     0
171
     2
172
     0
173
     0
174
     0
175
     0
176
     0
177
     0
178
     0
  0
ENDTAB
  0
ENDSEC
  0
SECTION
  2
BLOCKS
  0
BLOCK
  8
0
  2
$MODEL_SPACE
 70
     0
 10
0.0
 20
0.0
 30
0.0
  3
$MODEL_SPACE
  1

  0
ENDBLK
  5
21
  8
0
  0
BLOCK
 67
     1
  8
0
  2
$PAPER_SPACE
 70
     0
 10
0.0
 20
0.0
 30
0.0
  3
$PAPER_SPACE
  1

  0
ENDBLK
  5
1D
 67
     1
  8
0
  0
ENDSEC
  0
SECTION
  2
ENTITIES
  0
LINE
  5
12B3
  8
0
 10
94.133866544371415
 20
8.8068489023999987
 30
0.0
 11
103.8167812646322
 21
8.8068489023999952
 31
0.0
  0
LINE
  5
12C2
  8
0
 10
94.133866544371415
 20
8.8068489023999987
 30
0.0
 11
93.734674793852804
 21
11.155039283995411
 31
0.0
  0
LINE
  5
12C3
  8
0
 10
109.33267408319639
 20
0.5488042531000001
 30
0.0
 11
104.5509079864964
 21
0.5488032667000001
 31
0.0
  0
LINE
  5
12C4
  8
0
 10
104.1528989048964
 20
0.9089415068
 30
0.0
 11
103.8423869789964
 21
4.0095064583999989
 31
0.0
  0
LINE
  5
12C5
  8
0
 10
116.6225020841964
 20
12.017664508899999
 30
0.0
 11
116.5526485497964
 21
11.9735713953
 31
0.0
  0
LINE
  5
12C6
  8
0
 10
118.35288254599639
 20
11.976535936699999
 30
0.0
 11
118.4027648880964
 21
12.0054382643
 31
0.0
  0
LINE
  5
12C7
  8
0
 10
116.6153690624964
 20
12.0478340899
 30
0.0
 11
116.6006107058964
 21
12.0330757333
 31
0.0
  0
LINE
  5
12C8
  8
0
 10
105.7560514616964
 20
8.8068340755999994
 30
0.0
 11
118.3528689675389
 21
8.8068340898999562
 31
0.0
  0
LINE
  5
12C9
  8
0
 10
111.8492725266964
 20
11.306834089900001
 30
0.0
 11
111.8749990511964
 21
11.600889610099999
 31
0.0
  0
LINE
  5
12CA
  8
0
 10
113.70029768988979
 20
7.8651380529537018
 30
0.0
 11
111.4447750251158
 21
4.5831760527326919
 31
0.0
  0
LINE
  5
12CB
  8
0
 10
113.1516729228964
 20
11.8468348211
 30
0.0
 11
113.1516729229964
 21
12.731692105800001
 31
0.0
  0
LINE
  5
12CC
  8
0
 10
120.2378690624964
 20
11.306834089900001
 30
0.0
 11
97.561589261015357
 21
11.306834089900001
 31
0.0
  0
LINE
  5
12CD
  8
0
 10
96.892232905621285
 20
11.306834089900001
 30
0.0
 11
93.862834182996394
 21
11.306834089900001
 31
0.0
  0
LINE
  5
12CE
  8
0
 10
118.83186906249639
 20
11.556834089900001
 30
0.0
 11
116.14386906249641
 21
11.556834089900001
 31
0.0
  0
LINE
  5
12CF
  8
0
 10
118.8003690624964
 20
11.587834089899999
 30
0.0
 11
116.1753690624964
 21
11.587834089899999
 31
0.0
  0
LINE
  5
12D0
  8
0
 10
94.496264765696395
 20
11.601834089900001
 30
0.0
 11
96.164996421646407
 21
11.601774382649999
 31
0.0
  0
LINE
  5
12D1
  8
0
 10
98.971070136608674
 20
11.60184935093187
 30
0.0
 11
111.82465843739639
 21
11.601834089900001
 31
0.0
  0
LINE
  5
12D2
  8
0
 10
118.6628690624964
 20
11.677834089899999
 30
0.0
 11
118.5478690624964
 21
11.677834089899971
 31
0.0
  0
LINE
  5
12D3
  8
0
 10
116.4278690624964
 20
11.677834089899999
 30
0.0
 11
116.3128690624964
 21
11.677834089899999
 31
0.0
  0
LINE
  5
12D4
  8
0
 10
94.488337551496414
 20
11.602359376600001
 30
0.0
 11
94.496264765696395
 21
11.601834089900001
 31
0.0
  0
LINE
  5
12D5
  8
0
 10
112.9825982063964
 20
11.5065755404
 30
0.0
 11
113.0000733189964
 21
11.306834089900001
 31
0.0
  0
LINE
  5
12D6
  8
0
 10
118.5028690624964
 20
11.927834089899999
 30
0.0
 11
116.4728690624964
 21
11.927834089899999
 31
0.0
  0
LINE
  5
12D7
  8
0
 10
118.3603690624964
 20
12.0478340899
 30
0.0
 11
116.6153690624964
 21
12.0478340899
 31
0.0
  0
LINE
  5
12D8
  8
0
 10
112.14818224359639
 20
11.559241372800001
 30
0.0
 11
112.61415568359639
 21
11.434384165899999
 31
0.0
  0
LINE
  5
12D9
  8
0
 10
116.14386906249641
 20
11.306834089900001
 30
0.0
 11
116.14386906249641
 21
11.556834089900001
 31
0.0
  0
LINE
  5
12DA
  8
0
 10
116.1753690624964
 20
11.556834089900001
 30
0.0
 11
116.1753690624964
 21
11.587834089899999
 31
0.0
  0
LINE
  5
12DB
  8
0
 10
116.4578690624964
 20
11.706856409
 30
0.0
 11
116.4578690624964
 21
11.9128340899
 31
0.0
  0
LINE
  5
12DC
  8
0
 10
116.5526485497964
 20
11.9735713953
 30
0.0
 11
116.6224829740964
 21
11.9332336553
 31
0.0
  0
LINE
  5
12DD
  8
0
 10
118.42308757049641
 20
11.933824545
 30
0.0
 11
118.35288254599639
 21
11.976535936699999
 31
0.0
  0
LINE
  5
12DE
  8
0
 10
116.6006107058964
 20
12.0330757333
 30
0.0
 11
116.6225020841964
 21
12.017664508899999
 31
0.0
  0
LINE
  5
12DF
  8
0
 10
118.5178690624964
 20
11.9128340899
 30
0.0
 11
118.5178690624964
 21
11.706856409
 31
0.0
  0
LINE
  5
12E0
  8
0
 10
118.52786906249641
 20
-1.7566763955
 30
0.0
 11
118.52786906249641
 21
8.6318339965999993
 31
0.0
  0
LINE
  5
12E1
  8
0
 10
118.8003690624964
 20
11.556834089900001
 30
0.0
 11
118.8003690624964
 21
11.587834089899999
 31
0.0
  0
LINE
  5
12E2
  8
0
 10
118.83186906249639
 20
11.306834089900001
 30
0.0
 11
118.83186906249639
 21
11.556834089900001
 31
0.0
  0
LINE
  5
12E3
  8
0
 10
120.2378690624964
 20
-1.9431659100999989
 30
0.0
 11
120.2378690624964
 21
11.306834089900001
 31
0.0
  0
LINE
  5
12E4
  8
0
 10
118.3603690624964
 20
12.0478340899
 30
0.0
 11
118.4027648880964
 21
12.0054382643
 31
0.0
  0
ARC
  5
12F8
  8
0
 10
-112.8981089509341
 20
79.732096433186911
 30
0.0
 40
235.60738319891701
 50
341.33245413951693
 51
341.45163843833922
  0
ARC
  5
12F9
  8
0
 10
95.481613700083898
 20
9.0361844573910801
 30
0.0
 40
1.3671200358835229
 50
189.65707468506491
 51
193.61523217350711
  0
ARC
  5
12FA
  8
0
 10
105.78360451399639
 20
11.469834089900001
 30
0.0
 40
0.228
 50
190.0
 51
225.68955617419979
  0
ARC
  5
12FB
  8
0
 10
106.1948635874963
 20
11.469834089900051
 30
0.0
 40
0.2280000000000816
 50
314.36398929110328
 51
349.99999894719082
  0
ARC
  5
12FD
  8
0
 10
110.2832989382964
 20
5.3728077791999986
 30
0.0
 40
1.4048092952999991
 50
273.05587350500042
 51
282.10867290630028
  0
ARC
  5
12FE
  8
0
 10
110.28945991699641
 20
5.3772331836999996
 30
0.0
 40
1.4018843484000001
 50
294.89054295650033
 51
325.49895395760001
  0
ARC
  5
12FF
  8
0
 10
110.5561392011964
 20
4.7557308155999989
 30
0.0
 40
0.0900000768
 50
128.0711713770998
 51
161.5516160662998
  0
ARC
  5
1300
  8
0
 10
111.65388113052271
 20
3.8505761699505778
 30
0.0
 40
1.419287122938051
 50
160.697424626892
 51
170.4092508889573
  0
ARC
  5
1301
  8
0
 10
110.9888686947187
 20
8.9231037430959717
 30
0.0
 40
2.2562686169989949
 50
294.875789795076
 51
333.68444802246381
  0
ARC
  5
1302
  8
0
 10
111.82465843739639
 20
10.351834089900001
 30
0.0
 40
1.25
 50
75.00000000979972
 51
90.0
  0
ARC
  5
1303
  8
0
 10
112.7246729228964
 20
11.8468340899
 30
0.0
 40
0.4270000000000001
 50
254.99979065889971
 51
0.0000981189
  0
ARC
  5
1304
  8
0
 10
113.6261262997964
 20
7.9161144078999994
 30
0.0
 40
0.0899999104
 50
325.50012021849977
 51
89.945792564100131
  0
ARC
  5
1305
  8
0
 10
116.32786027949641
 20
11.589091409
 30
0.0
 40
0.09
 50
99.588397569099882
 51
180.80046024640001
  0
ARC
  5
1306
  8
0
 10
116.4278576055757
 20
11.707862400442311
 30
0.0
 40
0.0300283127279311
 50
270.02186047628987
 51
358.08015016795503
  0
ARC
  5
1307
  8
0
 10
116.4728690624964
 20
11.9128340899
 30
0.0
 40
0.015
 50
90.0
 51
180.0
  0
ARC
  5
1308
  8
0
 10
118.3528690624964
 20
8.631834089899975
 30
0.0
 40
0.1750000000000078
 50
359.99996945317241
 51
90.000031089503707
  0
ARC
  5
1309
  8
0
 10
118.64787784539639
 20
11.589091409
 30
0.0
 40
0.09
 50
359.19953975359999
 51
80.411602430900103
  0
ARC
  5
130A
  8
0
 10
118.5478809910408
 20
11.70786288795369
 30
0.0
 40
0.03002880042294
 50
181.9207493480892
 51
269.97724000757921
  0
ARC
  5
130B
  8
0
 10
118.5028690624964
 20
11.9128340899
 30
0.0
 40
0.015
 50
0.0
 51
90.0
  0
ARC
  5
13AF
  8
0
 10
93.862833879632078
 20
11.176834864524309
 30
0.0
 40
0.1299992253760452
 50
89.999866295397325
 51
189.6517542318212
  0
ARC
  5
13B0
  8
0
 10
97.863939831314013
 20
10.129031262100041
 30
0.0
 40
3.9715252656908091
 50
200.86716576341371
 51
231.28434563524701
  0
ARC
  5
13B1
  8
0
 10
103.3409610943535
 20
15.00264455940729
 30
0.0
 40
11.266666743484411
 50
225.04098933802561
 51
244.41144074843129
  0
ARC
  5
13B2
  8
0
 10
101.4089943407668
 20
11.964390835935889
 30
0.0
 40
7.7040041779753032
 50
247.6128486591237
 51
272.80147896562369
  0
ARC
  5
13B3
  8
0
 10
101.9097305244761
 20
-11.54408123041946
 30
0.0
 40
15.814162841739281
 50
83.534418302412433
 51
90.449985003598584
  0
ARC
  5
13B4
  8
0
 10
103.6632818635432
 20
3.9915678349551702
 30
0.0
 40
0.1800012127530898
 50
5.7194969643911229
 51
81.30110721812224
  0
ARC
  5
13B5
  8
0
 10
104.5509250443375
 20
0.9488223805960522
 30
0.0
 40
0.4000191142597381
 50
185.72174687004349
 51
269.99755676099159
  0
ARC
  5
13B6
  8
0
 10
-510.92077290987731
 20
-7033.7526038475899
 30
0.0
 40
7061.5940578961436
 50
84.887791523382305
 51
84.960945173961917
  0
ARC
  5
13B7
  8
0
 10
118.2777185456109
 20
-0.4964488760305573
 30
0.0
 40
0.2501505238163642
 50
0.0134875177235656
 51
81.807321824655446
  0
LINE
  5
13B8
  8
0
 10
120.2378690624964
 20
-1.9431659100999989
 30
0.0
 11
118.6833374957978
 21
-1.9431659100999989
 31
0.0
  0
ARC
  5
13B9
  8
0
 10
118.71778024581521
 20
-1.7564039526624899
 30
0.0
 40
0.1899113787392585
 50
180.08219533871829
 51
259.5508844414382
  0
ARC
  5
13BA
  8
0
 10
103.78954053842639
 20
11.5238418167036
 30
0.0
 40
2.7171294694107249
 50
270.57443151211868
 51
288.81540938806342
  0
ARC
  5
13BB
  8
0
 10
105.6319118469785
 20
12.042659794060199
 30
0.0
 40
3.2382060966205959
 50
252.6428971710103
 51
272.197024870218
  0
ARC
  5
13BC
  8
0
 10
103.1568988707434
 20
29.35914297682254
 30
0.0
 40
25.358903082797131
 50
271.5489771013734
 51
280.8970052628905
  0
ARC
  5
13BD
  8
0
 10
106.96148450103711
 20
9.0563502855266211
 30
0.0
 40
4.704072752584973
 50
282.14117108990013
 51
329.86149695678762
  0
ARC
  5
13BE
  8
0
 10
105.2190779433068
 20
9.4164741844000943
 30
0.0
 40
6.416529129347011
 50
334.89888290335819
 51
354.54805383908092
  0
LINE
  5
13BF
  8
0
 10
118.42308757049641
 20
11.933824545
 30
0.0
 11
118.42308757049641
 21
11.927834089899999
 31
0.0
  0
LINE
  5
13C0
  8
0
 10
116.6224829740964
 20
11.9332336553
 30
0.0
 11
116.6224829740964
 21
11.927834089899999
 31
0.0
  0
LINE
  5
13C1
  8
0
 10
116.5526485497964
 20
11.9735713953
 30
0.0
 11
118.4027648880964
 21
12.0054382643
 31
0.0
  0
LINE
  5
13C2
  8
0
 10
116.6006107058964
 20
12.0330757333
 30
0.0
 11
117.4574465836893
 21
12.0478340899
 31
0.0
  0
ARC
  5
13C3
  8
0
 10
94.496676739622202
 20
11.662199299605909
 30
0.0
 40
0.0604181964063849
 50
180.34661178784671
 51
262.06645298973461
  0
LINE
  5
13C4
  8
0
 10
94.436259648764391
 20
11.66183380093357
 30
0.0
 11
94.436259648764391
 21
11.676832014113121
 31
0.0
  0
ARC
  5
13C5
  8
0
 10
-200.501699988919
 20
122.8200541438818
 30
0.0
 40
315.1844156373009
 50
339.35178789987913
 51
339.434206627538
  0
ARC
  5
13C6
  8
0
 10
95.105881481359063
 20
11.88831630934912
 30
0.0
 40
0.5526971093089469
 50
92.162498707998992
 51
157.3445802772155
  0
ARC
  5
13C7
  8
0
 10
95.303776636885445
 20
10.58092259165643
 30
0.0
 40
1.872518490882827
 50
86.980552008954533
 51
96.708699956924164
  0
ARC
  5
13C8
  8
0
 10
95.914689220891447
 20
21.57815943716011
 30
0.0
 40
9.1416826402401892
 50
266.78760008555929
 51
270.86169989325862
  0
ARC
  5
13C9
  8
0
 10
97.891426210123058
 20
-92.462356009138404
 30
0.0
 40
104.91598965410699
 50
90.019922440171428
 51
91.004489359120001
  0
ARC
  5
13CA
  8
0
 10
100.8988534814232
 20
558.28862767908367
 30
0.0
 40
545.84348765091988
 50
269.68048720887907
 51
270.5955122963029
  0
ARC
  5
13CB
  8
0
 10
104.6347938347062
 20
76.364916384124911
 30
0.0
 40
63.919657282041939
 50
271.73677466677202
 51
277.43131466441218
  0
ARC
  5
13CC
  8
0
 10
112.8756329847272
 20
12.70618611439181
 30
0.0
 40
0.2772158060381101
 50
5.2791197185306054
 51
84.54069755209602
  0
ARC
  5
13CD
  8
0
 10
97.226911083318328
 20
12.91729476103753
 30
0.0
 40
1.6448687047625921
 50
254.34232614490099
 51
286.98940872522769
  0
ARC
  5
13CE
  8
0
 10
99.469975595900436
 20
5.9278804551486353
 30
0.0
 40
5.6958607503718701
 50
95.025027279933568
 51
108.0245871761087
  0
ARC
  5
13CF
  8
0
 10
97.949774950815964
 20
14.700481075890959
 30
0.0
 40
3.5634549982398869
 50
240.60853839408119
 51
250.88689908457951
  0
ARC
  5
13D0
  8
0
 10
96.168385565489586
 20
11.512680357646479
 30
0.0
 40
0.0891584633521537
 50
68.595331517171644
 51
92.178485653542936
  0
LINE
  5
13D1
  8
0
 10
96.399200742896411
 20
12.0925165174
 30
0.0
 11
98.919861733494315
 21
12.0925165377
 31
0.0
  0
ARC
  5
13D2
  8
0
 10
98.935523303184937
 20
11.64163664767498
 30
0.0
 40
0.4511518147963988
 50
22.80069828238058
 51
91.989401669361854
  0
ARC
  5
13D3
  8
0
 10
99.712757836844034
 20
11.70907745396803
 30
0.0
 40
0.3769578111767163
 50
163.44755025482581
 51
196.52878384106211
  0
ARC
  5
13D4
  8
0
 10
96.415774542290791
 20
11.61466415117934
 30
0.0
 40
0.4781397021049912
 50
91.986446677347999
 51
155.03504135466011
  0
ARC
  5
13D5
  8
0
 10
96.287124222577845
 20
11.754471098314539
 30
0.0
 40
0.3110561937753127
 50
168.503021084415
 51
209.3984641866667
  0
ARC
  5
13D6
  8
0
 10
106.5999922316622
 20
11.421038064621939
 30
0.0
 40
0.1808268807334479
 50
91.06125298933182
 51
177.08233697840461
  0
ARC
  5
13D7
  8
0
 10
104.92146428970609
 20
11.36257789744101
 30
0.0
 40
0.6411843768253184
 50
6.0577228075513414
 51
21.909848308770709
  0
ARC
  5
13D8
  8
0
 10
95.42168826903692
 20
-29.170610888718169
 30
0.0
 40
40.854568227188203
 50
82.208992650525559
 51
85.518493628346349
  0
ARC
  5
13D9
  8
0
 10
113.5348981791571
 20
7.8204687727928661
 30
0.0
 40
5.0677585560938541
 50
131.73531224198621
 51
136.53193537328431
  0
ARC
  5
13DA
  8
0
 10
119.59093726123351
 20
3.3598829712692648
 30
0.0
 40
3.828204826973828
 50
196.2935449528137
 51
250.5049120358527
  0
ARC
  5
13DB
  8
0
 10
119.7882904811698
 20
3.473656630659093
 30
0.0
 40
4.0499097340538954
 50
152.3729981970906
 51
197.05519408767739
  0
ARC
  5
13DC
  8
0
 10
110.3255020314237
 20
8.8624620774095462
 30
0.0
 40
6.8437583075802246
 50
329.13653313809237
 51
331.54244925940429
  0
ARC
  5
13DD
  8
0
 10
116.10686764997951
 20
5.74594549229466
 30
0.0
 40
0.276312074103251
 50
328.44815247154008
 51
145.4169808059317
  0
ARC
  5
13DE
  8
0
 10
14374.13869611798
 20
-9798.3917530515228
 30
0.0
 40
17303.818944336719
 50
145.48672593917141
 51
145.50117545639421
  0
ARC
  5
13DF
  8
0
 10
109.6994581491245
 20
5.2998865173064091
 30
0.0
 40
4.7652191169217497
 50
265.58551561290051
 51
321.08685888925402
  0
LINE
  5
13E0
  8
0
 10
113.6262114485401
 20
8.0061142780204584
 30
0.0
 11
113.1461030367964
 21
8.0063696821000008
 31
0.0
  0
ARC
  5
13E1
  8
0
 10
113.14571122821459
 20
7.8564591921289466
 30
0.0
 40
0.1499110019889335
 50
89.8502511265187
 51
153.70567564390311
  0
ARC
  5
13E2
  8
0
 10
111.9716531478412
 20
6.8035574364476092
 30
0.0
 40
0.0800408297077006
 50
114.883703112793
 51
166.29040664234941
  0
ARC
  5
13E3
  8
0
 10
110.53603583306641
 20
7.1953021371081416
 30
0.0
 40
1.4080967685819601
 50
323.25477763674968
 51
344.64868911166701
  0
ARC
  5
13E4
  8
0
 10
115.4863010289851
 20
2.9068008430549628
 30
0.0
 40
5.1461537181073238
 50
137.96032336552571
 51
149.78432106155779
  0
ARC
  5
13E5
  8
0
 10
109.0649848463374
 20
6.5323098167463822
 30
0.0
 40
2.229487458624861
 50
310.08626581099162
 51
332.31989569487621
  0
ARC
  5
13E6
  8
0
 10
115.06021110095681
 20
-4.667045160247997
 30
0.0
 40
10.531792308600689
 50
115.6538950958452
 51
124.4812697567435
  0
ARC
  5
13E7
  8
0
 10
105.79656240944151
 20
9.9769908685895867
 30
0.0
 40
6.815433903201785
 50
272.54141549496819
 51
298.97141440525712
  0
ARC
  5
13E8
  8
0
 10
106.35561860103959
 20
2.947249649904113
 30
0.0
 40
0.3388471693725456
 50
139.28905535316929
 51
210.60949923293461
  0
ARC
  5
13E9
  8
0
 10
104.618076390653
 20
2.094835787245156
 30
0.0
 40
1.5977773733178751
 50
0.8767919888696598
 51
25.18326669693197
  0
ARC
  5
13EA
  8
0
 10
94.149764223978394
 20
1.905539368636793
 30
0.0
 40
12.06779555627673
 50
358.89411541087139
 51
1.014882126540215
  0
ARC
  5
13EB
  8
0
 10
107.3288303932793
 20
1.631091756590801
 30
0.0
 40
1.114292888710392
 50
177.86368475856059
 51
215.01263463947791
  0
ARC
  5
13EC
  8
0
 10
108.4925900116375
 20
3.4657845850490379
 30
0.0
 40
3.2298943769139878
 50
229.99402829527071
 51
244.57119845631269
  0
ARC
  5
13ED
  8
0
 10
110.3530444980976
 20
4.0699476572459119
 30
0.0
 40
0.1000838731076766
 50
170.1650992720048
 51
272.94641114495857
  0
ARC
  5
13EE
  8
0
 10
110.1843351343833
 20
5.5963998491318048
 30
0.0
 40
1.644941898908526
 50
283.84563244287477
 51
294.99907472215989
  0
ARC
  5
13EF
  8
0
 10
110.91526909386999
 20
15.36765188789383
 30
0.0
 40
7.844835526123183
 50
290.21661434557899
 51
303.24613073158162
  0
ARC
  5
13F0
  8
0
 10
106.6576471669668
 20
4.251698673407506
 30
0.0
 40
3.7112486050309559
 50
326.97631260586633
 51
355.64677278732069
  0
ARC
  5
13F1
  8
0
 10
110.4794678013382
 20
1.640248198413724
 30
0.0
 40
0.922535891703861
 50
140.33334813747589
 51
189.32583357761061
  0
ARC
  5
13F2
  8
0
 10
108.874294019402
 20
1.1645199565505371
 30
0.0
 40
0.7676054392458206
 50
306.66646945475412
 51
25.150674434968892
  0
ARC
  5
13F3
  8
0
 10
111.9392645738251
 20
7.6932776755661223
 30
0.0
 40
4.19355511717675
 50
354.7809591828007
 51
15.3996902484531
  0
ARC
  5
13F4
  8
0
 10
116.9401273282557
 20
7.8470009338055666
 30
0.0
 40
0.9831279590446502
 50
212.98151640660879
 51
267.32522169643352
  0
ARC
  5
13F5
  8
0
 10
118.97003465454119
 20
16.041036481934508
 30
0.0
 40
9.4079520729721651
 50
257.2532731086601
 51
265.77588519428508
  0
ARC
  5
13F6
  8
0
 10
118.3105872544009
 20
6.0325858434989286
 30
0.0
 40
0.6269515394799992
 50
69.722600606610115
 51
93.065057842069123
  0
ARC
  5
13F7
  8
0
 10
106.72824278429179
 20
-2.9756850880310859
 30
0.0
 40
6.176107465136937
 50
95.849787861421703
 51
116.3428805681669
  0
ATTDEF
  5
16A4
  8
DEFPOINTS
 10
120.2342496939105
 20
-3.6862362910522739
 30
0.0
 40
0.001
  1
VITREOUS CHINA
  3

  2
MATERIAL
 70
     0
1001
AcDbAttr
1070
     0
1070
     1
  0
ATTDEF
  5
16A5
  8
DEFPOINTS
 10
120.2342496939105
 20
-3.6845696243856092
 30
0.0
 40
0.001
  1
BOWL
  3

  2
PRODUCT
 70
     0
1001
AcDbAttr
1070
     0
1070
     1
  0
ATTDEF
  5
16A6
  8
DEFPOINTS
 10
120.2342496939105
 20
-3.682902957718944
 30
0.0
 40
0.001
  1
KINGSTON
  3

  2
TRADENAME
 70
     0
1001
AcDbAttr
1070
     0
1070
     1
  0
ATTDEF
  5
16A7
  8
DEFPOINTS
 10
120.2342496939105
 20
-3.6812362910522789
 30
0.0
 40
0.001
  1
K-4325
  3

  2
MODELNUMBER
 70
     0
1001
AcDbAttr
1070
     0
1070
     1
  0
ENDSEC
  0
EOF
