  0
SECTION
  2
HEADER
  9
$ACADVER
  1
AC1009
  9
$INSBASE
 10
73.910759528896392
 20
-3.6931659100999989
 30
0.0
  9
$EXTMIN
 10
65.535759528796405
 20
-3.699622329679678
 30
0.0
  9
$EXTMAX
 10
82.285759528996394
 20
12.98214447704502
 30
0.0
  9
$LIMMIN
 10
0.0
 20
0.0
  9
$LIMMAX
 10
11.692913385800001
 20
8.2677165353999982
  9
$ORTHOMODE
 70
     0
  9
$REGENMODE
 70
     1
  9
$FILLMODE
 70
     1
  9
$QTEXTMODE
 70
     0
  9
$MIRRTEXT
 70
     0
  9
$DRAGMODE
 70
     2
  9
$LTSCALE
 40
0.6431102362
  9
$OSMODE
 70
  3071
  9
$ATTMODE
 70
     1
  9
$TEXTSIZE
 40
0.2
  9
$TRACEWID
 40
0.05
  9
$TEXTSTYLE
  7
STANDARD
  9
$CLAYER
  8
0
  9
$CELTYPE
  6
BYLAYER
  9
$CECOLOR
 62
   256
  9
$DIMSCALE
 40
1.0
  9
$DIMASZ
 40
0.1875
  9
$DIMEXO
 40
0.0625
  9
$DIMDLI
 40
0.4443307087
  9
$DIMRND
 40
0.0
  9
$DIMDLE
 40
0.0
  9
$DIMEXE
 40
0.125
  9
$DIMTP
 40
0.01
  9
$DIMTM
 40
0.01
  9
$DIMTXT
 40
1.0
  9
$DIMCEN
 40
0.1052362205
  9
$DIMTSZ
 40
0.0
  9
$DIMTOL
 70
     1
  9
$DIMLIM
 70
     0
  9
$DIMTIH
 70
     1
  9
$DIMTOH
 70
     1
  9
$DIMSE1
 70
     0
  9
$DIMSE2
 70
     0
  9
$DIMTAD
 70
     0
  9
$DIMZIN
 70
     0
  9
$DIMBLK
  1

  9
$DIMASO
 70
     1
  9
$DIMSHO
 70
     1
  9
$DIMPOST
  1
\X
  9
$DIMAPOST
  1

  9
$DIMALT
 70
     1
  9
$DIMALTD
 70
     2
  9
$DIMALTF
 40
25.399999999999999
  9
$DIMLFAC
 40
1.0
  9
$DIMTOFL
 70
     0
  9
$DIMTVP
 40
0.0
  9
$DIMTIX
 70
     0
  9
$DIMSOXD
 70
     0
  9
$DIMSAH
 70
     0
  9
$DIMBLK1
  1

  9
$DIMBLK2
  1

  9
$DIMSTYLE
  2
STANDARD
  9
$DIMCLRD
 70
     0
  9
$DIMCLRE
 70
     0
  9
$DIMCLRT
 70
     0
  9
$DIMTFAC
 40
1.0
  9
$DIMGAP
 40
0.09
  9
$LUNITS
 70
     2
  9
$LUPREC
 70
     4
  9
$SKETCHINC
 40
0.1
  9
$FILLETRAD
 40
0.0
  9
$AUNITS
 70
     0
  9
$AUPREC
 70
     0
  9
$MENU
  1
.
  9
$ELEVATION
 40
0.0
  9
$PELEVATION
 40
0.0
  9
$THICKNESS
 40
0.0
  9
$LIMCHECK
 70
     0
  9
$BLIPMODE
 70
     0
  9
$CHAMFERA
 40
0.0
  9
$CHAMFERB
 40
0.0
  9
$SKPOLY
 70
     0
  9
$TDCREATE
 40
2458215.4419350931
  9
$TDUPDATE
 40
2458215.645272546
  9
$TDINDWG
 40
0.1151671412
  9
$TDUSRTIMER
 40
0.1151671412
  9
$USRTIMER
 70
     1
  9
$ANGBASE
 50
0.0
  9
$ANGDIR
 70
     0
  9
$PDMODE
 70
     0
  9
$PDSIZE
 40
0.3125
  9
$PLINEWID
 40
0.0
  9
$COORDS
 70
     1
  9
$SPLFRAME
 70
     0
  9
$SPLINETYPE
 70
     6
  9
$SPLINESEGS
 70
     8
  9
$ATTDIA
 70
     1
  9
$ATTREQ
 70
     1
  9
$HANDLING
 70
     1
  9
$HANDSEED
  5
17B2
  9
$SURFTAB1
 70
     6
  9
$SURFTAB2
 70
     6
  9
$SURFTYPE
 70
     6
  9
$SURFU
 70
     6
  9
$SURFV
 70
     6
  9
$UCSNAME
  2

  9
$UCSORG
 10
0.0
 20
0.0
 30
0.0
  9
$UCSXDIR
 10
1.0
 20
0.0
 30
0.0
  9
$UCSYDIR
 10
0.0
 20
1.0
 30
0.0
  9
$PUCSNAME
  2

  9
$PUCSORG
 10
0.0
 20
0.0
 30
0.0
  9
$PUCSXDIR
 10
1.0
 20
0.0
 30
0.0
  9
$PUCSYDIR
 10
0.0
 20
1.0
 30
0.0
  9
$USERI1
 70
     0
  9
$USERI2
 70
     0
  9
$USERI3
 70
     0
  9
$USERI4
 70
     0
  9
$USERI5
 70
     0
  9
$USERR1
 40
0.0
  9
$USERR2
 40
0.0
  9
$USERR3
 40
0.0
  9
$USERR4
 40
0.0
  9
$USERR5
 40
0.0
  9
$WORLDVIEW
 70
     1
  9
$SHADEDGE
 70
     3
  9
$SHADEDIF
 70
    70
  9
$TILEMODE
 70
     1
  9
$MAXACTVP
 70
    64
  9
$PLIMCHECK
 70
     0
  9
$PEXTMIN
 10
1.0000000000000000E+020
 20
1.0000000000000000E+020
 30
1.0000000000000000E+020
  9
$PEXTMAX
 10
-1.0000000000000000E+020
 20
-1.0000000000000000E+020
 30
-1.0000000000000000E+020
  9
$PLIMMIN
 10
0.0
 20
0.0
  9
$PLIMMAX
 10
12.0
 20
9.0
  9
$UNITMODE
 70
     0
  9
$VISRETAIN
 70
     1
  9
$PLINEGEN
 70
     0
  9
$PSLTSCALE
 70
     1
  0
ENDSEC
  0
SECTION
  2
TABLES
  0
TABLE
  2
VPORT
 70
     1
  0
VPORT
  2
*ACTIVE
 70
     0
 10
0.0
 20
0.0
 11
1.0
 21
1.0
 12
0.0
 22
0.0
 13
0.0
 23
0.0
 14
1.0
 24
1.0
 15
0.0
 25
0.0
 16
-0.0000000000000142
 26
0.0
 36
66.474990796347683
 17
73.910759528896392
 27
4.6412610736826743
 37
0.0
 40
23.651945574364792
 41
2.0983240223463682
 42
50.0
 43
0.0
 44
0.0
 50
0.0
 51
0.0
 71
     0
 72
   100
 73
     1
 74
     1
 75
     0
 76
     0
 77
     0
 78
     0
  0
ENDTAB
  0
TABLE
  2
LTYPE
 70
     2
  0
LTYPE
  2
CONTINUOUS
 70
     0
  3
Solid line
 72
    65
 73
     0
 40
0.0
  0
LTYPE
  2
PHANTOM2
 70
     0
  3
___ _ _ ___ _ _ ___ _ _ ___ _ _
 72
    65
 73
     6
 40
1.25
 49
0.625
 49
-0.125
 49
0.125
 49
-0.125
 49
0.125
 49
-0.125
  0
ENDTAB
  0
TABLE
  2
LAYER
 70
     2
  0
LAYER
  2
0
 70
     0
 62
   255
  6
CONTINUOUS
  0
LAYER
  2
DEFPOINTS
 70
     0
 62
     7
  6
CONTINUOUS
  0
ENDTAB
  0
TABLE
  2
STYLE
 70
     1
  0
STYLE
  2
STANDARD
 70
     0
 40
0.0
 41
0.8
 50
0.0
 71
     0
 42
0.2
  3
txt
  4

  0
ENDTAB
  0
TABLE
  2
VIEW
 70
     0
  0
ENDTAB
  0
TABLE
  2
UCS
 70
     0
  0
ENDTAB
  0
TABLE
  2
APPID
 70
     9
  0
APPID
  2
ACAD
 70
     0
  0
APPID
  2
ACAD_MLEADERVER
 70
     0
  0
APPID
  2
ACAD_EXEMPT_FROM_CAD_STANDARDS
 70
     0
  0
APPID
  2
ACAD_NAV_VCDISPLAY
 70
     0
  0
APPID
  2
ACAD_DSTYLE_DIMJAG
 70
     0
  0
APPID
  2
ACAD_DSTYLE_DIMTALN
 70
     0
  0
APPID
  2
ACAECLAYERSTANDARD
 70
     0
  0
APPID
  2
ACCMTRANSPARENCY
 70
     0
  0
APPID
  2
AcDbAttr
 70
     0
  0
ENDTAB
  0
TABLE
  2
DIMSTYLE
 70
     1
  0
DIMSTYLE
  2
STANDARD
 70
     0
  3

  4

  5

  6

  7

 40
1.0
 41
0.1875
 42
0.0625
 43
0.38
 44
0.125
 45
0.0
 46
0.0
 47
0.01
 48
0.01
140
0.15625
141
0.09
142
0.0
143
25.399999999999999
144
1.0
145
0.0
146
1.0
147
0.09
 71
     1
 72
     0
 73
     1
 74
     1
 75
     0
 76
     0
 77
     0
 78
     4
170
     0
171
     2
172
     0
173
     0
174
     0
175
     0
176
     0
177
     0
178
     0
  0
ENDTAB
  0
ENDSEC
  0
SECTION
  2
BLOCKS
  0
BLOCK
  8
0
  2
$MODEL_SPACE
 70
     0
 10
0.0
 20
0.0
 30
0.0
  3
$MODEL_SPACE
  1

  0
ENDBLK
  5
21
  8
0
  0
BLOCK
 67
     1
  8
0
  2
$PAPER_SPACE
 70
     0
 10
0.0
 20
0.0
 30
0.0
  3
$PAPER_SPACE
  1

  0
ENDBLK
  5
1D
 67
     1
  8
0
  0
ENDSEC
  0
SECTION
  2
ENTITIES
  0
LINE
  5
12AC
  8
0
 10
66.872875123396412
 20
12.2378426795
 30
0.0
 11
66.773961818196398
 21
11.6768529015
 31
0.0
  0
LINE
  5
12AD
  8
0
 10
67.22084366943642
 20
11.43024230127005
 30
0.0
 11
67.217397701796401
 21
11.449785354599999
 31
0.0
  0
LINE
  5
12AE
  8
0
 10
72.210190133516463
 20
2.862765283879094
 30
0.0
 11
72.492244819508386
 21
1.476445831036145
 31
0.0
  0
LINE
  5
12AF
  8
0
 10
72.362339037696401
 20
11.658599585999999
 30
0.0
 11
72.362337840296405
 21
11.6735454385
 31
0.0
  0
LINE
  5
12B0
  8
0
 10
74.747499872896398
 20
0.9930335569
 30
0.0
 11
74.798628437296401
 21
2.4571955934999989
 31
0.0
  0
LINE
  5
12B1
  8
0
 10
75.329278907896409
 20
1.476445164
 30
0.0
 11
75.603594902408901
 21
2.824786466033661
 31
0.0
  0
LINE
  5
12B2
  8
0
 10
66.926132594796414
 20
8.8068489023999952
 30
0.0
 11
80.895386461296397
 21
8.8068489023999952
 31
0.0
  0
LINE
  5
12B4
  8
0
 10
77.713653884896402
 20
3.8334164781000002
 30
0.0
 11
77.6423600747964
 21
4.4397907590499983
 31
0.0
  0
LINE
  5
12B5
  8
0
 10
81.035126370996394
 20
11.306834089900001
 30
0.0
 11
80.083207872570256
 21
11.306834089900001
 31
0.0
  0
LINE
  5
12B6
  8
0
 10
79.698247160312675
 20
11.306834089900001
 30
0.0
 11
66.786392686796404
 21
11.306834089900001
 31
0.0
  0
LINE
  5
12B7
  8
0
 10
66.833923050996404
 20
11.601834089900001
 30
0.0
 11
72.32271798703384
 21
11.601834089900001
 31
0.0
  0
LINE
  5
12B8
  8
0
 10
79.809679698896403
 20
12.0925163689
 30
0.0
 11
78.373846012896408
 21
12.0925165174
 31
0.0
  0
CIRCLE
  5
12E5
  8
0
 10
69.410759528796405
 20
1.3068340898999991
 30
0.0
 40
0.5
  0
ARC
  5
12E6
  8
0
 10
67.445379836396413
 20
11.469834089900001
 30
0.0
 40
0.2280000000000047
 50
190.0000010518001
 51
225.6360107088986
  0
ARC
  5
12E7
  8
0
 10
69.395068447296396
 20
11.509834089899989
 30
0.0
 40
0.2279999999999908
 50
193.5591904671985
 51
242.9173711096571
  0
ARC
  5
12E8
  8
0
 10
68.988718844096397
 20
11.411834089899999
 30
0.0
 40
0.19
 50
13.55919028330009
 51
90.0
  0
ARC
  5
12E9
  8
0
 10
67.03619307529641
 20
11.417834089899999
 30
0.0
 40
0.184
 50
10.00000000000002
 51
90.0
  0
ARC
  5
12EA
  8
0
 10
73.540777724740522
 20
1.6897778797987251
 30
0.0
 40
1.0700148673657699
 50
191.50029479528561
 51
248.28470759266901
  0
ARC
  5
12EB
  8
0
 10
74.280742531017793
 20
1.689787958163292
 30
0.0
 40
1.070020411702101
 50
291.71605346974809
 51
348.4991784405733
  0
CIRCLE
  5
12EC
  8
0
 10
78.410759528796405
 20
1.3068340898999991
 30
0.0
 40
0.5
  0
ARC
  5
134D
  8
0
 10
66.787091932678123
 20
11.17620463214868
 30
0.0
 40
0.1306313292331002
 50
90.306695410859845
 51
185.4430554890418
  0
ARC
  5
134E
  8
0
 10
66.914795694167083
 20
10.022391961842279
 30
0.0
 40
1.250420924663471
 50
100.8392924234371
 51
172.5403119656377
  0
ARC
  5
134F
  8
0
 10
73.678144434788805
 20
8.6802530895410541
 30
0.0
 40
8.1433687566623636
 50
169.35350081937531
 51
179.10935518292749
  0
ARC
  5
1350
  8
0
 10
81.706209665334512
 20
9.0045175568012432
 30
0.0
 40
16.171658429838029
 50
180.70040500062041
 51
190.44404168419729
  0
ARC
  5
1351
  8
0
 10
77.148752831911153
 20
8.0109968603085271
 30
0.0
 40
11.510596283079661
 50
189.69285787021079
 51
218.3767804035447
  0
ARC
  5
1352
  8
0
 10
74.254232152786912
 20
5.7213369588662948
 30
0.0
 40
7.8199613359754077
 50
218.3917121811665
 51
243.3797339947883
  0
ARC
  5
1353
  8
0
 10
74.925446174730183
 20
10.570632604982309
 30
0.0
 40
12.55486926516202
 50
250.5762604577846
 51
265.36428942479381
  0
ARC
  5
1354
  8
0
 10
81.034427125114661
 20
11.17620463214868
 30
0.0
 40
0.1306313292331002
 50
354.5569445109582
 51
89.693304589140169
  0
ARC
  5
1355
  8
0
 10
80.906723363625716
 20
10.022391961842279
 30
0.0
 40
1.250420924663471
 50
7.4596880343622223
 51
79.160707576562885
  0
ARC
  5
1356
  8
0
 10
68.873227321817424
 20
8.1478515045544864
 30
0.0
 40
13.42871096778843
 50
2.812786078508549
 51
8.7243579191885541
  0
ARC
  5
1357
  8
0
 10
66.115309392458272
 20
9.0045175568012432
 30
0.0
 40
16.171658429838029
 50
349.55595831580268
 51
359.29959499937962
  0
ARC
  5
1358
  8
0
 10
70.672766225881645
 20
8.0109968603085271
 30
0.0
 40
11.510596283079661
 50
321.62321959645527
 51
350.30714212978921
  0
ARC
  5
1359
  8
0
 10
73.567286905005886
 20
5.7213369588662948
 30
0.0
 40
7.8199613359754077
 50
296.6202660052117
 51
321.6082878188335
  0
ARC
  5
135A
  8
0
 10
73.778022441740944
 20
6.4319452667118773
 30
0.0
 40
8.3761629854167552
 50
270.90800444591861
 51
293.15144567150202
  0
ARC
  5
135B
  8
0
 10
135.11451492820009
 20
17.7854211396685
 30
0.0
 40
68.776960129583273
 50
185.52479695787341
 51
187.5011574687949
  0
ARC
  5
135C
  8
0
 10
12.543897026752029
 20
17.804042319442829
 30
0.0
 40
68.941102379526171
 50
352.50119548661672
 51
354.47285000512761
  0
ARC
  5
135D
  8
0
 10
81.179155837840227
 20
14.53861870187251
 30
0.0
 40
15.36235192283044
 50
201.90723652962981
 51
216.2542880955597
  0
ARC
  5
135E
  8
0
 10
71.258158912691513
 20
7.3726218379302004
 30
0.0
 40
3.125549003360764
 50
217.87349162970341
 51
249.17554787463229
  0
ARC
  5
135F
  8
0
 10
55.155643637579281
 20
-46.264206404796589
 30
0.0
 40
52.884768640552899
 50
72.475403913307176
 51
73.532450925074784
  0
ARC
  5
1360
  8
0
 10
70.50192919329379
 20
2.523108453714781
 30
0.0
 40
1.741700950843089
 50
11.24556695646949
 51
70.614088543043493
  0
ARC
  5
1361
  8
0
 10
73.910754979600199
 20
2.6169298239802821
 30
0.0
 40
2.0682601565852829
 50
248.26586832581361
 51
291.73489370980991
  0
ARC
  5
1362
  8
0
 10
73.488140527307408
 20
1.107727238238724
 30
0.0
 40
0.501050580930227
 50
183.19953681079821
 51
253.44803809976389
  0
ARC
  5
1363
  8
0
 10
41.257361206564681
 20
0.7181160378002007
 30
0.0
 40
31.732570617046409
 50
0.6529956097708056
 51
6.0691038586731212
  0
ARC
  5
1364
  8
0
 10
73.639121623860248
 20
0.9731542178794526
 30
0.0
 40
3.208407246463381
 50
85.143272653148884
 51
104.9380879688982
  0
ARC
  5
1365
  8
0
 10
74.605642083929965
 20
20.502926582338372
 30
0.0
 40
16.3476600354137
 50
267.56382033977718
 51
280.70536202821921
  0
ARC
  5
1366
  8
0
 10
75.850424958211576
 20
8.4013042502235589
 30
0.0
 40
4.3479444111901868
 50
294.33895126494571
 51
335.8935544457396
  0
ARC
  5
1367
  8
0
 10
68.941957134075523
 20
13.34801254476424
 30
0.0
 40
12.786971490841561
 50
328.28229289298889
 51
339.19798187366308
  0
ARC
  5
1368
  8
0
 10
77.272833779134373
 20
3.6975645839494491
 30
0.0
 40
0.4612787690630733
 50
294.48597778160882
 51
17.128246047339442
  0
ARC
  5
1369
  8
0
 10
72.372168482615223
 20
20.14325848475465
 30
0.0
 40
17.617366141672889
 50
279.18908276917159
 51
286.79956773689298
  0
ARC
  5
136A
  8
0
 10
75.217055634296912
 20
2.3093090669960392
 30
0.0
 40
0.443792455897013
 50
94.072225252539809
 51
160.5348444576403
  0
ARC
  5
136B
  8
0
 10
74.347534119702402
 20
1.0070696815401901
 30
0.0
 40
0.4002119644925126
 50
285.67930461386328
 51
357.9901259033428
  0
ARC
  5
136C
  8
0
 10
72.516135980563163
 20
14.74467171076944
 30
0.0
 40
10.67564119764949
 50
262.26914530788031
 51
271.58849201549413
  0
ARC
  5
136D
  8
0
 10
100.9273267297833
 20
1.9530347042899889
 30
0.0
 40
28.88215608376963
 50
177.38597267994521
 51
182.8772642705614
  0
ARC
  5
136E
  8
0
 10
49.832530640381862
 20
1.9010665553656889
 30
0.0
 40
25.945089448196999
 50
356.91163476239359
 51
2.1064709846044609
  0
ARC
  5
136F
  8
0
 10
72.904259412096081
 20
0.3861719940636069
 30
0.0
 40
0.8309674045733954
 50
171.90059550815559
 51
260.83945025541112
  0
ARC
  5
1370
  8
0
 10
73.881138257779355
 20
9.4183581393793521
 30
0.0
 40
9.9147923776897073
 50
263.57686276325541
 51
277.15594969527251
  0
ARC
  5
1371
  8
0
 10
74.89873038330488
 20
0.399939083794513
 30
0.0
 40
0.847527794444826
 50
284.86996988288678
 51
7.0014325272969122
  0
ARC
  5
1372
  8
0
 10
66.833961053769883
 20
11.66183411373893
 30
0.0
 40
0.0600000358740162
 50
180.00023924691351
 51
269.96371004375658
  0
LINE
  5
1373
  8
0
 10
66.773961017896383
 20
11.6618338632
 30
0.0
 11
66.773961818196398
 21
11.6768529015
 31
0.0
  0
ARC
  5
1374
  8
0
 10
67.125075352646718
 20
12.190823114156229
 30
0.0
 40
0.2565458928905785
 50
92.823602996069894
 51
169.439168546991
  0
ARC
  5
1375
  8
0
 10
69.237278052984806
 20
-8.4175091261068822
 30
0.0
 40
20.97248409830609
 50
95.016632537859834
 51
95.814935402233104
  0
ARC
  5
1376
  8
0
 10
63.498620171078457
 20
51.176111975185883
 30
0.0
 40
38.897956503098747
 50
275.76126567290538
 51
277.41860630759533
  0
ARC
  5
1377
  8
0
 10
67.848610431988746
 20
18.979841973874681
 30
0.0
 40
6.4114415275778187
 50
276.02015914046001
 51
286.88695029301948
  0
ARC
  5
1378
  8
0
 10
69.954661025555197
 20
12.66040492703414
 30
0.0
 40
0.3055803615413785
 50
96.570340841480814
 51
142.8694707773281
  0
ARC
  5
1379
  8
0
 10
70.304223716459177
 20
9.1635349057417592
 30
0.0
 40
3.8198470732696239
 50
91.458476098592385
 51
95.777513369498394
  0
LINE
  5
137A
  8
0
 10
70.206999207627248
 20
12.98214447704502
 30
0.0
 11
77.614519849861466
 21
12.98214447704502
 31
0.0
  0
ARC
  5
137B
  8
0
 10
68.312634907870404
 20
19.503975338548869
 30
0.0
 40
7.079002976018943
 50
262.94112582472877
 51
271.50271497589591
  0
ARC
  5
137C
  8
0
 10
69.922969427207434
 20
-28.600251844821312
 30
0.0
 40
41.052387686987117
 50
89.039603609969546
 51
91.988806649776592
  0
ARC
  5
137D
  8
0
 10
71.178652984711732
 20
29.616978798107318
 30
0.0
 40
17.179988628125951
 50
268.106717690045
 51
272.29212912555113
  0
ARC
  5
137E
  8
0
 10
71.956815133430524
 20
12.128771334153249
 30
0.0
 40
0.3345930101226062
 50
15.10880575305624
 51
105.79172628725399
  0
ARC
  5
137F
  8
0
 10
237.495886108722
 20
37.065053564109832
 30
0.0
 40
167.07428721563761
 50
188.55337382162469
 51
188.7415345533023
  0
ARC
  5
1380
  8
0
 10
72.301302020456205
 20
11.658992095252341
 30
0.0
 40
0.061038279276969
 50
270.33226108142111
 51
359.63155451230517
  0
ARC
  5
1381
  8
0
 10
66.517758877065376
 20
219.07899125049039
 30
0.0
 40
207.5616388804614
 50
271.33419596570639
 51
271.59680660821692
  0
ARC
  5
1382
  8
0
 10
71.324766571954612
 20
9.9591638016651007
 30
0.0
 40
1.6146675348330779
 50
89.082358951442743
 51
100.92454379632269
  0
ARC
  5
1383
  8
0
 10
71.713317153482194
 20
8.4658540537677585
 30
0.0
 40
3.1560890682771121
 50
102.71306074509781
 51
108.418839857498
  0
ARC
  5
1384
  8
0
 10
70.484177209756368
 20
11.5184362052011
 30
0.0
 40
0.2391227045110072
 50
297.75953005032721
 51
345.92005999185949
  0
ARC
  5
1385
  8
0
 10
69.098427467771515
 20
11.385169944231739
 30
0.0
 40
0.180967094611873
 50
89.632881708545298
 51
167.98133948939741
  0
ARC
  5
1386
  8
0
 10
68.696547131716244
 20
11.471397145324691
 30
0.0
 40
0.2300599976700279
 50
314.33180339941129
 51
347.81860099843288
  0
LINE
  5
1387
  8
0
 10
80.948884480496403
 20
12.2378426795
 30
0.0
 11
81.047797785696403
 21
11.6768529015
 31
0.0
  0
LINE
  5
1388
  8
0
 10
80.600915934456395
 20
11.43024230127005
 30
0.0
 11
80.604361902096414
 21
11.449785354599999
 31
0.0
  0
LINE
  5
1389
  8
0
 10
75.4594205661964
 20
11.658599585999999
 30
0.0
 11
75.459421763596396
 21
11.6735454385
 31
0.0
  0
LINE
  5
138A
  8
0
 10
80.987836552896397
 20
11.601834089900001
 30
0.0
 11
80.239653391042523
 21
11.601834089900001
 31
0.0
  0
LINE
  5
138B
  8
0
 10
78.436848463739011
 20
11.601834089900001
 30
0.0
 11
75.49904161685896
 21
11.601834089900001
 31
0.0
  0
ARC
  5
138C
  8
0
 10
80.376379767496417
 20
11.469834089900001
 30
0.0
 40
0.2280000000000047
 50
314.36398929110152
 51
349.99999894819979
  0
ARC
  5
138D
  8
0
 10
78.426691156596405
 20
11.509834089899989
 30
0.0
 40
0.2279999999999908
 50
297.08262889034279
 51
346.44080953280138
  0
ARC
  5
138E
  8
0
 10
78.833040759796404
 20
11.411834089899999
 30
0.0
 40
0.19
 50
118.291990832671
 51
166.4408097166999
  0
ARC
  5
138F
  8
0
 10
80.785566528596405
 20
11.417834089899999
 30
0.0
 40
0.184
 50
90.0
 51
170.0
  0
ARC
  5
1390
  8
0
 10
80.987798550122903
 20
11.66183411373893
 30
0.0
 40
0.0600000358740162
 50
270.03628995624342
 51
359.99976075308638
  0
LINE
  5
1391
  8
0
 10
81.047798585996404
 20
11.6618338632
 30
0.0
 11
81.047797785696403
 21
11.6768529015
 31
0.0
  0
ARC
  5
1392
  8
0
 10
80.696684251246083
 20
12.190823114156229
 30
0.0
 40
0.2565458928905785
 50
10.56083145300901
 51
87.176397003930134
  0
ARC
  5
1393
  8
0
 10
78.584481550907995
 20
-8.4175091261068822
 30
0.0
 40
20.97248409830609
 50
84.185064597766896
 51
84.98336746214018
  0
ARC
  5
1394
  8
0
 10
84.323139432814344
 20
51.176111975185883
 30
0.0
 40
38.897956503098747
 50
262.58139369240467
 51
264.23873432709462
  0
ARC
  5
1395
  8
0
 10
79.973149171904055
 20
18.979841973874681
 30
0.0
 40
6.4114415275778187
 50
253.11304970698049
 51
263.97984085953999
  0
ARC
  5
1396
  8
0
 10
77.867098578337604
 20
12.66040492703414
 30
0.0
 40
0.3055803615413785
 50
37.130529222671839
 51
83.429659158519186
  0
ARC
  5
1397
  8
0
 10
77.517887251693423
 20
9.1678106844397682
 30
0.0
 40
3.8155576447537909
 50
84.221272627166627
 51
88.548775147741495
  0
ARC
  5
1399
  8
0
 10
79.509124696022411
 20
19.503975338548869
 30
0.0
 40
7.079002976018943
 50
268.4972850241042
 51
277.05887417527123
  0
ARC
  5
139A
  8
0
 10
77.898790176685367
 20
-28.600251844821312
 30
0.0
 40
41.052387686987117
 50
88.011193350223394
 51
90.960396390030454
  0
ARC
  5
139B
  8
0
 10
76.643106619181069
 20
29.616978798107318
 30
0.0
 40
17.179988628125951
 50
267.70787087444882
 51
271.8932823099542
  0
ARC
  5
139C
  8
0
 10
75.864944470462262
 20
12.128771334153249
 30
0.0
 40
0.3345930101226062
 50
74.208273712745211
 51
164.89119424694371
  0
ARC
  5
139D
  8
0
 10
-89.674126504829275
 20
37.065053564109832
 30
0.0
 40
167.07428721563761
 50
351.25846544669758
 51
351.4466261783752
  0
ARC
  5
139E
  8
0
 10
75.520457583436595
 20
11.658992095252341
 30
0.0
 40
0.061038279276969
 50
180.3684454876948
 51
269.667738918579
  0
ARC
  5
139F
  8
0
 10
81.304000726827454
 20
219.07899125049039
 30
0.0
 40
207.5616388804614
 50
268.40319339178319
 51
268.66580403429361
  0
ARC
  5
13A0
  8
0
 10
76.496993031938189
 20
9.9591638016651007
 30
0.0
 40
1.6146675348330779
 50
79.075456203677234
 51
90.917641048557243
  0
ARC
  5
13A1
  8
0
 10
76.108442450410607
 20
8.4658540537677585
 30
0.0
 40
3.1560890682771121
 50
71.581160142501176
 51
77.28693925490218
  0
ARC
  5
13A2
  8
0
 10
77.337582394136433
 20
11.5184362052011
 30
0.0
 40
0.2391227045110072
 50
194.07994000814051
 51
242.24046994967199
  0
ARC
  5
13A3
  8
0
 10
78.7233321361213
 20
11.385169944231739
 30
0.0
 40
0.180967094611873
 50
12.01866051060262
 51
90.367118291453863
  0
ARC
  5
13A4
  8
0
 10
79.125212472176557
 20
11.471397145324691
 30
0.0
 40
0.2300599976700279
 50
192.181399001567
 51
225.66819660058869
  0
ARC
  5
13A6
  8
0
 10
79.890727516441459
 20
11.822898300751289
 30
0.0
 40
0.5507912101849785
 50
248.93725829799931
 51
290.68143569211958
  0
ARC
  5
13A7
  8
0
 10
79.977596149895319
 20
11.550921036831561
 30
0.0
 40
0.2660720657771067
 50
293.8666510900286
 51
4.979861743844765
  0
ARC
  5
13A8
  8
0
 10
79.889752500387345
 20
11.54989449365994
 30
0.0
 40
0.3537348653142089
 50
3.91034299834884
 51
68.678689907490451
  0
ARC
  5
13A9
  8
0
 10
79.714519522990273
 20
11.790589034857829
 30
0.0
 40
0.3165684351294283
 50
16.296057972629601
 51
72.506412043802143
  0
ARC
  5
13AA
  8
0
 10
78.40884572969928
 20
11.80487726372753
 30
0.0
 40
0.2897607986418014
 50
96.937600286115469
 51
177.7068830362698
  0
ARC
  5
13AB
  8
0
 10
73.148048279687458
 20
-8.3391475224723752
 30
0.0
 40
20.709406958622161
 50
71.577180098745103
 51
73.576329589350337
  0
ARC
  5
13AC
  8
0
 10
78.427325368117792
 20
9.3973967986544906
 30
0.0
 40
2.2044578608773762
 50
74.851999745154714
 51
90.247514318047294
  0
LINE
  5
13AD
  8
0
 10
78.119316968896399
 20
11.8164711025
 30
0.0
 11
78.14801417449641
 21
11.6768538266
 31
0.0
  0
ARC
  5
13AE
  8
0
 10
78.089492711608557
 20
11.66128217572534
 30
0.0
 40
0.0605577239457942
 50
280.98522448298809
 51
14.90026842696177
  0
ATTDEF
  5
16A4
  8
DEFPOINTS
 10
73.904682301539793
 20
-3.6996223296796771
 30
0.0
 40
0.001
  1
VITREOUS CHINA
  3

  2
MATERIAL
 70
     0
1001
AcDbAttr
1070
     0
1070
     1
  0
ATTDEF
  5
16A5
  8
DEFPOINTS
 10
73.904682301539793
 20
-3.697955663013011
 30
0.0
 40
0.001
  1
BOWL
  3

  2
PRODUCT
 70
     0
1001
AcDbAttr
1070
     0
1070
     1
  0
ATTDEF
  5
16A6
  8
DEFPOINTS
 10
73.904682301539793
 20
-3.6962889963463459
 30
0.0
 40
0.001
  1
KINGSTON
  3

  2
TRADENAME
 70
     0
1001
AcDbAttr
1070
     0
1070
     1
  0
ATTDEF
  5
16A7
  8
DEFPOINTS
 10
73.904682301539793
 20
-3.6946223296796812
 30
0.0
 40
0.001
  1
K-4325
  3

  2
MODELNUMBER
 70
     0
1001
AcDbAttr
1070
     0
1070
     1
  0
ENDSEC
  0
EOF
