  0
SECTION
  2
HEADER
  9
$ACADVER
  1
AC1009
  9
$INSBASE
 10
4.2152204400500004
 20
44.6516901914
 30
0.0
  9
$EXTMIN
 10
-4.1530945600999978
 20
18.148493991284781
 30
0.0
  9
$EXTMAX
 10
12.583693935584069
 20
44.660701860150262
 30
0.0
  9
$LIMMIN
 10
0.0
 20
0.0
  9
$LIMMAX
 10
11.692913385800001
 20
8.2677165353999982
  9
$ORTHOMODE
 70
     0
  9
$REGENMODE
 70
     1
  9
$FILLMODE
 70
     1
  9
$QTEXTMODE
 70
     0
  9
$MIRRTEXT
 70
     0
  9
$DRAGMODE
 70
     2
  9
$LTSCALE
 40
0.6431102362
  9
$OSMODE
 70
  3071
  9
$ATTMODE
 70
     1
  9
$TEXTSIZE
 40
0.2
  9
$TRACEWID
 40
0.05
  9
$TEXTSTYLE
  7
STANDARD
  9
$CLAYER
  8
0
  9
$CELTYPE
  6
BYLAYER
  9
$CECOLOR
 62
   256
  9
$DIMSCALE
 40
1.0
  9
$DIMASZ
 40
0.1875
  9
$DIMEXO
 40
0.0625
  9
$DIMDLI
 40
0.4443307087
  9
$DIMRND
 40
0.0
  9
$DIMDLE
 40
0.0
  9
$DIMEXE
 40
0.125
  9
$DIMTP
 40
0.0
  9
$DIMTM
 40
0.0
  9
$DIMTXT
 40
0.15625
  9
$DIMCEN
 40
0.1052362205
  9
$DIMTSZ
 40
0.0
  9
$DIMTOL
 70
     0
  9
$DIMLIM
 70
     0
  9
$DIMTIH
 70
     1
  9
$DIMTOH
 70
     1
  9
$DIMSE1
 70
     0
  9
$DIMSE2
 70
     0
  9
$DIMTAD
 70
     0
  9
$DIMZIN
 70
     0
  9
$DIMBLK
  1

  9
$DIMASO
 70
     1
  9
$DIMSHO
 70
     1
  9
$DIMPOST
  1

  9
$DIMAPOST
  1

  9
$DIMALT
 70
     0
  9
$DIMALTD
 70
     2
  9
$DIMALTF
 40
25.399999999999999
  9
$DIMLFAC
 40
1.0
  9
$DIMTOFL
 70
     0
  9
$DIMTVP
 40
0.0
  9
$DIMTIX
 70
     0
  9
$DIMSOXD
 70
     0
  9
$DIMSAH
 70
     0
  9
$DIMBLK1
  1

  9
$DIMBLK2
  1

  9
$DIMSTYLE
  2
STANDARD
  9
$DIMCLRD
 70
     0
  9
$DIMCLRE
 70
     0
  9
$DIMCLRT
 70
     0
  9
$DIMTFAC
 40
1.0
  9
$DIMGAP
 40
0.09
  9
$LUNITS
 70
     2
  9
$LUPREC
 70
     4
  9
$SKETCHINC
 40
0.1
  9
$FILLETRAD
 40
0.0
  9
$AUNITS
 70
     0
  9
$AUPREC
 70
     0
  9
$MENU
  1
.
  9
$ELEVATION
 40
0.0
  9
$PELEVATION
 40
0.0
  9
$THICKNESS
 40
0.0
  9
$LIMCHECK
 70
     0
  9
$BLIPMODE
 70
     0
  9
$CHAMFERA
 40
0.0
  9
$CHAMFERB
 40
0.0
  9
$SKPOLY
 70
     0
  9
$TDCREATE
 40
2457569.6210530549
  9
$TDUPDATE
 40
2457662.7238148502
  9
$TDINDWG
 40
0.0534255787
  9
$TDUSRTIMER
 40
0.0534255787
  9
$USRTIMER
 70
     1
  9
$ANGBASE
 50
0.0
  9
$ANGDIR
 70
     0
  9
$PDMODE
 70
     0
  9
$PDSIZE
 40
0.3125
  9
$PLINEWID
 40
0.0
  9
$COORDS
 70
     1
  9
$SPLFRAME
 70
     0
  9
$SPLINETYPE
 70
     6
  9
$SPLINESEGS
 70
     8
  9
$ATTDIA
 70
     1
  9
$ATTREQ
 70
     1
  9
$HANDLING
 70
     1
  9
$HANDSEED
  5
1105
  9
$SURFTAB1
 70
     6
  9
$SURFTAB2
 70
     6
  9
$SURFTYPE
 70
     6
  9
$SURFU
 70
     6
  9
$SURFV
 70
     6
  9
$UCSNAME
  2

  9
$UCSORG
 10
0.0
 20
0.0
 30
0.0
  9
$UCSXDIR
 10
1.0
 20
0.0
 30
0.0
  9
$UCSYDIR
 10
0.0
 20
1.0
 30
0.0
  9
$PUCSNAME
  2

  9
$PUCSORG
 10
0.0
 20
0.0
 30
0.0
  9
$PUCSXDIR
 10
1.0
 20
0.0
 30
0.0
  9
$PUCSYDIR
 10
0.0
 20
1.0
 30
0.0
  9
$USERI1
 70
     0
  9
$USERI2
 70
     0
  9
$USERI3
 70
     0
  9
$USERI4
 70
     0
  9
$USERI5
 70
     0
  9
$USERR1
 40
0.0
  9
$USERR2
 40
0.0
  9
$USERR3
 40
0.0
  9
$USERR4
 40
0.0
  9
$USERR5
 40
0.0
  9
$WORLDVIEW
 70
     1
  9
$SHADEDGE
 70
     3
  9
$SHADEDIF
 70
    70
  9
$TILEMODE
 70
     1
  9
$MAXACTVP
 70
    48
  9
$PLIMCHECK
 70
     0
  9
$PEXTMIN
 10
1.0000000000000000E+020
 20
1.0000000000000000E+020
 30
1.0000000000000000E+020
  9
$PEXTMAX
 10
-1.0000000000000000E+020
 20
-1.0000000000000000E+020
 30
-1.0000000000000000E+020
  9
$PLIMMIN
 10
0.0
 20
0.0
  9
$PLIMMAX
 10
12.0
 20
9.0
  9
$UNITMODE
 70
     0
  9
$VISRETAIN
 70
     1
  9
$PLINEGEN
 70
     0
  9
$PSLTSCALE
 70
     1
  0
ENDSEC
  0
SECTION
  2
TABLES
  0
TABLE
  2
VPORT
 70
     1
  0
VPORT
  2
*ACTIVE
 70
     0
 10
0.0
 20
0.0
 11
1.0
 21
1.0
 12
0.0
 22
0.0
 13
0.0
 23
0.0
 14
1.0
 24
1.0
 15
0.0
 25
0.0
 16
-0.0000000000000204
 26
0.0
 36
90.308524281200036
 17
4.2152225971221924
 27
31.41180043874213
 37
0.0
 40
31.344307634285212
 41
2.1638418079096038
 42
50.0
 43
0.0
 44
0.0
 50
0.0
 51
0.0
 71
     0
 72
   100
 73
     1
 74
     1
 75
     0
 76
     0
 77
     0
 78
     0
  0
ENDTAB
  0
TABLE
  2
LTYPE
 70
     2
  0
LTYPE
  2
CONTINUOUS
 70
     0
  3
Solid line
 72
    65
 73
     0
 40
0.0
  0
ENDTAB
  0
TABLE
  2
LAYER
 70
     2
  0
LAYER
  2
0
 70
     0
 62
     7
  6
CONTINUOUS
  0
LAYER
  2
DEFPOINTS
 70
     0
 62
     7
  6
CONTINUOUS
  0
ENDTAB
  0
TABLE
  2
STYLE
 70
     1
  0
STYLE
  2
STANDARD
 70
     0
 40
0.0
 41
0.8
 50
0.0
 71
     0
 42
0.2
  3
txt
  4

  0
ENDTAB
  0
TABLE
  2
VIEW
 70
     0
  0
ENDTAB
  0
TABLE
  2
UCS
 70
     0
  0
ENDTAB
  0
TABLE
  2
APPID
 70
     5
  0
APPID
  2
ACAD
 70
     0
  0
APPID
  2
ACAD_MLEADERVER
 70
     0
  0
APPID
  2
ACAD_NAV_VCDISPLAY
 70
     0
  0
APPID
  2
ACAD_EXEMPT_FROM_CAD_STANDARDS
 70
     0
  0
APPID
  2
ACDBATTR
 70
     0
  0
ENDTAB
  0
TABLE
  2
DIMSTYLE
 70
     2
  0
DIMSTYLE
  2
STANDARD
 70
     0
  3

  4

  5

  6

  7

 40
1.0
 41
0.1875
 42
0.0625
 43
0.38
 44
0.125
 45
0.0
 46
0.0
 47
1.5
 48
1.5
140
0.15625
141
0.09
142
0.0
143
25.399999999999999
144
1.0
145
0.0
146
1.0
147
0.09
 71
     0
 72
     0
 73
     1
 74
     1
 75
     0
 76
     0
 77
     0
 78
     4
170
     0
171
     2
172
     0
173
     0
174
     0
175
     0
176
     0
177
     0
178
     0
  0
ENDTAB
  0
ENDSEC
  0
SECTION
  2
BLOCKS
  0
BLOCK
  8
0
  2
$MODEL_SPACE
 70
     0
 10
0.0
 20
0.0
 30
0.0
  3
$MODEL_SPACE
  1

  0
ENDBLK
  5
21
  8
0
  0
BLOCK
 67
     1
  8
0
  2
$PAPER_SPACE
 70
     0
 10
0.0
 20
0.0
 30
0.0
  3
$PAPER_SPACE
  1

  0
ENDBLK
  5
1D
 67
     1
  8
0
  0
ENDSEC
  0
SECTION
  2
ENTITIES
  0
LINE
  5
486
  8
0
 10
2.227552356199999
 20
44.568898234000002
 30
0.0
 11
2.295410283499999
 21
42.628363521999987
 31
0.0
  0
LINE
  5
48B
  8
0
 10
3.1690725350000002
 20
31.627356536099999
 30
0.0
 11
3.1690725350000002
 21
33.7967164095
 31
0.0
  0
LINE
  5
4EF
  8
0
 10
5.2613685302999986
 20
33.7967164095
 30
0.0
 11
5.2613685302999986
 21
31.627356536200001
 31
0.0
  0
LINE
  5
526
  8
0
 10
6.2028887090999989
 20
44.568898234000002
 30
0.0
 11
6.1350307817999994
 21
42.628363521999987
 31
0.0
  0
LINE
  5
530
  8
0
 10
3.1690725350000002
 20
33.7967164095
 30
0.0
 11
3.1645217995999988
 21
33.797888394099999
 31
0.0
  0
LINE
  5
5F6
  8
0
 10
3.7854709842999998
 20
41.1746766443
 30
0.0
 11
4.6449700810000003
 21
41.1746766443
 31
0.0
  0
LINE
  5
610
  8
0
 10
-4.0699338586999998
 20
44.6516901914
 30
0.0
 11
12.5037022095
 21
44.6516901914
 31
0.0
  0
CIRCLE
  5
874
  8
0
 10
1.4652205327000001
 20
36.838494051799998
 30
0.0
 40
0.28
  0
CIRCLE
  5
875
  8
0
 10
6.9652205327000001
 20
36.838494051799998
 30
0.0
 40
0.28
  0
ARC
  5
A66
  8
0
 10
-4.0618790381717123
 20
44.560638535125243
 30
0.0
 40
0.0914072439367811
 50
95.055470196829987
 51
176.28841640572711
  0
ARC
  5
A6E
  8
0
 10
-806.14970245663346
 20
-27.571504497543131
 30
0.0
 40
805.23441233355345
 50
4.0952458758597201
 51
5.1398140143857498
  0
ARC
  5
A6F
  8
0
 10
10.977708797796311
 20
29.138271800279391
 30
0.0
 40
13.971675325008921
 50
176.73484572659609
 51
210.18292983109819
  0
ARC
  5
A70
  8
0
 10
6.8506061684109474
 20
26.018729329721051
 30
0.0
 40
8.8575594759584213
 50
206.1583856152595
 51
231.13598106597061
  0
ARC
  5
A71
  8
0
 10
4.2144523515253169
 20
23.020069160811669
 30
0.0
 40
4.8715751695268867
 50
233.1478717523425
 51
315.66686438539517
  0
ARC
  5
A72
  8
0
 10
-3.65031484801839
 20
29.699098188365639
 30
0.0
 40
15.18167482623771
 50
318.38023604602893
 51
352.97481709767169
  0
ARC
  5
A73
  8
0
 10
-1.313906508894132
 20
28.811595301445731
 30
0.0
 40
12.76813561343765
 50
355.64616776483291
 51
4.7984464296077984
  0
ARC
  5
A75
  8
0
 10
12.503706040663429
 20
44.571702296571097
 30
0.0
 40
0.0799878949206435
 50
356.44408206697659
 51
90.002744283935911
  0
ARC
  5
A76
  8
0
 10
-28.233455257154858
 20
45.505186013108521
 30
0.0
 40
40.8277819062641
 50
352.3491695970668
 51
358.68291495939962
  0
ARC
  5
A77
  8
0
 10
229.81785181412579
 20
17.40213726060319
 30
0.0
 40
218.7644992930116
 50
174.0525891888978
 51
176.7302848486402
  0
ARC
  5
A78
  8
0
 10
-2.6210368637377002
 20
44.569073715216582
 30
0.0
 40
0.0945837810742878
 50
119.13511147192111
 51
195.48372455077109
  0
ARC
  5
A79
  8
0
 10
-17.228340908392301
 20
33.997771048711272
 30
0.0
 40
17.94262844002435
 50
21.44557406535554
 51
35.998578096589419
  0
ARC
  5
A7A
  8
0
 10
-5.840440827379564
 20
38.369706801937767
 30
0.0
 40
5.7454861958177483
 50
338.32948534264892
 51
22.38666971356086
  0
ARC
  5
A7B
  8
0
 10
-20.154915417707201
 20
42.894038182523801
 30
0.0
 40
20.74714397415794
 50
336.73160043594572
 51
341.31704064106771
  0
ARC
  5
A7C
  8
0
 10
-2.609487970105127
 20
35.248795937759319
 30
0.0
 40
1.6112614488066219
 50
324.84180788055158
 51
340.01503706815799
  0
ARC
  5
A7D
  8
0
 10
9.8810444225889729
 20
26.853532505049628
 30
0.0
 40
13.43888183917244
 50
146.24385424032471
 51
153.98511417532799
  0
ARC
  5
A7E
  8
0
 10
6.4781774215559169
 20
28.946386144613381
 30
0.0
 40
9.4708206645199855
 50
156.3348334690063
 51
180.00244682745
  0
ARC
  5
A7F
  8
0
 10
11.0514779416489
 20
44.569073724377901
 30
0.0
 40
0.0945837789733623
 50
344.51628159183201
 51
60.864879412759578
  0
ARC
  5
A80
  8
0
 10
26.977740514533931
 20
33.209977189719638
 30
0.0
 40
19.473233539662349
 50
144.4071302228547
 51
158.22256838874031
  0
ARC
  5
A81
  8
0
 10
14.92865853878898
 20
38.251323206431977
 30
0.0
 40
6.4172005475837164
 50
160.10968172584541
 51
187.46202243702771
  0
ARC
  5
A82
  8
0
 10
26.908638752520261
 20
42.270894430851271
 30
0.0
 40
18.973952238449719
 50
194.81921255922481
 51
203.52201695591569
  0
ARC
  5
A83
  8
0
 10
11.151272712046509
 20
35.336625218576764
 30
0.0
 40
1.75980433983644
 50
201.26545087345829
 51
215.236743560566
  0
ARC
  5
A84
  8
0
 10
2.1022321642821669
 20
28.93893635604536
 30
0.0
 40
9.3224139202155225
 50
26.570883467421741
 51
35.264845792107558
  0
ARC
  5
A85
  8
0
 10
-0.0653382519100426
 20
28.19493732236641
 30
0.0
 40
11.59783209870508
 50
8.3524450829749153
 51
25.06816790068612
  0
ARC
  5
A86
  8
0
 10
4.1153909381030562
 20
30.00930560135885
 30
0.0
 40
4.8764065525805256
 50
88.826960710341595
 51
141.19201739952521
  0
ARC
  5
A87
  8
0
 10
7.068320749507893
 20
28.311601648359169
 30
0.0
 40
8.258328221814903
 50
144.85566930752489
 51
201.19687326971061
  0
ARC
  5
A88
  8
0
 10
7.5817378678881324
 20
27.569361043169021
 30
0.0
 40
8.5139921744042244
 50
195.2800507623999
 51
232.4440847203079
  0
ARC
  5
A89
  8
0
 10
4.252679393731011
 20
23.628454274119839
 30
0.0
 40
3.368972337833775
 50
236.47836823595009
 51
269.36292790748951
  0
ARC
  5
A8A
  8
0
 10
3.927386110718043
 20
24.462565395030641
 30
0.0
 40
4.2127198626466891
 50
273.91779115852802
 51
330.71443733538138
  0
ARC
  5
A8B
  8
0
 10
-1.277269603734507
 20
28.695725867723858
 30
0.0
 40
10.88341186902791
 50
324.66901007583073
 51
3.3499325662355548
  0
ARC
  5
A8C
  8
0
 10
3.4039277976420448
 20
29.021177575471139
 30
0.0
 40
6.19140888532384
 50
2.8746905467785
 51
57.79279321862915
  0
ARC
  5
A8D
  8
0
 10
4.0871717292393388
 20
29.106086952106441
 30
0.0
 40
5.7800217918750993
 50
63.082353274756301
 51
88.730582866246849
  0
ARC
  5
A8E
  8
0
 10
2.3074502090737332
 20
44.571741773487823
 30
0.0
 40
0.0799484376600118
 50
90.040270997205113
 51
182.03880661995629
  0
ARC
  5
A8F
  8
0
 10
3.8167387239461048
 20
42.697242506107898
 30
0.0
 40
1.522886906244012
 50
182.59238070537521
 51
268.82347898389582
  0
ARC
  5
A90
  8
0
 10
4.6184837793066933
 20
42.692341427735357
 30
0.0
 40
1.517895899288128
 50
270.999873152399
 51
357.58426715832923
  0
ARC
  5
A92
  8
0
 10
6.1229881369294361
 20
44.571739151116461
 30
0.0
 40
0.0799510619881965
 50
357.96313951408831
 51
89.957781579161335
  0
ARC
  5
A9F
  8
0
 10
3.748884197888918
 20
31.61642268454246
 30
0.0
 40
0.5799148658702271
 50
178.9196588837967
 51
262.51092337949211
  0
ARC
  5
AA0
  8
0
 10
4.2152204645633686
 20
34.423253663518388
 30
0.0
 40
3.4249441812097432
 50
260.89596471492558
 51
279.10403916261117
  0
ARC
  5
AA1
  8
0
 10
4.7071164952221558
 20
31.594426092251709
 30
0.0
 40
0.5552295639089663
 50
275.16922998036961
 51
3.4001946250727859
  0
LINE
  5
AA2
  8
0
 10
3.164521798869262
 20
33.797888394288186
 30
0.0
 11
3.1433510351999989
 21
33.745753933899998
 31
0.0
  0
LINE
  5
AA3
  8
0
 10
3.1433510351999989
 20
33.745753933899998
 30
0.0
 11
3.1210296019000001
 21
33.7322473738
 31
0.0
  0
ARC
  5
AA4
  8
0
 10
3.188489690745147
 20
33.825375571093737
 30
0.0
 40
0.1149944551627441
 50
182.0223561377864
 51
234.08122575510339
  0
ARC
  5
AA5
  8
0
 10
3.8030156766890508
 20
34.191861855386058
 30
0.0
 40
0.8181678967317946
 50
196.2243324105944
 51
206.92959409420121
  0
ARC
  5
AA6
  8
0
 10
3.1259813311900499
 20
34.005152896876233
 30
0.0
 40
0.1163511259223396
 50
88.276846777394425
 51
201.100114600214
  0
ARC
  5
AA7
  8
0
 10
3.0224227049352121
 20
36.518459671188729
 30
0.0
 40
2.3993978173249051
 50
272.5572957660014
 51
275.10380522212648
  0
ARC
  5
AA8
  8
0
 10
4.2397101012064331
 20
5.3092306034019519
 30
0.0
 40
28.836821995047799
 50
88.381892385348934
 51
91.994921026905416
  0
ARC
  5
AA9
  8
0
 10
4.9863086941921981
 20
30.94734798461559
 30
0.0
 40
3.1879242312703151
 50
84.734432020326324
 51
88.783464834619863
  0
ARC
  5
AAA
  8
0
 10
5.282930124883606
 20
33.90302511639613
 30
0.0
 40
0.2188317915648075
 50
74.80974855095522
 51
91.062719416386699
  0
ARC
  5
AAB
  8
0
 10
5.3158538505470538
 20
34.012824800345427
 30
0.0
 40
0.1042848007758377
 50
349.9602419651066
 51
76.459954507989707
  0
ARC
  5
AAC
  8
0
 10
4.8992823181285754
 20
34.086773432373811
 30
0.0
 40
0.5273689937007071
 50
332.89798623442681
 51
349.93908701875091
  0
ARC
  5
AAD
  8
0
 10
4.9992243554348148
 20
33.965562273341007
 30
0.0
 40
0.3882228690027761
 50
323.06485785416851
 51
342.1429967770888
  0
LINE
  5
AAE
  8
0
 10
5.3095372003999577
 20
33.732275037799958
 30
0.0
 11
5.2871991298000003
 21
33.745593543399998
 31
0.0
  0
LINE
  5
AAF
  8
0
 10
5.2871991298000003
 20
33.745593543399998
 30
0.0
 11
5.2659191324565739
 21
33.797888359759078
 31
0.0
  0
ATTDEF
  5
D2C
  8
DEFPOINTS
 10
4.2167270389879237
 20
44.659701860150257
 30
0.0
 40
0.001
  1
K-4323
  3

  2
MODELNUMBER
 70
     0
1001
ACDBATTR
1070
     0
1070
     1
  0
ATTDEF
  5
D2D
  8
DEFPOINTS
 10
4.2167270389879237
 20
44.658035193483592
 30
0.0
 40
0.001
  1
KINGSTON
  3

  2
TRADENAME
 70
     0
1001
ACDBATTR
1070
     0
1070
     1
  0
ATTDEF
  5
D2E
  8
DEFPOINTS
 10
4.2167270389879237
 20
44.656368526816927
 30
0.0
 40
0.001
  1
BOWL
  3

  2
PRODUCT
 70
     0
1001
ACDBATTR
1070
     0
1070
     1
  0
ATTDEF
  5
D2F
  8
DEFPOINTS
 10
4.2167270389879237
 20
44.654701860150261
 30
0.0
 40
0.001
  1
VITREOUS CHINA
  3

  2
MATERIAL
 70
     0
1001
ACDBATTR
1070
     0
1070
     1
  0
LINE
  5
1029
  8
0
 10
5.2613685302999986
 20
33.7967164095
 30
0.0
 11
5.2659191324565739
 21
33.797888359759078
 31
0.0
  0
ENDSEC
  0
EOF
