  0
SECTION
  2
HEADER
  9
$ACADVER
  1
AC1009
  9
$INSBASE
 10
39.308347822085103
 20
4.6321923849999989
 30
0.0
  9
$EXTMIN
 10
38.763242010049552
 20
0.3819542347142679
 30
-0.0000000000112498
  9
$EXTMAX
 10
42.300493483213742
 20
8.8824008294266292
 30
0.0000000000002956
  9
$LIMMIN
 10
0.0
 20
0.0
  9
$LIMMAX
 10
11.692913385800001
 20
8.2677165353999982
  9
$ORTHOMODE
 70
     0
  9
$REGENMODE
 70
     1
  9
$FILLMODE
 70
     1
  9
$QTEXTMODE
 70
     0
  9
$MIRRTEXT
 70
     0
  9
$DRAGMODE
 70
     2
  9
$LTSCALE
 40
0.6431102362
  9
$OSMODE
 70
  3071
  9
$ATTMODE
 70
     1
  9
$TEXTSIZE
 40
0.2
  9
$TRACEWID
 40
0.05
  9
$TEXTSTYLE
  7
STANDARD
  9
$CLAYER
  8
0
  9
$CELTYPE
  6
BYLAYER
  9
$CECOLOR
 62
   256
  9
$DIMSCALE
 40
1.0
  9
$DIMASZ
 40
0.1875
  9
$DIMEXO
 40
0.0625
  9
$DIMDLI
 40
0.4443307087
  9
$DIMRND
 40
0.0
  9
$DIMDLE
 40
0.0
  9
$DIMEXE
 40
0.125
  9
$DIMTP
 40
0.0
  9
$DIMTM
 40
0.0
  9
$DIMTXT
 40
0.15625
  9
$DIMCEN
 40
0.1052362205
  9
$DIMTSZ
 40
0.0
  9
$DIMTOL
 70
     0
  9
$DIMLIM
 70
     0
  9
$DIMTIH
 70
     1
  9
$DIMTOH
 70
     1
  9
$DIMSE1
 70
     0
  9
$DIMSE2
 70
     0
  9
$DIMTAD
 70
     0
  9
$DIMZIN
 70
     0
  9
$DIMBLK
  1

  9
$DIMASO
 70
     1
  9
$DIMSHO
 70
     1
  9
$DIMPOST
  1

  9
$DIMAPOST
  1

  9
$DIMALT
 70
     0
  9
$DIMALTD
 70
     2
  9
$DIMALTF
 40
25.399999999999999
  9
$DIMLFAC
 40
1.0
  9
$DIMTOFL
 70
     0
  9
$DIMTVP
 40
0.0
  9
$DIMTIX
 70
     0
  9
$DIMSOXD
 70
     0
  9
$DIMSAH
 70
     0
  9
$DIMBLK1
  1

  9
$DIMBLK2
  1

  9
$DIMSTYLE
  2
STANDARD
  9
$DIMCLRD
 70
     0
  9
$DIMCLRE
 70
     0
  9
$DIMCLRT
 70
     0
  9
$DIMTFAC
 40
1.0
  9
$DIMGAP
 40
0.09
  9
$LUNITS
 70
     2
  9
$LUPREC
 70
     4
  9
$SKETCHINC
 40
0.1
  9
$FILLETRAD
 40
0.0
  9
$AUNITS
 70
     0
  9
$AUPREC
 70
     0
  9
$MENU
  1
.
  9
$ELEVATION
 40
0.0
  9
$PELEVATION
 40
0.0
  9
$THICKNESS
 40
0.0
  9
$LIMCHECK
 70
     0
  9
$BLIPMODE
 70
     0
  9
$CHAMFERA
 40
0.0
  9
$CHAMFERB
 40
0.0
  9
$SKPOLY
 70
     0
  9
$TDCREATE
 40
2457732.5806203131
  9
$TDUPDATE
 40
2457732.7625775109
  9
$TDINDWG
 40
0.0345397917
  9
$TDUSRTIMER
 40
0.0345397917
  9
$USRTIMER
 70
     1
  9
$ANGBASE
 50
0.0
  9
$ANGDIR
 70
     0
  9
$PDMODE
 70
     0
  9
$PDSIZE
 40
0.3125
  9
$PLINEWID
 40
0.0
  9
$COORDS
 70
     1
  9
$SPLFRAME
 70
     0
  9
$SPLINETYPE
 70
     6
  9
$SPLINESEGS
 70
     8
  9
$ATTDIA
 70
     1
  9
$ATTREQ
 70
     1
  9
$HANDLING
 70
     1
  9
$HANDSEED
  5
1600
  9
$SURFTAB1
 70
     6
  9
$SURFTAB2
 70
     6
  9
$SURFTYPE
 70
     6
  9
$SURFU
 70
     6
  9
$SURFV
 70
     6
  9
$UCSNAME
  2

  9
$UCSORG
 10
0.0
 20
0.0
 30
0.0
  9
$UCSXDIR
 10
1.0
 20
0.0
 30
0.0
  9
$UCSYDIR
 10
0.0
 20
1.0
 30
0.0
  9
$PUCSNAME
  2

  9
$PUCSORG
 10
0.0
 20
0.0
 30
0.0
  9
$PUCSXDIR
 10
1.0
 20
0.0
 30
0.0
  9
$PUCSYDIR
 10
0.0
 20
1.0
 30
0.0
  9
$USERI1
 70
     0
  9
$USERI2
 70
     0
  9
$USERI3
 70
     0
  9
$USERI4
 70
     0
  9
$USERI5
 70
     0
  9
$USERR1
 40
0.0
  9
$USERR2
 40
0.0
  9
$USERR3
 40
0.0
  9
$USERR4
 40
0.0
  9
$USERR5
 40
0.0
  9
$WORLDVIEW
 70
     1
  9
$SHADEDGE
 70
     3
  9
$SHADEDIF
 70
    70
  9
$TILEMODE
 70
     1
  9
$MAXACTVP
 70
    48
  9
$PLIMCHECK
 70
     0
  9
$PEXTMIN
 10
1.0000000000000000E+020
 20
1.0000000000000000E+020
 30
1.0000000000000000E+020
  9
$PEXTMAX
 10
-1.0000000000000000E+020
 20
-1.0000000000000000E+020
 30
-1.0000000000000000E+020
  9
$PLIMMIN
 10
0.0
 20
0.0
  9
$PLIMMAX
 10
12.0
 20
9.0
  9
$UNITMODE
 70
     0
  9
$VISRETAIN
 70
     1
  9
$PLINEGEN
 70
     0
  9
$PSLTSCALE
 70
     1
  0
ENDSEC
  0
SECTION
  2
TABLES
  0
TABLE
  2
VPORT
 70
     1
  0
VPORT
  2
*ACTIVE
 70
     0
 10
0.0
 20
0.0
 11
1.0
 21
1.0
 12
40.53186774663164
 22
4.6321775320704477
 13
0.0
 23
0.0
 14
1.0
 24
1.0
 15
0.0
 25
0.0
 16
0.0
 26
0.0
 36
1.0
 17
0.0
 27
0.0
 37
0.0
 40
8.5545321509883685
 41
1.6528662420382161
 42
50.0
 43
0.0
 44
0.0
 50
0.0
 51
0.0
 71
     0
 72
   100
 73
     1
 74
     1
 75
     0
 76
     0
 77
     0
 78
     0
  0
ENDTAB
  0
TABLE
  2
LTYPE
 70
     2
  0
LTYPE
  2
CONTINUOUS
 70
     0
  3
Solid line
 72
    65
 73
     0
 40
0.0
  0
LTYPE
  2
PHANTOM2
 70
     0
  3
___ _ _ ___ _ _ ___ _ _ ___ _ _
 72
    65
 73
     6
 40
1.25
 49
0.625
 49
-0.125
 49
0.125
 49
-0.125
 49
0.125
 49
-0.125
  0
ENDTAB
  0
TABLE
  2
LAYER
 70
     2
  0
LAYER
  2
0
 70
     0
 62
     7
  6
CONTINUOUS
  0
LAYER
  2
DEFPOINTS
 70
     0
 62
     7
  6
CONTINUOUS
  0
ENDTAB
  0
TABLE
  2
STYLE
 70
     1
  0
STYLE
  2
STANDARD
 70
     0
 40
0.0
 41
0.8
 50
0.0
 71
     0
 42
0.2
  3
txt
  4

  0
ENDTAB
  0
TABLE
  2
VIEW
 70
     0
  0
ENDTAB
  0
TABLE
  2
UCS
 70
     0
  0
ENDTAB
  0
TABLE
  2
APPID
 70
     5
  0
APPID
  2
ACAD
 70
     0
  0
APPID
  2
ACAD_MLEADERVER
 70
     0
  0
APPID
  2
ACAD_NAV_VCDISPLAY
 70
     0
  0
APPID
  2
ACAD_EXEMPT_FROM_CAD_STANDARDS
 70
     0
  0
APPID
  2
ACDBATTR
 70
     0
  0
ENDTAB
  0
TABLE
  2
DIMSTYLE
 70
     1
  0
DIMSTYLE
  2
STANDARD
 70
     0
  3

  4

  5

  6

  7

 40
1.0
 41
0.1875
 42
0.0625
 43
0.38
 44
0.125
 45
0.0
 46
0.0
 47
1.5
 48
1.5
140
0.15625
141
0.09
142
0.0
143
25.399999999999999
144
1.0
145
0.0
146
1.0
147
0.09
 71
     0
 72
     0
 73
     1
 74
     1
 75
     0
 76
     0
 77
     0
 78
     4
170
     0
171
     2
172
     0
173
     0
174
     0
175
     0
176
     0
177
     0
178
     0
  0
ENDTAB
  0
ENDSEC
  0
SECTION
  2
BLOCKS
  0
BLOCK
  8
0
  2
$MODEL_SPACE
 70
     0
 10
0.0
 20
0.0
 30
0.0
  3
$MODEL_SPACE
  1

  0
ENDBLK
  5
21
  8
0
  0
BLOCK
 67
     1
  8
0
  2
$PAPER_SPACE
 70
     0
 10
0.0
 20
0.0
 30
0.0
  3
$PAPER_SPACE
  1

  0
ENDBLK
  5
1D
 67
     1
  8
0
  0
ENDSEC
  0
SECTION
  2
ENTITIES
  0
LINE
  5
EAE
  8
0
 10
41.428847822085103
 20
8.8821923849999997
 30
0.0
 11
41.428847822085089
 21
7.502192384999999
 31
0.0
  0
LINE
  5
EAF
  8
0
 10
41.3538478220851
 20
8.8821923849999997
 30
0.0
 11
41.428847822085103
 21
8.8821923849999997
 31
0.0
  0
LINE
  5
EB0
  8
0
 10
41.3538478220851
 20
8.8821923849999997
 30
0.0
 11
41.3538478220851
 21
7.502192384999999
 31
0.0
  0
LINE
  5
EB1
  8
0
 10
41.548847822085087
 20
7.3821923849999989
 30
0.0
 11
41.788847822085103
 21
7.3821923849999989
 31
0.0
  0
LINE
  5
EB2
  8
0
 10
41.548847822085087
 20
7.3071923849999987
 30
0.0
 11
41.788847822085103
 21
7.3071923849999987
 31
0.0
  0
LINE
  5
EB3
  8
0
 10
41.9788478220851
 20
7.1171923850000001
 30
0.0
 11
41.9788478220851
 21
2.147192384999999
 31
0.0
  0
LINE
  5
EB4
  8
0
 10
42.053847822085103
 20
2.147192384999999
 30
0.0
 11
42.053847822085103
 21
7.1171923850000001
 31
0.0
  0
LINE
  5
EB5
  8
0
 10
41.788847822085103
 20
1.957192384999999
 30
0.0
 11
41.548847822085087
 21
1.957192384999999
 31
0.0
  0
LINE
  5
EB6
  8
0
 10
41.788847822085103
 20
1.8821923849999991
 30
0.0
 11
41.548847822085087
 21
1.8821923849999991
 31
0.0
  0
LINE
  5
EB7
  8
0
 10
41.428847822085089
 20
1.7621923850000001
 30
0.0
 11
41.428847822085103
 21
0.382192385
 31
0.0
  0
LINE
  5
EB8
  8
0
 10
41.428847822085103
 20
0.382192385
 30
0.0
 11
41.3538478220851
 21
0.382192385
 31
0.0
  0
LINE
  5
EB9
  8
0
 10
41.3538478220851
 20
0.382192385
 30
0.0
 11
41.3538478220851
 21
1.7621923850000001
 31
0.0
  0
ARC
  5
EBA
  8
0
 10
41.548847822085087
 20
1.762192384999999
 30
0.0
 40
0.1950000000000006
 50
90.0
 51
179.9999969216752
  0
ARC
  5
EBB
  8
0
 10
41.548847822085087
 20
1.762192385000005
 30
0.0
 40
0.1199999999999974
 50
90.0
 51
180.0000000000027
  0
ARC
  5
EBC
  8
0
 10
41.788847822085103
 20
2.1471923850000012
 30
0.0
 40
0.2650000000000015
 50
270.0
 51
359.99999999999972
  0
ARC
  5
EBD
  8
0
 10
41.788847822085103
 20
2.147192384999995
 30
0.0
 40
0.1899999999999955
 50
269.99999999999898
 51
0.0000000000013392
  0
ARC
  5
EBE
  8
0
 10
41.788847822085089
 20
7.1171923850000027
 30
0.0
 40
0.1899999999999959
 50
359.99999999999892
 51
89.999999999998977
  0
ARC
  5
EBF
  8
0
 10
41.788847822085103
 20
7.117192385000001
 30
0.0
 40
0.2650000000000006
 50
359.99999999999977
 51
90.0
  0
ARC
  5
EC0
  8
0
 10
41.548847822085087
 20
7.5021923849999981
 30
0.0
 40
0.1949999999999985
 50
179.9999999999994
 51
270.0
  0
ARC
  5
EC1
  8
0
 10
41.548847822085087
 20
7.5021923849999954
 30
0.0
 40
0.1199999999999974
 50
179.9999999999979
 51
270.0
  0
LINE
  5
EC2
  8
0
 10
39.7288478220851
 20
5.4971923849999991
 30
0.0
 11
39.7288478220851
 21
3.7671923849999991
 31
0.0
  0
LINE
  5
EC3
  8
0
 10
39.7288478220851
 20
3.7671923849999991
 30
0.0
 11
39.738847822085098
 21
3.7571923850000002
 31
0.0
  0
LINE
  5
EC4
  8
0
 10
39.738847822085098
 20
3.7571923850000002
 30
0.0
 11
40.986347822085087
 21
3.7571923850000002
 31
0.0
  0
LINE
  5
EC5
  8
0
 10
41.6663478220851
 20
3.7571923850000002
 30
0.0
 11
41.968847822085088
 21
3.7571923850000002
 31
0.0
  0
LINE
  5
EC6
  8
0
 10
41.968847822085088
 20
3.7571923850000002
 30
0.0
 11
41.9788478220851
 21
3.7671923849999991
 31
0.0
  0
LINE
  5
EC7
  8
0
 10
39.7288478220851
 20
5.4971923849999991
 30
0.0
 11
39.738847822085098
 21
5.5071923849999989
 31
0.0
  0
LINE
  5
EC8
  8
0
 10
39.738847822085098
 20
5.5071923849999989
 30
0.0
 11
41.968847822085088
 21
5.5071923849999989
 31
0.0
  0
LINE
  5
EC9
  8
0
 10
41.968847822085088
 20
5.5071923849999989
 30
0.0
 11
41.9788478220851
 21
5.4971923849999991
 31
0.0
  0
LINE
  5
ECA
  8
0
 10
42.053847822085103
 20
5.4446923849999989
 30
0.0
 11
42.118847822085087
 21
5.4446898009999991
 31
0.0
  0
LINE
  5
ECB
  8
0
 10
42.118847822085087
 20
5.4446898009999991
 30
0.0
 11
42.118847822085087
 21
3.8696949688999989
 31
0.0
  0
LINE
  5
ECC
  8
0
 10
42.118847822085087
 20
3.8696949688999989
 30
0.0
 11
42.053847822085103
 21
3.8696949688999989
 31
0.0
  0
LINE
  5
ECD
  8
0
 10
42.118847822085087
 20
3.9966923849999989
 30
0.0
 11
42.296574810185092
 21
3.9966923849999989
 31
0.0
  0
LINE
  5
ECE
  8
0
 10
42.296574810185092
 20
3.9966923849999989
 30
0.0
 11
42.299847822085098
 21
4.0000241933999989
 31
0.0
  0
LINE
  5
ECF
  8
0
 10
42.299847822085098
 20
4.0000241933999989
 30
0.0
 11
42.299847822085098
 21
4.3643605765000002
 31
0.0
  0
LINE
  5
ED0
  8
0
 10
42.299847822085098
 20
4.3643605765000002
 30
0.0
 11
42.296574810185092
 21
4.3676923849999989
 31
0.0
  0
LINE
  5
ED1
  8
0
 10
42.296574810185092
 20
4.3676923849999989
 30
0.0
 11
42.118847822085087
 21
4.3676923849999989
 31
0.0
  0
LINE
  5
ED2
  8
0
 10
42.118847822085087
 20
4.1821923849999987
 30
0.0
 11
42.271150872185103
 21
4.1821923849999987
 31
0.0
  0
ARC
  5
ED4
  8
0
 10
42.13561299109417
 20
4.2749423849999992
 30
0.0
 40
0.1642348309909173
 50
325.61575249739809
 51
34.384247502602207
  0
ARC
  5
ED5
  8
0
 10
42.135612991094177
 20
4.089442384999999
 30
0.0
 40
0.1642348309909143
 50
325.61575249739741
 51
34.384247502602918
  0
LINE
  5
ED6
  8
0
 10
42.118847822085087
 20
4.4466923850000004
 30
0.0
 11
42.296574810185092
 21
4.4466923850000004
 31
0.0
  0
LINE
  5
ED7
  8
0
 10
42.296574810185092
 20
4.4466923850000004
 30
0.0
 11
42.299847822085098
 21
4.4500241933999991
 31
0.0
  0
LINE
  5
ED8
  8
0
 10
42.299847822085098
 20
4.4500241933999991
 30
0.0
 11
42.299847822085098
 21
4.8143605765000004
 31
0.0
  0
LINE
  5
ED9
  8
0
 10
42.299847822085098
 20
4.8143605765000004
 30
0.0
 11
42.296574810185092
 21
4.8176923849999991
 31
0.0
  0
LINE
  5
EDA
  8
0
 10
42.296574810185092
 20
4.8176923849999991
 30
0.0
 11
42.118847822085087
 21
4.8176923849999991
 31
0.0
  0
LINE
  5
EDB
  8
0
 10
42.118847822085087
 20
4.6321923849999989
 30
0.0
 11
42.271150872185103
 21
4.6321923849999989
 31
0.0
  0
ARC
  5
EDC
  8
0
 10
42.13561299109417
 20
4.7249423849999994
 30
0.0
 40
0.1642348309909173
 50
325.61575249739809
 51
34.384247502602221
  0
ARC
  5
EDD
  8
0
 10
42.135612991094177
 20
4.5394423849999992
 30
0.0
 40
0.1642348309909143
 50
325.61575249739741
 51
34.384247502602918
  0
LINE
  5
EDE
  8
0
 10
42.118847822085087
 20
4.9466923849999951
 30
0.0
 11
42.296574810185092
 21
4.9466923849999951
 31
0.0
  0
LINE
  5
EDF
  8
0
 10
42.296574810185092
 20
4.8966923849999988
 30
0.0
 11
42.299847822085098
 21
4.9000241934000002
 31
0.0
  0
LINE
  5
EE0
  8
0
 10
42.299847822085098
 20
4.9000241934000002
 30
0.0
 11
42.299847822085098
 21
5.2643605764999997
 31
0.0
  0
LINE
  5
EE1
  8
0
 10
42.299847822085098
 20
5.3143605765000004
 30
0.0
 11
42.296574810185092
 21
5.3176923849999991
 31
0.0
  0
LINE
  5
EE2
  8
0
 10
42.296574810185092
 20
5.3176923849999991
 30
0.0
 11
42.118847822085087
 21
5.3176923849999991
 31
0.0
  0
LINE
  5
EE3
  8
0
 10
42.118847822085087
 20
5.1321923849999989
 30
0.0
 11
42.271150872185103
 21
5.1321923849999989
 31
0.0
  0
ARC
  5
EE4
  8
0
 10
42.13561299109417
 20
5.2249423849999994
 30
0.0
 40
0.1642348309909173
 50
325.61575249739809
 51
34.384247502602221
  0
ARC
  5
EE5
  8
0
 10
42.13561299109417
 20
5.0394423849999939
 30
0.0
 40
0.1642348309909143
 50
325.61575249739741
 51
34.384247502602918
  0
ARC
  5
EE6
  8
0
 10
42.13561299109417
 20
4.989442384999994
 30
0.0
 40
0.1642348309909143
 50
325.61575249739741
 51
344.91225415125132
  0
LINE
  5
EE7
  8
0
 10
42.296574810185092
 20
4.9466923849999951
 30
0.0
 11
42.299847822085098
 21
4.9500241933999991
 31
0.0
  0
LINE
  5
EE8
  8
0
 10
42.296574810185092
 20
4.8966923849999988
 30
0.0
 11
42.118847822085087
 21
4.8966923849999988
 31
0.0
  0
LINE
  5
EE9
  8
0
 10
39.468847822085102
 20
3.9846923849999989
 30
0.0
 11
39.568847822085097
 21
3.9446923850000002
 31
0.0
  0
LINE
  5
EEA
  8
0
 10
39.568847822085097
 20
3.9446923850000002
 30
0.0
 11
39.7288478220851
 21
3.9446923850000002
 31
0.0
  0
LINE
  5
EEB
  8
0
 10
39.468847822085102
 20
3.9846923849999989
 30
0.0
 11
39.468847822085102
 21
5.2796923849999988
 31
0.0
  0
LINE
  5
EEC
  8
0
 10
39.468847822085102
 20
5.2796923849999988
 30
0.0
 11
39.568847822085097
 21
5.3196923849999989
 31
0.0
  0
LINE
  5
EED
  8
0
 10
39.568847822085097
 20
5.3196923849999989
 30
0.0
 11
39.7288478220851
 21
5.3196923849999989
 31
0.0
  0
LINE
  5
EEE
  8
0
 10
38.763347822085088
 20
4.5098131502999994
 30
0.0
 11
38.763347822085088
 21
4.7545700215000002
 31
0.0
  0
ARC
  5
EF0
  8
0
 10
39.237384479653748
 20
4.2907051938908367
 30
0.0
 40
0.6632366196306199
 50
132.2476286715613
 51
135.6212673091382
  0
LINE
  5
EF1
  8
0
 10
38.791466510285098
 20
4.7816634183999991
 30
0.0
 11
39.162385345585093
 21
4.7816552399144401
 31
0.0
  0
ARC
  5
EF2
  8
0
 10
39.193172955507968
 20
4.8133778454605451
 30
0.0
 40
0.0442063414839615
 50
225.85693687190931
 51
273.72750072191531
  0
ARC
  5
EF3
  8
0
 10
39.192154447606598
 20
4.8092710731184143
 30
0.0
 40
0.0401949639902184
 50
275.55715356313772
 51
316.95612795547987
  0
LINE
  5
EF4
  8
0
 10
39.221530184315597
 20
4.7818356722104953
 30
0.0
 11
39.2305738189851
 21
4.7909423850000001
 31
0.0
  0
LINE
  5
EF5
  8
0
 10
39.2305738189851
 20
4.7909423850000001
 30
0.0
 11
39.298747822085097
 21
4.7909423850000001
 31
0.0
  0
ARC
  5
EF6
  8
0
 10
39.298747822085112
 20
4.7813423850000039
 30
0.0
 40
0.0095999999999954
 50
359.99999999997351
 51
90.000000000021146
  0
ARC
  5
EF7
  8
0
 10
39.317947822085088
 20
4.7802923849999921
 30
0.0
 40
0.0095999999999847
 50
180.0000000000901
 51
244.71739695799809
  0
LINE
  5
EF8
  8
0
 10
39.308347822085103
 20
4.7813423850000003
 30
0.0
 11
39.308347822085103
 21
4.4830423850000001
 31
0.0
  0
ARC
  5
EF9
  8
0
 10
39.31802750410634
 20
4.4839908598928959
 30
0.0
 40
0.0097260397210139
 50
115.78811261793599
 51
185.59632852091971
  0
ARC
  5
EFA
  8
0
 10
39.29874782173134
 20
4.483042385854052
 30
0.0
 40
0.0096000008540518
 50
270.00000211133693
 51
359.99996443024872
  0
LINE
  5
EFB
  8
0
 10
39.29874782173134
 20
4.4734423850000011
 30
0.0
 11
39.2305738189851
 21
4.4734423850000002
 31
0.0
  0
LINE
  5
EFC
  8
0
 10
39.2305738189851
 20
4.7909423850000001
 30
0.0
 11
39.2305738189851
 21
4.4734423850000002
 31
0.0
  0
ARC
  5
EFD
  8
0
 10
39.193172955507968
 20
4.4510069244394543
 30
0.0
 40
0.0442063414839615
 50
86.272499278084695
 51
134.14306312809069
  0
ARC
  5
EFE
  8
0
 10
39.192154447606598
 20
4.4551136967815852
 30
0.0
 40
0.0401949639902184
 50
43.043872044519858
 51
84.442846436862311
  0
LINE
  5
EFF
  8
0
 10
39.221530184315597
 20
4.4825490976895042
 30
0.0
 11
39.2305738189851
 21
4.4734423848999993
 31
0.0
  0
ARC
  5
F00
  8
0
 10
39.215885193354673
 20
4.951365379287525
 30
0.0
 40
0.6322645358704062
 50
224.29607656526329
 51
227.83502745403851
  0
LINE
  5
F01
  8
0
 10
38.791466510285098
 20
4.4827213514999986
 30
0.0
 11
39.162385345585093
 21
4.4827295299855576
 31
0.0
  0
LINE
  5
F02
  8
0
 10
39.313847822085087
 20
4.8615857831999989
 30
0.0
 11
39.313847822085087
 21
4.3571923850000003
 31
0.0
  0
LINE
  5
F03
  8
0
 10
39.373847822085096
 20
4.357198810399999
 30
0.0
 11
39.373847822085096
 21
4.8615857831999989
 31
0.0
  0
LINE
  5
F04
  8
0
 10
39.328847822085102
 20
4.3421923849999988
 30
0.0
 11
39.358847822085103
 21
4.3421923849999997
 31
0.0
  0
LINE
  5
F05
  8
0
 10
39.328847822085102
 20
4.8509791814999987
 30
0.0
 11
39.358847822085103
 21
4.8509791814999987
 31
0.0
  0
LINE
  5
F06
  8
0
 10
39.328847822085102
 20
4.8721923849999991
 30
0.0
 11
39.358847822085103
 21
4.8721923849999991
 31
0.0
  0
ARC
  5
F07
  8
0
 10
39.324377243469932
 20
4.8606361223209111
 30
0.0
 40
0.0105720746089536
 50
106.99072652617561
 51
174.84632834139629
  0
ARC
  5
F08
  8
0
 10
39.328748678875549
 20
4.8522208540210432
 30
0.0
 40
0.0199717770621297
 50
89.715573091587629
 51
111.9356915535504
  0
ARC
  5
F09
  8
0
 10
39.328328275999027
 20
4.8681839122819177
 30
0.0
 40
0.0172125735848495
 50
229.0680692645231
 51
271.72968439860438
  0
ARC
  5
F0A
  8
0
 10
39.323180854275641
 20
4.8622492133099424
 30
0.0
 40
0.0093565821420167
 50
184.06597921700231
 51
229.07197325289249
  0
ARC
  5
F0B
  8
0
 10
39.359281905439254
 20
4.854689406883006
 30
0.0
 40
0.0175083600409145
 50
44.231133487566723
 51
91.420675197396534
  0
ARC
  5
F0C
  8
0
 10
39.365850297347578
 20
4.8615885891690462
 30
0.0
 40
0.0079975252297632
 50
319.00460441198641
 51
41.639170677429192
  0
ARC
  5
F0D
  8
0
 10
39.359547736591189
 20
4.8678090013682738
 30
0.0
 40
0.0168443675189782
 50
267.61856917966549
 51
317.0978488035085
  0
ARC
  5
F0E
  8
0
 10
39.328847823057501
 20
4.3571923873475944
 30
0.0
 40
0.0150000023475933
 50
179.97546575012819
 51
269.9999962856827
  0
ARC
  5
F0F
  8
0
 10
39.358847822085103
 20
4.3571923850000021
 30
0.0
 40
0.0150000000000024
 50
270.0
 51
359.99999999998983
  0
LINE
  5
F10
  8
0
 10
39.381347822085097
 20
4.3434628764000003
 30
0.0
 11
39.381347822085097
 21
4.9209220926999988
 31
0.0
  0
LINE
  5
F11
  8
0
 10
39.381347822085097
 20
4.9209220926999988
 30
0.0
 11
39.468847822085102
 21
4.9209220926999988
 31
0.0
  0
LINE
  5
F12
  8
0
 10
39.452347822085102
 20
4.9209220926999988
 30
0.0
 11
39.452347822085102
 21
4.9421922323
 31
0.0
  0
LINE
  5
F13
  8
0
 10
39.452347822085102
 20
4.9421922323
 30
0.0
 11
39.468847822085102
 21
4.9421923850000002
 31
0.0
  0
LINE
  5
F14
  8
0
 10
39.452347822085102
 20
4.3221925376000003
 30
0.0
 11
39.452347822085102
 21
4.366498482099999
 31
0.0
  0
LINE
  5
F15
  8
0
 10
39.452347822085102
 20
4.366498482099999
 30
0.0
 11
39.462347822085093
 21
4.377117396
 31
0.0
  0
LINE
  5
F16
  8
0
 10
39.462347822085093
 20
4.377117396
 30
0.0
 11
39.468847822085102
 21
4.377117396
 31
0.0
  0
LINE
  5
F17
  8
0
 10
39.452347822085102
 20
4.3221923850000001
 30
0.0
 11
39.468847822085102
 21
4.3221923850000001
 31
0.0
  0
LINE
  5
F18
  8
0
 10
39.381347822085097
 20
4.3434628764000003
 30
0.0
 11
39.452347822085102
 21
4.3434626771999998
 31
0.0
  0
LINE
  5
F19
  8
0
 10
39.381347822085097
 20
4.3759423850000001
 30
0.0
 11
39.461241295550401
 21
4.3759423850000001
 31
0.0
  0
ARC
  5
F1A
  8
0
 10
41.334012323975763
 20
2.915657788783776
 30
0.0
 40
0.9105224228450868
 50
92.499469978872995
 51
112.4470645105025
  0
ARC
  5
F1B
  8
0
 10
41.30700410638714
 20
2.8623847234815609
 30
0.0
 40
0.9642658643360286
 50
68.120214276415837
 51
87.093365265048604
  0
LINE
  5
F1C
  8
0
 10
41.294304308585119
 20
3.8253139634000011
 30
0.0
 11
41.3559006681851
 21
3.8254100520000001
 31
0.0
  0
ARC
  5
F1D
  8
0
 10
39.826347822133577
 20
3.8121923849911039
 30
0.0
 40
1.187999999951207
 50
325.00000000545998
 51
357.7976876749388
  0
ARC
  5
F1E
  8
0
 10
39.896651134124312
 20
3.776993610065674
 30
0.0
 40
1.7342597808851761
 50
324.62035640361921
 51
359.7772443442999
  0
LINE
  5
F1F
  8
0
 10
40.799500450685102
 20
3.1307835786
 30
0.0
 11
40.551629501836111
 21
2.776787176987229
 31
0.0
  0
LINE
  5
F20
  8
0
 10
41.062780377585092
 20
2.4188754809000002
 30
0.0
 11
41.310651328533417
 21
2.7728718854690491
 31
0.0
  0
ARC
  5
F21
  8
0
 10
42.035579039440393
 20
1.73750505588761
 30
0.0
 40
1.18764998103292
 50
144.9917221400309
 51
181.5215655316706
  0
ARC
  5
F22
  8
0
 10
42.035964377730423
 20
1.737451006805004
 30
0.0
 40
1.812034684669487
 50
145.0001631557401
 51
181.23088615281631
  0
LINE
  5
F23
  8
0
 10
40.848350627994648
 20
1.7059691347307071
 30
0.0
 11
40.848350627994648
 21
1.1321923849999991
 31
0.0
  0
LINE
  5
F24
  8
0
 10
40.848350627994648
 20
1.1321923849999991
 30
0.0
 11
40.224347822085093
 21
1.1321923849999991
 31
0.0
  0
LINE
  5
F25
  8
0
 10
40.224347822085093
 20
1.1321923849999991
 30
0.0
 11
40.224517047085101
 21
1.6985277284
 31
0.0
  0
ARC
  5
F26
  8
0
 10
37.067894729383433
 20
284.61512412955972
 30
0.0
 40
282.93430658794227
 50
270.63924692989968
 51
270.76558567647612
  0
ARC
  5
F68
  8
0
 10
39.059191787393502
 20
4.3065856631558157
 30
0.0
 40
0.5342546661256558
 50
120.0740741124535
 51
122.4070160085553
  0
ARC
  5
F69
  8
0
 10
39.332565092332793
 20
4.334056608777046
 30
0.0
 40
0.690767505665133
 50
141.56616544921519
 51
144.12066621306209
  0
ARC
  5
F6A
  8
0
 10
38.991508789091931
 20
3.739073361244706
 30
0.0
 40
1.023455078509921
 50
101.27134969791
 51
102.3351357817635
  0
ARC
  5
F6B
  8
0
 10
39.336324386465193
 20
4.302074450595323
 30
0.0
 40
0.6954555042398644
 50
141.57798081424599
 51
144.1151602383855
  0
ARC
  5
F6C
  8
0
 10
38.993142890489906
 20
5.717137877613041
 30
0.0
 40
1.0312172014892551
 50
257.66623751333248
 51
258.72190687205563
  0
ARC
  5
F6D
  8
0
 10
39.271845988161353
 20
4.2726998327925951
 30
0.0
 40
0.6396718102292763
 50
138.67516929929531
 51
141.26535472240539
  0
ARC
  5
F6E
  8
0
 10
39.059191681097523
 20
5.1240026276387374
 30
0.0
 40
0.5342544612397124
 50
237.59298354570859
 51
239.92592633662369
  0
ARC
  5
F6F
  8
0
 10
39.165480571597719
 20
4.2352632229923231
 30
0.0
 40
0.55829824441867
 50
132.0607388085015
 51
134.6867122013135
  0
ARC
  5
F70
  8
0
 10
39.164057564339672
 20
5.0276138746567591
 30
0.0
 40
0.5562255996849532
 50
225.30828832275239
 51
227.9440483859143
  0
ARC
  5
F71
  8
0
 10
38.99284420055929
 20
4.2497918422137699
 30
0.0
 40
0.4063332383282835
 50
119.70881305692239
 51
122.75497629306651
  0
ARC
  5
F72
  8
0
 10
39.27240866523217
 20
4.99215756756593
 30
0.0
 40
0.6404064596360372
 50
218.73613055589689
 51
221.32334414791711
  0
ARC
  5
F73
  8
0
 10
38.988458761632067
 20
3.569648869393764
 30
0.0
 40
1.0083317736694399
 50
101.2658981734299
 51
102.34564972300871
  0
ARC
  5
F74
  8
0
 10
39.337694433595459
 20
4.9633484502887173
 30
0.0
 40
0.6971740218120609
 50
215.8879648709659
 51
218.4188891688155
  0
ARC
  5
F75
  8
0
 10
38.99168628105383
 20
5.5261605936904399
 30
0.0
 40
1.0243225774501019
 50
257.66531262137931
 51
258.7281977668045
  0
ARC
  5
F76
  8
0
 10
39.320027271974922
 20
4.9208263945288708
 30
0.0
 40
0.6750399923667666
 50
215.84956990824699
 51
218.4635973059456
  0
ARC
  5
F77
  8
0
 10
39.057854227103483
 20
4.9556431126680351
 30
0.0
 40
0.5317176032287695
 50
237.590159639625
 51
239.9344260024321
  0
ARC
  5
F78
  8
0
 10
39.270124165144672
 20
4.9056020856359828
 30
0.0
 40
0.637454044472947
 50
218.7334768858523
 51
221.3327802792403
  0
ARC
  5
F79
  8
0
 10
39.269149527051297
 20
4.3596012776605058
 30
0.0
 40
0.6361815777421477
 50
138.6646069528806
 51
141.2691119170081
  0
LINE
  5
F7A
  8
0
 10
38.791466511485098
 20
4.7797775326999989
 30
0.0
 11
38.791466510285098
 21
4.7816634183999991
 31
0.0
  0
LINE
  5
F7B
  8
0
 10
38.791466511485098
 20
4.7797775326999989
 30
0.0
 11
39.162385345585093
 21
4.7797775326999989
 31
0.0
  0
LINE
  5
F7C
  8
0
 10
39.162385345585093
 20
4.7797775326999989
 30
0.0
 11
39.162385345585093
 21
4.7816552399144401
 31
0.0
  0
LINE
  5
F7D
  8
0
 10
39.162385345585093
 20
4.7689127762142363
 30
0.0
 11
38.791468587485099
 21
4.7689176501999988
 31
0.0
  0
LINE
  5
F7E
  8
0
 10
38.791468587485099
 20
4.7689176501999988
 30
0.0
 11
38.791468587485099
 21
4.7634449848999996
 31
0.0
  0
LINE
  5
F7F
  8
0
 10
38.791468587485099
 20
4.7634449848999996
 30
0.0
 11
39.162375343885103
 21
4.7634449848999996
 31
0.0
  0
LINE
  5
F80
  8
0
 10
39.162375343885103
 20
4.7634449848999996
 30
0.0
 11
39.162385345585093
 21
4.7689127762142363
 31
0.0
  0
LINE
  5
F81
  8
0
 10
38.791173410670211
 20
4.7427296938010119
 30
0.0
 11
38.791468587485099
 21
4.7342645860000001
 31
0.0
  0
LINE
  5
F82
  8
0
 10
38.791468587485099
 20
4.7342645860000001
 30
0.0
 11
39.162385345585093
 21
4.7342645860000001
 31
0.0
  0
LINE
  5
F83
  8
0
 10
39.162385345585093
 20
4.7342645860000001
 30
0.0
 11
39.162385345585093
 21
4.7427871839190257
 31
0.0
  0
LINE
  5
F84
  8
0
 10
39.162385345585093
 20
4.7427871839190257
 30
0.0
 11
38.791173410670211
 21
4.7427296938010119
 31
0.0
  0
LINE
  5
F85
  8
0
 10
38.791468587485099
 20
4.7058335601000003
 30
0.0
 11
38.791468587485099
 21
4.6950927167999996
 31
0.0
  0
LINE
  5
F86
  8
0
 10
38.791468587485099
 20
4.6950927167999996
 30
0.0
 11
39.162385345585093
 21
4.6950927167999996
 31
0.0
  0
LINE
  5
F87
  8
0
 10
39.162385345585093
 20
4.6950927167999996
 30
0.0
 11
39.162375346285103
 21
4.7058339894000003
 31
0.0
  0
LINE
  5
F88
  8
0
 10
39.162375346285103
 20
4.7058339894000003
 30
0.0
 11
38.791468587485099
 21
4.7058339894000003
 31
0.0
  0
LINE
  5
F89
  8
0
 10
38.791466510285098
 20
4.661670428599999
 30
0.0
 11
38.791468587485099
 21
4.6497637247999997
 31
0.0
  0
LINE
  5
F8A
  8
0
 10
38.791468587485099
 20
4.6497637247999997
 30
0.0
 11
39.162385345585093
 21
4.6497637247999997
 31
0.0
  0
LINE
  5
F8B
  8
0
 10
39.162385345585093
 20
4.6497637247999997
 30
0.0
 11
39.162375346285103
 21
4.661670428599999
 31
0.0
  0
LINE
  5
F8C
  8
0
 10
39.162375346285103
 20
4.661670428599999
 30
0.0
 11
38.791466521573717
 21
4.6616057212029336
 31
0.0
  0
LINE
  5
F8D
  8
0
 10
38.791468587485099
 20
4.6146210440999997
 30
0.0
 11
38.791468587485099
 21
4.6027147275999987
 31
0.0
  0
LINE
  5
F8E
  8
0
 10
38.791468587485099
 20
4.6027147275999987
 30
0.0
 11
39.162385345585093
 21
4.6027147275999987
 31
0.0
  0
LINE
  5
F8F
  8
0
 10
39.162385345585093
 20
4.6027147275999987
 30
0.0
 11
39.162375346285103
 21
4.6146213514999994
 31
0.0
  0
LINE
  5
F90
  8
0
 10
39.162375346285103
 20
4.6146213514999994
 30
0.0
 11
38.791468587485099
 21
4.6146210440999997
 31
0.0
  0
LINE
  5
F91
  8
0
 10
38.791468587485099
 20
4.5692920521999998
 30
0.0
 11
38.791466511485098
 21
4.5585507804000001
 31
0.0
  0
LINE
  5
F92
  8
0
 10
38.791466511485098
 20
4.5585507804000001
 30
0.0
 11
39.162375343885103
 21
4.5585507804000001
 31
0.0
  0
LINE
  5
F93
  8
0
 10
39.162375343885103
 20
4.5585507804000001
 30
0.0
 11
39.162375343885103
 21
4.5692922496000001
 31
0.0
  0
LINE
  5
F94
  8
0
 10
39.162375343885103
 20
4.5692922496000001
 30
0.0
 11
38.791468587485099
 21
4.5692920521999998
 31
0.0
  0
LINE
  5
F95
  8
0
 10
38.791468587485099
 20
4.5301201831000002
 30
0.0
 11
38.791468587485099
 21
4.5215957730999987
 31
0.0
  0
LINE
  5
F96
  8
0
 10
38.791468587485099
 20
4.5215957730999987
 30
0.0
 11
39.162375343885103
 21
4.5215957730999987
 31
0.0
  0
LINE
  5
F97
  8
0
 10
39.162375343885103
 20
4.5215957730999987
 30
0.0
 11
39.162385345585093
 21
4.5301201831000002
 31
0.0
  0
LINE
  5
F98
  8
0
 10
39.162385345585093
 20
4.5301201831000002
 30
0.0
 11
38.791466510285098
 21
4.5301202511999987
 31
0.0
  0
LINE
  5
F99
  8
0
 10
38.791468587485099
 20
4.4954667327999989
 30
0.0
 11
38.791468587485099
 21
4.500939784399999
 31
0.0
  0
LINE
  5
F9A
  8
0
 10
38.791468587485099
 20
4.500939784399999
 30
0.0
 11
39.162375346285103
 21
4.500939784399999
 31
0.0
  0
LINE
  5
F9B
  8
0
 10
39.162375346285103
 20
4.500939784399999
 30
0.0
 11
39.162375343885103
 21
4.4954667327999989
 31
0.0
  0
LINE
  5
F9C
  8
0
 10
39.162375343885103
 20
4.4954667327999989
 30
0.0
 11
38.791468587485099
 21
4.4954667327999989
 31
0.0
  0
LINE
  5
F9D
  8
0
 10
38.791468587485099
 20
4.4846072365999996
 30
0.0
 11
38.791484651485597
 21
4.4827213518999987
 31
0.0
  0
LINE
  5
F9E
  8
0
 10
38.791468587485099
 20
4.4846072365999996
 30
0.0
 11
39.162385345585093
 21
4.4846072365999996
 31
0.0
  0
LINE
  5
F9F
  8
0
 10
39.162385345585093
 20
4.4846072365999996
 30
0.0
 11
39.162385386987133
 21
4.4827295299864707
 31
0.0
  0
ARC
  5
FA0
  8
0
 10
39.19258001751416
 20
4.4630707226675561
 30
0.0
 40
0.0370964094814878
 50
73.126153500630949
 51
144.5103971097227
  0
ARC
  5
FA1
  8
0
 10
39.19241696969307
 20
4.443997646517186
 30
0.0
 40
0.0595945115734268
 50
79.430944636576996
 51
120.2605293083902
  0
ARC
  5
FA2
  8
0
 10
39.192841042541247
 20
4.482370345433015
 30
0.0
 40
0.0356315735805434
 50
72.850093852630806
 51
148.1850681639034
  0
ARC
  5
FA3
  8
0
 10
39.192065789010101
 20
4.3636927116825968
 30
0.0
 40
0.1606701569573776
 50
85.973457174741284
 51
100.648964235823
  0
ARC
  5
FA4
  8
0
 10
39.192706733823961
 20
4.5118170386980614
 30
0.0
 40
0.035417392333851
 50
72.515480925220942
 51
148.8832201059372
  0
ARC
  5
FA5
  8
0
 10
39.192656796323391
 20
4.7208862947778663
 30
0.0
 40
0.1651334031526473
 50
259.43708355199021
 51
273.7120253647069
  0
ARC
  5
FA6
  8
0
 10
39.192806902415462
 20
4.5471120650923522
 30
0.0
 40
0.037648677906115
 50
73.740921054478349
 51
143.90466487953651
  0
ARC
  5
FA7
  8
0
 10
39.192715987691791
 20
4.6559009802958498
 30
0.0
 40
0.0612321260956326
 50
240.29713868381921
 51
280.0308967043664
  0
ARC
  5
FA8
  8
0
 10
39.192744781199607
 20
4.6807385742489966
 30
0.0
 40
0.0433720719959218
 50
225.5748731252134
 51
284.15033804693309
  0
ARC
  5
FA9
  8
0
 10
39.192718312363041
 20
4.6084711808452559
 30
0.0
 40
0.0612442287246572
 50
79.970470692486373
 51
119.6989036742402
  0
ARC
  5
FAA
  8
0
 10
39.192816379791552
 20
4.7173005095881733
 30
0.0
 40
0.0376727209449572
 50
216.12101465906929
 51
286.23340166256008
  0
ARC
  5
FAB
  8
0
 10
39.192632118811531
 20
4.5439108115249063
 30
0.0
 40
0.1647235374702858
 50
86.270123612259809
 51
100.58076997978689
  0
ARC
  5
FAC
  8
0
 10
39.192833162027718
 20
4.7529221215357493
 30
0.0
 40
0.0357181458051531
 50
211.49032215514251
 51
287.1202831185912
  0
ARC
  5
FAD
  8
0
 10
39.192842536135331
 20
4.9070517549357104
 30
0.0
 40
0.1670643281718398
 50
259.49576734873602
 51
273.60523356437869
  0
ARC
  5
FAE
  8
0
 10
39.192832689169038
 20
4.7820817047156208
 30
0.0
 40
0.035698327467099
 50
211.4707574525583
 51
287.13087541950239
  0
ARC
  5
FAF
  8
0
 10
39.192692240370043
 20
4.8219340601247387
 30
0.0
 40
0.0610672296494275
 50
240.24532316136001
 51
280.04894329489298
  0
ARC
  5
FB0
  8
0
 10
39.192808898413453
 20
4.8019642008596453
 30
0.0
 40
0.0376543430147772
 50
216.10200248765219
 51
286.25340130514178
  0
LINE
  5
FB1
  8
0
 10
39.203347822085099
 20
4.761803659199999
 30
0.0
 11
39.203347822085099
 21
4.7658147799000004
 31
0.0
  0
LINE
  5
FB2
  8
0
 10
39.203347822085099
 20
4.7403375492000004
 30
0.0
 11
39.203347822085099
 21
4.7479671541000004
 31
0.0
  0
LINE
  5
FB3
  8
0
 10
39.203347822085099
 20
4.7082854369999989
 30
0.0
 11
39.203347822085149
 21
4.7187866874000131
 31
0.0
  0
LINE
  5
FB4
  8
0
 10
39.2033843444013
 20
4.668779483031912
 30
0.0
 11
39.2033843444013
 21
4.681129766899998
 31
0.0
  0
LINE
  5
FB5
  8
0
 10
39.203347822085099
 20
4.6257022552999993
 30
0.0
 11
39.203347822085099
 21
4.6386825146000001
 31
0.0
  0
ARC
  5
FB6
  8
0
 10
39.192761751885868
 20
4.5835834651109879
 30
0.0
 40
0.0434287620045618
 50
75.891604379124544
 51
134.38318705544091
  0
LINE
  5
FB7
  8
0
 10
39.203347822086222
 20
4.5832550029996817
 30
0.0
 11
39.203381350993098
 21
4.5956048503052571
 31
0.0
  0
LINE
  5
FB8
  8
0
 10
39.203347822085099
 20
4.5455980824999997
 30
0.0
 11
39.203347822085099
 21
4.5560993328999997
 31
0.0
  0
LINE
  5
FB9
  8
0
 10
39.203347822085099
 20
4.5164176158
 30
0.0
 11
39.203730060890777
 21
4.5240280224480101
 31
0.0
  0
LINE
  5
FBA
  8
0
 10
39.203347822085099
 20
4.49856999
 30
0.0
 11
39.203347822085121
 21
4.5025811106999978
 31
0.0
  0
LINE
  5
FFC
  8
0
 10
40.799500450688349
 20
3.1307835785977209
 30
0.0
 11
41.310651328533417
 21
2.7728718854690491
 31
0.0
  0
LINE
  5
FFD
  8
0
 10
40.551629501985097
 20
2.7767871772000001
 30
0.0
 11
41.062780377645304
 21
2.4188754809859829
 31
0.0
  0
ATTDEF
  5
13E9
  8
DEFPOINTS
 10
39.29545447479552
 20
4.6336583346577056
 30
0.0
 40
0.001
  1
K-410-K
  3

  2
MODELNUMBER
 70
     0
1001
ACDBATTR
1070
     0
1070
     1
  0
ATTDEF
  5
13EA
  8
DEFPOINTS
 10
39.29545447479552
 20
4.6319916679910413
 30
0.0
 40
0.001
  1
FALLING WATER
  3

  2
TRADENAME
 70
     0
1001
ACDBATTR
1070
     0
1070
     1
  0
ATTDEF
  5
13EB
  8
DEFPOINTS
 10
39.29545447479552
 20
4.6303250013243762
 30
0.0
 40
0.001
  1
WALL-MOUNT VALVE
  3

  2
PRODUCT
 70
     0
1001
ACDBATTR
1070
     0
1070
     1
  0
ATTDEF
  5
13EC
  8
DEFPOINTS
 10
39.29545447479552
 20
4.628658334657703
 30
0.0
 40
0.001
  1
BRASS
  3

  2
MATERIAL
 70
     0
1001
ACDBATTR
1070
     0
1070
     1
  0
ENDSEC
  0
EOF
