  0
SECTION
  2
HEADER
  9
$ACADVER
  1
AC1009
  9
$INSBASE
 10
34.206987548153919
 20
2.3639701394999988
 30
0.0
  9
$EXTMIN
 10
14.62144575827889
 20
2.0766914079240868
 30
-0.0015258207003583
  9
$EXTMAX
 10
34.231394001354971
 20
4.1426069523189417
 30
0.0000000349246037
  9
$LIMMIN
 10
0.0
 20
0.0
  9
$LIMMAX
 10
11.692913385800001
 20
8.2677165353999982
  9
$ORTHOMODE
 70
     0
  9
$REGENMODE
 70
     1
  9
$FILLMODE
 70
     1
  9
$QTEXTMODE
 70
     0
  9
$MIRRTEXT
 70
     0
  9
$DRAGMODE
 70
     2
  9
$LTSCALE
 40
0.6431102362
  9
$OSMODE
 70
  3071
  9
$ATTMODE
 70
     1
  9
$TEXTSIZE
 40
0.2
  9
$TRACEWID
 40
0.05
  9
$TEXTSTYLE
  7
STANDARD
  9
$CLAYER
  8
0
  9
$CELTYPE
  6
BYLAYER
  9
$CECOLOR
 62
   256
  9
$DIMSCALE
 40
1.0
  9
$DIMASZ
 40
0.1875
  9
$DIMEXO
 40
0.0625
  9
$DIMDLI
 40
0.4443307087
  9
$DIMRND
 40
0.0
  9
$DIMDLE
 40
0.0
  9
$DIMEXE
 40
0.125
  9
$DIMTP
 40
0.0
  9
$DIMTM
 40
0.0
  9
$DIMTXT
 40
1.0
  9
$DIMCEN
 40
0.1052362205
  9
$DIMTSZ
 40
0.0
  9
$DIMTOL
 70
     0
  9
$DIMLIM
 70
     0
  9
$DIMTIH
 70
     1
  9
$DIMTOH
 70
     1
  9
$DIMSE1
 70
     0
  9
$DIMSE2
 70
     0
  9
$DIMTAD
 70
     0
  9
$DIMZIN
 70
     0
  9
$DIMBLK
  1

  9
$DIMASO
 70
     1
  9
$DIMSHO
 70
     1
  9
$DIMPOST
  1
\X
  9
$DIMAPOST
  1

  9
$DIMALT
 70
     1
  9
$DIMALTD
 70
     2
  9
$DIMALTF
 40
25.399999999999999
  9
$DIMLFAC
 40
1.0
  9
$DIMTOFL
 70
     0
  9
$DIMTVP
 40
0.0
  9
$DIMTIX
 70
     0
  9
$DIMSOXD
 70
     0
  9
$DIMSAH
 70
     0
  9
$DIMBLK1
  1

  9
$DIMBLK2
  1

  9
$DIMSTYLE
  2
STANDARD
  9
$DIMCLRD
 70
     0
  9
$DIMCLRE
 70
     0
  9
$DIMCLRT
 70
     0
  9
$DIMTFAC
 40
1.0
  9
$DIMGAP
 40
0.09
  9
$LUNITS
 70
     2
  9
$LUPREC
 70
     4
  9
$SKETCHINC
 40
0.1
  9
$FILLETRAD
 40
0.0
  9
$AUNITS
 70
     0
  9
$AUPREC
 70
     0
  9
$MENU
  1
.
  9
$ELEVATION
 40
0.0
  9
$PELEVATION
 40
0.0
  9
$THICKNESS
 40
0.0
  9
$LIMCHECK
 70
     0
  9
$BLIPMODE
 70
     0
  9
$CHAMFERA
 40
0.0
  9
$CHAMFERB
 40
0.0
  9
$SKPOLY
 70
     0
  9
$TDCREATE
 40
2458282.7823334732
  9
$TDUPDATE
 40
2458283.5339086349
  9
$TDINDWG
 40
0.1235935185
  9
$TDUSRTIMER
 40
0.1235935185
  9
$USRTIMER
 70
     1
  9
$ANGBASE
 50
0.0
  9
$ANGDIR
 70
     0
  9
$PDMODE
 70
     0
  9
$PDSIZE
 40
0.3125
  9
$PLINEWID
 40
0.0
  9
$COORDS
 70
     1
  9
$SPLFRAME
 70
     0
  9
$SPLINETYPE
 70
     6
  9
$SPLINESEGS
 70
     8
  9
$ATTDIA
 70
     1
  9
$ATTREQ
 70
     1
  9
$HANDLING
 70
     1
  9
$HANDSEED
  5
ED2
  9
$SURFTAB1
 70
     6
  9
$SURFTAB2
 70
     6
  9
$SURFTYPE
 70
     6
  9
$SURFU
 70
     6
  9
$SURFV
 70
     6
  9
$UCSNAME
  2

  9
$UCSORG
 10
0.0
 20
0.0
 30
0.0
  9
$UCSXDIR
 10
1.0
 20
0.0
 30
0.0
  9
$UCSYDIR
 10
0.0
 20
1.0
 30
0.0
  9
$PUCSNAME
  2

  9
$PUCSORG
 10
0.0
 20
0.0
 30
0.0
  9
$PUCSXDIR
 10
1.0
 20
0.0
 30
0.0
  9
$PUCSYDIR
 10
0.0
 20
1.0
 30
0.0
  9
$USERI1
 70
     0
  9
$USERI2
 70
     0
  9
$USERI3
 70
     0
  9
$USERI4
 70
     0
  9
$USERI5
 70
     0
  9
$USERR1
 40
0.0
  9
$USERR2
 40
0.0
  9
$USERR3
 40
0.0
  9
$USERR4
 40
0.0
  9
$USERR5
 40
0.0
  9
$WORLDVIEW
 70
     1
  9
$SHADEDGE
 70
     3
  9
$SHADEDIF
 70
    70
  9
$TILEMODE
 70
     1
  9
$MAXACTVP
 70
    48
  9
$PLIMCHECK
 70
     0
  9
$PEXTMIN
 10
1.0000000000000000E+020
 20
1.0000000000000000E+020
 30
1.0000000000000000E+020
  9
$PEXTMAX
 10
-1.0000000000000000E+020
 20
-1.0000000000000000E+020
 30
-1.0000000000000000E+020
  9
$PLIMMIN
 10
0.0
 20
0.0
  9
$PLIMMAX
 10
12.0
 20
9.0
  9
$UNITMODE
 70
     0
  9
$VISRETAIN
 70
     1
  9
$PLINEGEN
 70
     0
  9
$PSLTSCALE
 70
     1
  0
ENDSEC
  0
SECTION
  2
TABLES
  0
TABLE
  2
VPORT
 70
     1
  0
VPORT
  2
*ACTIVE
 70
     0
 10
0.0
 20
0.0
 11
1.0
 21
1.0
 12
6.275899257086679
 22
-14.68920374041071
 13
0.0
 23
0.0
 14
1.0
 24
1.0
 15
0.0
 25
0.0
 16
-0.000000000000032
 26
0.0
 36
151.42943016286139
 17
18.150520622730252
 27
17.798852920532219
 37
0.0
 40
9.3790466751947932
 41
2.0985603543743072
 42
50.0
 43
0.0
 44
0.0
 50
0.0
 51
0.0
 71
     0
 72
   100
 73
     1
 74
     1
 75
     0
 76
     0
 77
     0
 78
     0
  0
ENDTAB
  0
TABLE
  2
LTYPE
 70
     8
  0
LTYPE
  2
CONTINUOUS
 70
     0
  3
Solid line
 72
    65
 73
     0
 40
0.0
  0
LTYPE
  2
PHANTOM2
 70
     0
  3
___ _ _ ___ _ _ ___ _ _ ___ _ _
 72
    65
 73
     6
 40
1.25
 49
0.625
 49
-0.125
 49
0.125
 49
-0.125
 49
0.125
 49
-0.125
  0
ENDTAB
  0
TABLE
  2
LAYER
 70
    32
  0
LAYER
  2
0
 70
     0
 62
     7
  6
CONTINUOUS
  0
LAYER
  2
DEFPOINTS
 70
     0
 62
     7
  6
CONTINUOUS
  0
ENDTAB
  0
TABLE
  2
STYLE
 70
     2
  0
STYLE
  2
STANDARD
 70
     0
 40
0.0
 41
0.8
 50
0.0
 71
     0
 42
0.2
  3
txt
  4

  0
ENDTAB
  0
TABLE
  2
VIEW
 70
     0
  0
ENDTAB
  0
TABLE
  2
UCS
 70
     0
  0
ENDTAB
  0
TABLE
  2
APPID
 70
     7
  0
APPID
  2
ACAD
 70
     0
  0
APPID
  2
ACAD_MLEADERVER
 70
     0
  0
APPID
  2
ACAD_DSTYLE_DIMJAG
 70
     0
  0
APPID
  2
ACAD_DSTYLE_DIMTALN
 70
     0
  0
APPID
  2
ACAD_EXEMPT_FROM_CAD_STANDARDS
 70
     0
  0
APPID
  2
ACAD_NAV_VCDISPLAY
 70
     0
  0
APPID
  2
AcDbAttr
 70
     0
  0
ENDTAB
  0
TABLE
  2
DIMSTYLE
 70
     2
  0
DIMSTYLE
  2
STANDARD
 70
     0
  3

  4

  5

  6

  7

 40
1.0
 41
0.1875
 42
0.0625
 43
0.38
 44
0.125
 45
0.0
 46
0.0
 47
1.5
 48
1.5
140
0.15625
141
0.09
142
0.0
143
25.399999999999999
144
1.0
145
0.0
146
1.0
147
0.09
 71
     0
 72
     0
 73
     1
 74
     1
 75
     0
 76
     0
 77
     0
 78
     4
170
     0
171
     2
172
     0
173
     0
174
     0
175
     0
176
     0
177
     0
178
     0
  0
ENDTAB
  0
ENDSEC
  0
SECTION
  2
BLOCKS
  0
BLOCK
  8
0
  2
$MODEL_SPACE
 70
     0
 10
0.0
 20
0.0
 30
0.0
  3
$MODEL_SPACE
  1

  0
ENDBLK
  5
21
  8
0
  0
BLOCK
 67
     1
  8
0
  2
$PAPER_SPACE
 70
     0
 10
0.0
 20
0.0
 30
0.0
  3
$PAPER_SPACE
  1

  0
ENDBLK
  5
1D
 67
     1
  8
0
  0
ENDSEC
  0
SECTION
  2
ENTITIES
  0
LINE
  5
B26
  8
0
 10
31.539691867399998
 20
2.3639701394999988
 30
0.0
 11
34.053719015700011
 21
2.3639701394999988
 31
0.0
  0
LINE
  5
B27
  8
0
 10
34.053719015700011
 20
2.3639701394999988
 30
0.0
 11
34.060950154499999
 21
2.5004142071999991
 31
0.0
  0
ARC
  5
B28
  8
0
 10
34.252861688178299
 20
2.478736597158306
 30
0.0
 40
0.1931319640449951
 50
127.2263953445204
 51
173.5553992502914
  0
ARC
  5
B29
  8
0
 10
34.043984944857748
 20
2.7909022698931181
 30
0.0
 40
0.1831846108747882
 50
300.1612698142734
 51
328.63839246718419
  0
ARC
  5
B2A
  8
0
 10
34.139264736827769
 20
2.7246882142775841
 30
0.0
 40
0.067722811326147
 50
334.53123137079132
 51
69.934897735831001
  0
ARC
  5
B2B
  8
0
 10
31.683482374445951
 20
-7.1450866304643812
 30
0.0
 40
10.238051860170289
 50
75.987262825704462
 51
84.045523524204611
  0
ARC
  5
B2C
  8
0
 10
32.757062312292177
 20
2.906181702724008
 30
0.0
 40
0.1320474082602583
 50
94.997251576322597
 51
159.5242002728456
  0
ARC
  5
B2D
  8
0
 10
32.663249750727282
 20
2.9409424610671819
 30
0.0
 40
0.0320031946823578
 50
159.0727510332176
 51
186.99924934775581
  0
LINE
  5
B2E
  8
0
 10
32.631485051909799
 20
2.9370426689045801
 30
0.0
 11
32.698953304
 21
2.3875561796000002
 31
0.0
  0
ARC
  5
B2F
  8
0
 10
32.761563019494432
 20
2.4570201856748879
 30
0.0
 40
0.0935159056002095
 50
227.9708400742314
 51
264.27859373980061
  0
ARC
  5
B71
  8
0
 10
32.657423325660808
 20
2.762195878322069
 30
0.0
 40
0.0200176586592119
 50
109.80483097546499
 51
179.06788687755781
  0
ARC
  5
B72
  8
0
 10
32.66144695934284
 20
2.812878309457969
 30
0.0
 40
0.0299964269022797
 50
187.3052188855718
 51
247.85959523135929
  0
LINE
  5
B73
  8
0
 10
32.686344235200004
 20
2.3639701394999988
 30
0.0
 11
32.61255216629597
 21
2.9649583127610639
 31
0.0
  0
LINE
  5
B74
  8
0
 10
32.6136828335
 20
2.985939946899999
 30
0.0
 11
32.541917409
 21
3.570422425199999
 31
0.0
  0
ARC
  5
B75
  8
0
 10
31.5037767119478
 20
3.469872064676581
 30
0.0
 40
1.042998792845617
 50
5.5321950087195422
 51
29.504083095391259
  0
ARC
  5
B76
  8
0
 10
32.12636413999406
 20
3.8316821714563769
 30
0.0
 40
0.323067872449676
 50
28.03627809962034
 51
67.019786404572585
  0
ARC
  5
B77
  8
0
 10
32.182445418272977
 20
3.9340928070683061
 30
0.0
 40
0.2072173451905806
 50
70.242219021849465
 51
90.013271454773772
  0
LINE
  5
BB9
  8
0
 10
32.18239742039907
 20
4.141310146700004
 30
0.0
 11
30.7510495362
 21
4.0564769740999997
 31
0.0
  0
ARC
  5
BBA
  8
0
 10
16.402756438533771
 20
290.76800290757569
 30
0.0
 40
287.07032695477022
 50
269.7306424529624
 51
272.86494017970352
  0
ARC
  5
BC4
  8
0
 10
15.052022184029511
 20
3.4517471224949698
 30
0.0
 40
0.2491038559291387
 50
89.7306424529623
 51
162.04232745689711
  0
ARC
  5
BC5
  8
0
 10
18.539138459168299
 20
2.251188785888341
 30
0.0
 40
3.937062187860481
 50
161.06803874286859
 51
174.04561967368491
  0
ARC
  5
BC6
  8
0
 10
14.678949707056519
 20
2.652845661346801
 30
0.0
 40
0.0560414908864794
 50
173.07133095965619
 51
274.41065989261239
  0
LINE
  5
BC7
  8
0
 10
14.683259551500001
 20
2.5969701394999989
 30
0.0
 11
31.50799897877333
 21
2.5969701394999989
 31
0.0
  0
ARC
  5
BC8
  8
0
 10
31.507999050175329
 20
3.096970140797243
 30
0.0
 40
0.5000000012972437
 50
270.00000001428668
 51
288.25000414790583
  0
LINE
  5
BC9
  8
0
 10
31.664580988200001
 20
2.6221205878
 30
0.0
 11
32.572919871087599
 21
2.9216459043301679
 31
0.0
  0
ARC
  5
BCA
  8
0
 10
32.554130031645641
 20
2.9786278715510348
 30
0.0
 40
0.0600000221217829
 50
288.25000414790208
 51
6.999915381992718
  0
LINE
  5
BCB
  8
0
 10
31.547884047748269
 20
2.5985634912972082
 30
0.0
 11
31.539691867399998
 21
2.3639701394999988
 31
0.0
  0
ARC
  5
C0D
  8
0
 10
32.555947251943387
 20
-2.0187306177627682
 30
0.0
 40
5.1124250094484838
 50
115.4661064604272
 51
126.5568537697863
  0
ARC
  5
C0E
  8
0
 10
29.47658777529395
 20
2.136810181456593
 30
0.0
 40
0.0597299944409887
 50
280.71838239254242
 51
305.04265048980488
  0
ARC
  5
C0F
  8
0
 10
29.474740912578
 20
2.1580753667283998
 30
0.0
 40
0.0809959361373664
 50
270.26128610932471
 51
279.20417911256112
  0
ARC
  5
C11
  8
0
 10
38.474876445120309
 20
392.68173894001922
 30
0.0
 40
390.70832492232648
 50
268.43121621160589
 51
268.68010432468429
  0
ARC
  5
C12
  8
0
 10
-3.555692202016187
 20
-1025.315431562303
 30
0.0
 40
1027.912985562124
 50
88.253167267211026
 51
88.642777386350929
  0
ARC
  5
C13
  8
0
 10
16.834393398315491
 20
-182.3929458466946
 30
0.0
 40
184.7444998390981
 50
88.772749555125557
 51
90.048008329725803
  0
ARC
  5
C14
  8
0
 10
16.68097179902518
 20
2.415849853933334
 30
0.0
 40
0.0643754310687461
 50
236.18940299663521
 51
268.7748476582554
  0
ARC
  5
C15
  8
0
 10
15.56347608438502
 20
0.1945958432379504
 30
0.0
 40
2.422648689662882
 50
63.481671599711269
 51
82.582292859071984
  0
LINE
  5
C57
  8
0
 10
27.2143876202
 20
2.5969701394999989
 30
0.0
 11
27.2211863944
 21
2.5192597948999991
 31
0.0
  0
ARC
  5
C58
  8
0
 10
27.280958076253899
 20
2.524489139468868
 30
0.0
 40
0.0599999999688676
 50
185.00000000644511
 51
270.00000004402222
  0
LINE
  5
C59
  8
0
 10
27.280958076299999
 20
2.464489139499999
 30
0.0
 11
27.869431779700001
 21
2.4644891399521431
 31
0.0
  0
ARC
  5
C5A
  8
0
 10
27.86943177965389
 20
2.5244919306639062
 30
0.0
 40
0.0600027907117631
 50
270.00000004402239
 51
354.55467515614117
  0
ARC
  5
C5B
  8
0
 10
28.048996966928762
 20
2.507374694704156
 30
0.0
 40
0.1203764105503581
 50
131.90150199624881
 51
174.55467515614041
  0
ARC
  5
C5C
  8
0
 10
17.609716431860331
 20
2.4161988707840778
 30
0.0
 40
0.1917875020203993
 50
27.272496618534461
 51
70.486053901105009
  0
ARC
  5
C5D
  8
0
 10
17.88466760095552
 20
2.5397487606480138
 30
0.0
 40
0.1104037843059624
 50
198.8488550098543
 51
273.51825098201459
  0
LINE
  5
C5E
  8
0
 10
17.891442692799998
 20
2.429553054199999
 30
0.0
 11
18.786674365100001
 21
2.4294891394999989
 31
0.0
  0
ARC
  5
C5F
  8
0
 10
18.789365348910142
 20
2.545283287356793
 30
0.0
 40
0.1158254120292587
 50
268.66872142838321
 51
320.5899406594346
  0
ARC
  5
C60
  8
0
 10
18.870196671745578
 20
2.643367004900393
 30
0.0
 40
0.1718356078860606
 50
272.88807596545502
 51
301.46489788801938
  0
ARC
  5
C61
  8
0
 10
18.893623429608461
 20
2.4818412538754511
 30
0.0
 40
0.0679342684672517
 50
12.71879662140091
 51
70.901875567499673
  0
ARC
  5
C62
  8
0
 10
18.382408903551131
 20
0.5730249582656285
 30
0.0
 40
2.043852785960325
 50
74.87070475293028
 51
81.996582526746849
  0
LINE
  5
C63
  8
0
 10
17.891442692799949
 20
2.429553054199999
 30
0.0
 11
17.891442692799949
 21
2.3894891394999989
 31
0.0
  0
LINE
  5
C64
  8
0
 10
17.891442692799949
 20
2.3894891394999989
 30
0.0
 11
18.783301374600001
 21
2.3894891394999989
 31
0.0
  0
LINE
  5
C65
  8
0
 10
18.783301374600001
 20
2.3894891394999989
 30
0.0
 11
18.78400157517704
 21
2.4294893303227458
 31
0.0
  0
ATTDEF
  5
E46
  8
DEFPOINTS
 10
34.218236856617843
 20
2.3662746417111569
 30
0.0
 40
0.001
  1
K-4008
  3

  2
MODELNUMBER
 70
     0
1001
AcDbAttr
1070
     0
1070
     1
  0
ATTDEF
  5
E47
  8
DEFPOINTS
 10
34.218236856617843
 20
2.3646079750444922
 30
0.0
 40
0.001
  1
REVEAL
  3

  2
TRADENAME
 70
     0
1001
AcDbAttr
1070
     0
1070
     1
  0
ATTDEF
  5
E48
  8
DEFPOINTS
 10
34.218236856617843
 20
2.3629413083778128
 30
0.0
 40
0.001
  1
TOILET SEAT
  3

  2
PRODUCT
 70
     0
1001
AcDbAttr
1070
     0
1070
     1
  0
ATTDEF
  5
E49
  8
DEFPOINTS
 10
34.218236856617843
 20
2.3612746417111481
 30
0.0
 40
0.001
  1
PLASTIC
  3

  2
MATERIAL
 70
     0
1001
AcDbAttr
1070
     0
1070
     1
  0
ENDSEC
  0
EOF
