  0
SECTION
  2
HEADER
  9
$ACADVER
  1
AC1009
  9
$INSBASE
 10
104.0152889053185
 20
-5.5751019047261572
 30
0.0
  9
$EXTMIN
 10
78.014463839089373
 20
-5.5751019047261572
 30
0.0
  9
$EXTMAX
 10
104.0221352217518
 20
18.47404190230057
 30
0.0
  9
$LIMMIN
 10
0.0
 20
0.0
  9
$LIMMAX
 10
22.0
 20
17.0
  9
$ORTHOMODE
 70
     1
  9
$REGENMODE
 70
     1
  9
$FILLMODE
 70
     1
  9
$QTEXTMODE
 70
     0
  9
$MIRRTEXT
 70
     0
  9
$DRAGMODE
 70
     2
  9
$LTSCALE
 40
1.2099999999999991
  9
$OSMODE
 70
  3071
  9
$ATTMODE
 70
     1
  9
$TEXTSIZE
 40
0.2
  9
$TRACEWID
 40
0.05
  9
$TEXTSTYLE
  7
STANDARD
  9
$CLAYER
  8
0
  9
$CELTYPE
  6
BYLAYER
  9
$CECOLOR
 62
   256
  9
$DIMSCALE
 40
1.0
  9
$DIMASZ
 40
0.1875
  9
$DIMEXO
 40
0.0625
  9
$DIMDLI
 40
0.8359999999999999
  9
$DIMRND
 40
0.0
  9
$DIMDLE
 40
0.0
  9
$DIMEXE
 40
0.125
  9
$DIMTP
 40
0.0
  9
$DIMTM
 40
0.0
  9
$DIMTXT
 40
0.5
  9
$DIMCEN
 40
0.198
  9
$DIMTSZ
 40
0.0
  9
$DIMTOL
 70
     0
  9
$DIMLIM
 70
     0
  9
$DIMTIH
 70
     1
  9
$DIMTOH
 70
     1
  9
$DIMSE1
 70
     0
  9
$DIMSE2
 70
     0
  9
$DIMTAD
 70
     0
  9
$DIMZIN
 70
     0
  9
$DIMBLK
  1

  9
$DIMASO
 70
     1
  9
$DIMSHO
 70
     1
  9
$DIMPOST
  1
\X
  9
$DIMAPOST
  1

  9
$DIMALT
 70
     1
  9
$DIMALTD
 70
     2
  9
$DIMALTF
 40
25.399999999999999
  9
$DIMLFAC
 40
1.0
  9
$DIMTOFL
 70
     0
  9
$DIMTVP
 40
0.0
  9
$DIMTIX
 70
     0
  9
$DIMSOXD
 70
     0
  9
$DIMSAH
 70
     0
  9
$DIMBLK1
  1

  9
$DIMBLK2
  1

  9
$DIMSTYLE
  2
STANDARD
  9
$DIMCLRD
 70
     0
  9
$DIMCLRE
 70
     0
  9
$DIMCLRT
 70
     0
  9
$DIMTFAC
 40
1.0
  9
$DIMGAP
 40
0.09
  9
$LUNITS
 70
     2
  9
$LUPREC
 70
     4
  9
$SKETCHINC
 40
0.1
  9
$FILLETRAD
 40
0.0
  9
$AUNITS
 70
     0
  9
$AUPREC
 70
     0
  9
$MENU
  1
.
  9
$ELEVATION
 40
0.0
  9
$PELEVATION
 40
0.0
  9
$THICKNESS
 40
0.0
  9
$LIMCHECK
 70
     0
  9
$BLIPMODE
 70
     0
  9
$CHAMFERA
 40
0.0
  9
$CHAMFERB
 40
0.0
  9
$SKPOLY
 70
     0
  9
$TDCREATE
 40
2457976.4815514698
  9
$TDUPDATE
 40
2458229.502532084
  9
$TDINDWG
 40
0.545037963
  9
$TDUSRTIMER
 40
0.545037963
  9
$USRTIMER
 70
     1
  9
$ANGBASE
 50
0.0
  9
$ANGDIR
 70
     0
  9
$PDMODE
 70
     0
  9
$PDSIZE
 40
0.3125
  9
$PLINEWID
 40
0.0
  9
$COORDS
 70
     1
  9
$SPLFRAME
 70
     0
  9
$SPLINETYPE
 70
     6
  9
$SPLINESEGS
 70
     8
  9
$ATTDIA
 70
     1
  9
$ATTREQ
 70
     1
  9
$HANDLING
 70
     1
  9
$HANDSEED
  5
372A
  9
$SURFTAB1
 70
     6
  9
$SURFTAB2
 70
     6
  9
$SURFTYPE
 70
     6
  9
$SURFU
 70
     6
  9
$SURFV
 70
     6
  9
$UCSNAME
  2

  9
$UCSORG
 10
0.0
 20
0.0
 30
0.0
  9
$UCSXDIR
 10
1.0
 20
0.0
 30
0.0
  9
$UCSYDIR
 10
0.0
 20
1.0
 30
0.0
  9
$PUCSNAME
  2

  9
$PUCSORG
 10
0.0
 20
0.0
 30
0.0
  9
$PUCSXDIR
 10
1.0
 20
0.0
 30
0.0
  9
$PUCSYDIR
 10
0.0
 20
1.0
 30
0.0
  9
$USERI1
 70
     0
  9
$USERI2
 70
     0
  9
$USERI3
 70
     0
  9
$USERI4
 70
     0
  9
$USERI5
 70
     0
  9
$USERR1
 40
0.0
  9
$USERR2
 40
0.0
  9
$USERR3
 40
0.0
  9
$USERR4
 40
0.0
  9
$USERR5
 40
0.0
  9
$WORLDVIEW
 70
     1
  9
$SHADEDGE
 70
     3
  9
$SHADEDIF
 70
    70
  9
$TILEMODE
 70
     1
  9
$MAXACTVP
 70
    48
  9
$PLIMCHECK
 70
     0
  9
$PEXTMIN
 10
1.0000000000000000E+020
 20
1.0000000000000000E+020
 30
1.0000000000000000E+020
  9
$PEXTMAX
 10
-1.0000000000000000E+020
 20
-1.0000000000000000E+020
 30
-1.0000000000000000E+020
  9
$PLIMMIN
 10
0.0
 20
0.0
  9
$PLIMMAX
 10
12.0
 20
9.0
  9
$UNITMODE
 70
     0
  9
$VISRETAIN
 70
     1
  9
$PLINEGEN
 70
     0
  9
$PSLTSCALE
 70
     1
  0
ENDSEC
  0
SECTION
  2
TABLES
  0
TABLE
  2
VPORT
 70
     1
  0
VPORT
  2
*ACTIVE
 70
     0
 10
0.0
 20
0.0
 11
1.0
 21
1.0
 12
0.0
 22
0.0
 13
0.0
 23
0.0
 14
1.0
 24
1.0
 15
0.0
 25
0.0
 16
-0.0000000000000284
 26
0.0
 36
98.566903727664567
 17
90.764689372927393
 27
6.4494699987872064
 37
0.0
 40
35.05521370614732
 41
2.0983240223463682
 42
50.0
 43
0.0
 44
0.0
 50
0.0
 51
0.0
 71
     0
 72
   100
 73
     1
 74
     1
 75
     0
 76
     0
 77
     0
 78
     0
  0
ENDTAB
  0
TABLE
  2
LTYPE
 70
     2
  0
LTYPE
  2
CONTINUOUS
 70
     0
  3
Solid line
 72
    65
 73
     0
 40
0.0
  0
LTYPE
  2
PHANTOM2
 70
     0
  3
___ _ _ ___ _ _ ___ _ _ ___ _ _
 72
    65
 73
     6
 40
1.25
 49
0.625
 49
-0.125
 49
0.125
 49
-0.125
 49
0.125
 49
-0.125
  0
ENDTAB
  0
TABLE
  2
LAYER
 70
     2
  0
LAYER
  2
0
 70
     0
 62
     7
  6
CONTINUOUS
  0
LAYER
  2
DEFPOINTS
 70
     0
 62
     7
  6
CONTINUOUS
  0
ENDTAB
  0
TABLE
  2
STYLE
 70
     1
  0
STYLE
  2
STANDARD
 70
     0
 40
0.0
 41
0.8
 50
0.0
 71
     0
 42
0.2
  3
txt
  4

  0
ENDTAB
  0
TABLE
  2
VIEW
 70
     0
  0
ENDTAB
  0
TABLE
  2
UCS
 70
     0
  0
ENDTAB
  0
TABLE
  2
APPID
 70
     7
  0
APPID
  2
ACAD
 70
     0
  0
APPID
  2
ACAD_MLEADERVER
 70
     0
  0
APPID
  2
ACAD_NAV_VCDISPLAY
 70
     0
  0
APPID
  2
ACAD_EXEMPT_FROM_CAD_STANDARDS
 70
     0
  0
APPID
  2
ACAD_DSTYLE_DIMJAG
 70
     0
  0
APPID
  2
ACAD_DSTYLE_DIMTALN
 70
     0
  0
APPID
  2
ACDBATTR
 70
     0
  0
ENDTAB
  0
TABLE
  2
DIMSTYLE
 70
     1
  0
DIMSTYLE
  2
STANDARD
 70
     0
  3

  4

  5

  6

  7

 40
1.0
 41
0.1875
 42
0.0625
 43
0.38
 44
0.125
 45
0.0
 46
0.0
 47
1.5
 48
1.5
140
0.15625
141
0.09
142
0.0
143
25.399999999999999
144
1.0
145
0.0
146
1.0
147
0.09
 71
     0
 72
     0
 73
     1
 74
     1
 75
     0
 76
     0
 77
     0
 78
     4
170
     0
171
     2
172
     0
173
     0
174
     0
175
     0
176
     0
177
     0
178
     0
  0
ENDTAB
  0
ENDSEC
  0
SECTION
  2
BLOCKS
  0
BLOCK
  8
0
  2
$MODEL_SPACE
 70
     0
 10
0.0
 20
0.0
 30
0.0
  3
$MODEL_SPACE
  1

  0
ENDBLK
  5
21
  8
0
  0
BLOCK
 67
     1
  8
0
  2
$PAPER_SPACE
 70
     0
 10
0.0
 20
0.0
 30
0.0
  3
$PAPER_SPACE
  1

  0
ENDBLK
  5
1D
 67
     1
  8
0
  0
ENDSEC
  0
SECTION
  2
ENTITIES
  0
ATTDEF
  5
14E9
  8
DEFPOINTS
 10
104.0114685550852
 20
-5.5624768272454084
 30
0.0
 40
0.001
  1
K-4007
  3

  2
MODELNUMBER
 70
     0
1001
ACDBATTR
1070
     0
1070
     1
  0
ATTDEF
  5
14EA
  8
DEFPOINTS
 10
104.0114685550852
 20
-5.5641434939120726
 30
0.0
 40
0.001
  1
SAN SOUCI
  3

  2
TRADENAME
 70
     0
1001
ACDBATTR
1070
     0
1070
     1
  0
ATTDEF
  5
14EB
  8
DEFPOINTS
 10
104.0114685550852
 20
-5.5658101605787378
 30
0.0
 40
0.001
  1
TOILET
  3

  2
PRODUCT
 70
     0
1001
ACDBATTR
1070
     0
1070
     1
  0
ATTDEF
  5
14EC
  8
DEFPOINTS
 10
104.0114685550852
 20
-5.5674768272454029
 30
0.0
 40
0.001
  1
VITREOUS CHINA
  3

  2
MATERIAL
 70
     0
1001
ACDBATTR
1070
     0
1070
     1
  0
LINE
  5
3637
  8
0
 10
78.014463839089373
 20
7.6404386763562107
 30
0.0
 11
78.098541964589401
 21
9.4350520768562127
 31
0.0
  0
LINE
  5
3638
  8
0
 10
78.941684170051516
 20
-5.5751019047261572
 30
0.0
 11
102.4316841575769
 21
-5.5751019047261572
 31
0.0
  0
LINE
  5
3639
  8
0
 10
78.096438327759174
 20
7.4461232895209966
 30
0.0
 11
102.48644032338839
 21
7.4470466738019354
 31
0.0
  0
LINE
  5
363A
  8
0
 10
91.87969292078941
 20
9.6731231772562154
 30
0.0
 11
78.348214380389393
 21
9.6731231772562154
 31
0.0
  0
LINE
  5
363B
  8
0
 10
78.112603594396973
 20
9.8120504612564687
 30
0.0
 11
93.268275634489925
 21
9.8120505121330304
 31
0.0
  0
LINE
  5
363C
  8
0
 10
96.651338843087814
 20
18.2426220830563
 30
0.0
 11
96.571257444542482
 21
17.17138426225139
 31
0.0
  0
LINE
  5
363D
  8
0
 10
102.8102061558894
 20
17.003913802456459
 30
0.0
 11
96.902564484489403
 21
17.003913802456459
 31
0.0
  0
LINE
  5
363E
  8
0
 10
96.670983570587836
 20
17.063915413956309
 30
0.0
 11
102.6573638538833
 21
17.063617808846089
 31
0.0
  0
LINE
  5
363F
  8
0
 10
102.8053525113833
 20
17.1536178088461
 30
0.0
 11
103.4333803232833
 21
17.1536178088461
 31
0.0
  0
LINE
  5
3640
  8
0
 10
103.13917225358939
 20
7.2273747977629981
 30
0.0
 11
103.1400306149894
 21
17.103913805730109
 31
0.0
  0
ARC
  5
3641
  8
0
 10
56.022963633373053
 20
2.8972931536627509
 30
0.0
 40
24.43459083070103
 50
339.71208933694481
 51
355.15866279826719
  0
ARC
  5
3642
  8
0
 10
70.816346481779775
 20
1.245464071283386
 30
0.0
 40
9.5628401652757322
 50
357.54050440501408
 51
40.7704656705262
  0
ARC
  5
3643
  8
0
 10
78.247036958007584
 20
7.6272273324323079
 30
0.0
 40
0.2329480526890208
 50
176.74880038022681
 51
216.00467386470501
  0
ARC
  5
3644
  8
0
 10
78.348193866780804
 20
9.4231896059560825
 30
0.0
 40
0.2499335721419706
 50
89.99529737767476
 51
177.279577325356
  0
ARC
  5
3645
  8
0
 10
92.220331838970623
 20
13.2773531556536
 30
0.0
 40
3.620291232726744
 50
264.60096308474078
 51
325.01566475279822
  0
ARC
  5
3646
  8
0
 10
84.521197578451918
 20
17.259901695320799
 30
0.0
 40
12.265822932371091
 50
330.40189134587172
 51
346.98681295172622
  0
ARC
  5
3647
  8
0
 10
-27538.337291917069
 20
4026.8467347800588
 30
0.0
 40
27924.570330700291
 50
351.7388478177283
 51
351.7439067035732
  0
ARC
  5
3648
  8
0
 10
96.902609150669861
 20
16.926645521272011
 30
0.0
 40
0.0772682940944625
 50
90.033120748940377
 51
171.58683665870009
  0
ARC
  5
3649
  8
0
 10
103.4024752741359
 20
17.262267547633869
 30
0.0
 40
0.1129596733416686
 50
285.87822231047193
 51
357.08618590111843
  0
ARC
  5
364A
  8
0
 10
-52.102729511372189
 20
13.61209282096309
 30
0.0
 40
155.66068721632379
 50
1.3415698583584641
 51
1.700452381182322
  0
ARC
  5
364B
  8
0
 10
103.2361434811653
 20
18.221520534744538
 30
0.0
 40
0.2534497723378833
 50
2.18627476165139
 51
85.094389960546536
  0
ARC
  5
364C
  8
0
 10
96.911255149252554
 20
18.21259739393626
 30
0.0
 40
0.261642951112624
 50
92.231660776253065
 51
173.4110612673079
  0
ARC
  5
364D
  8
0
 10
96.670978317586489
 20
17.163915582321021
 30
0.0
 40
0.1000001685026892
 50
175.71678046834111
 51
270.00300974298727
  0
ARC
  5
364E
  8
0
 10
102.37426359194031
 20
18.225444913493568
 30
0.0
 40
0.2491425266077663
 50
2.7590738584207961
 51
86.207676295693361
  0
LINE
  5
364F
  8
0
 10
102.62311730648329
 20
18.237437716446092
 30
0.0
 11
102.6352021806983
 21
17.063617808846089
 31
0.0
  0
LINE
  5
3650
  8
0
 10
102.6583109396894
 20
16.935033877656458
 30
0.0
 11
102.4883039759153
 21
8.5418633236127182
 31
0.0
  0
ARC
  5
3651
  8
0
 10
103.94002540134881
 20
8.4098553045850082
 30
0.0
 40
1.457710950137439
 50
174.80426587884389
 51
195.69405833072901
  0
ARC
  5
3652
  8
0
 10
102.9691911692792
 20
8.1059210293795942
 30
0.0
 40
0.4418742432250843
 50
191.80210492791781
 51
247.82410723290721
  0
ARC
  5
3653
  8
0
 10
103.07003061498941
 20
17.103913805730109
 30
0.0
 40
0.0699999999999967
 50
0.0
 51
45.239568440525751
  0
LINE
  5
3654
  8
0
 10
102.1618124888894
 20
-4.4930200408435343
 30
0.0
 11
88.351036911851509
 21
-4.5046503140261569
 31
0.0
  0
ARC
  5
3655
  8
0
 10
88.349442768283637
 20
-4.0172552209535262
 30
0.0
 40
0.4873977000817554
 50
181.75880677999919
 51
270.1873990402745
  0
LINE
  5
3656
  8
0
 10
87.862274688551494
 20
-4.0322145035261574
 30
0.0
 11
87.530949711368137
 21
4.3658868380690299
 31
0.0
  0
ARC
  5
3657
  8
0
 10
69.146032819994019
 20
3.6917567680652961
 30
0.0
 40
18.39727209273202
 50
2.0999557165422358
 51
11.77626631584257
  0
LINE
  5
3658
  8
0
 10
94.114886708860666
 20
10.192361996065941
 30
0.0
 11
94.034021732725023
 21
10.790545399017271
 31
0.0
  0
ARC
  5
3659
  8
0
 10
93.321701511733977
 20
10.71675552419887
 30
0.0
 40
0.716132001001524
 50
5.9142248028573681
 51
37.947448917663337
  0
ARC
  5
365A
  8
0
 10
93.586914465795033
 20
10.919071825566061
 30
0.0
 40
0.3825960460631634
 50
38.478795509127302
 51
62.563696640430848
  0
ARC
  5
365B
  8
0
 10
93.657705090760757
 20
11.0284415504919
 30
0.0
 40
0.2532156973929777
 50
65.378509345152082
 51
89.176295465312023
  0
LINE
  5
365C
  8
0
 10
93.661345284425096
 20
11.28163108107384
 30
0.0
 11
92.244246671175077
 21
11.18526547426409
 31
0.0
  0
LINE
  5
365D
  8
0
 10
92.244246671175077
 20
11.18526547426409
 30
0.0
 11
88.071764243814414
 21
11.032901481556459
 31
0.0
  0
LINE
  5
365E
  8
0
 10
88.071764243814414
 20
11.032901481556459
 30
0.0
 11
82.693219091564416
 21
10.961256223356459
 31
0.0
  0
LINE
  5
365F
  8
0
 10
82.693219091564416
 20
10.961256223356459
 30
0.0
 11
78.463552478233595
 21
10.96491595142456
 31
0.0
  0
ARC
  5
3660
  8
0
 10
78.463559276397618
 20
10.714915924478751
 30
0.0
 40
0.2500000270382428
 50
90.001558024255345
 51
161.51638166785079
  0
ARC
  5
3661
  8
0
 10
81.412796192826889
 20
9.6144230618664892
 30
0.0
 40
3.3977314427749761
 50
159.68279112746379
 51
175.04672139790071
  0
ARC
  5
3662
  8
0
 10
78.117561453356331
 20
9.9019138038365035
 30
0.0
 40
0.090000003917316
 50
176.25346155499079
 51
266.84213056804612
  0
ARC
  5
3663
  8
0
 10
79.05949191604887
 20
8.8347151180628032
 30
0.0
 40
1.0491242992355889
 50
53.120932452299982
 51
68.681280493850792
  0
ARC
  5
3664
  8
0
 10
102.66949838674761
 20
17.20212724961192
 30
0.0
 40
0.1390399657260386
 50
264.99321544462072
 51
320.59305146762802
  0
ARC
  5
3665
  8
0
 10
102.9929213957233
 20
16.989475964254112
 30
0.0
 40
0.2492481324275222
 50
138.8107756219251
 51
150.06334441755419
  0
ARC
  5
3666
  8
0
 10
102.5873680107385
 20
16.933471012214788
 30
0.0
 40
0.0709601417452925
 50
1.262016008003688
 51
83.07678591532958
  0
ARC
  5
3667
  8
0
 10
97.039463697789415
 20
17.133913802456458
 30
0.0
 40
0.1299999999999949
 50
270.0
 51
327.40944246497298
  0
ARC
  5
3668
  8
0
 10
102.80348269973911
 20
17.073306274723009
 30
0.0
 40
0.0697174301725794
 50
275.5341296967552
 51
355.36746455721089
  0
ARC
  5
3669
  8
0
 10
102.5697921917247
 20
17.129954818147962
 30
0.0
 40
0.3095107928068252
 50
348.3917831194837
 51
4.3847057674837702
  0
ARC
  5
366A
  8
0
 10
101.9200182784673
 20
-4.9310652961189163
 30
0.0
 40
0.500347964783437
 50
0.9932035743393143
 51
61.101981156581417
  0
LINE
  5
366B
  8
0
 10
102.42029107013521
 20
-4.9223923623774111
 30
0.0
 11
102.4316841575769
 21
-5.5751019047261572
 31
0.0
  0
ARC
  5
366C
  8
0
 10
100.9062187904391
 20
-3.7287917709215921
 30
0.0
 40
1.469884444154262
 50
328.67284308962928
 51
349.33673817885722
  0
ARC
  5
366D
  8
0
 10
-891.4696835921377
 20
160.70982147847681
 30
0.0
 40
1007.3770775505581
 50
350.58963633373469
 51
350.68463828126471
  0
LINE
  5
366E
  8
0
 10
102.6224605848894
 20
-2.3526980035435332
 30
0.0
 11
102.5054671398894
 21
1.2519907016564671
 31
0.0
  0
ARC
  5
366F
  8
0
 10
97.758269510298064
 20
1.1791592651422531
 30
0.0
 40
4.7477562861358518
 50
0.8789620522246909
 51
66.248478722783403
  0
LINE
  5
3670
  8
0
 10
100.08653104843761
 20
6.564914256734645
 30
0.0
 11
99.593341929789403
 21
5.331796389156465
 31
0.0
  0
ARC
  5
3671
  8
0
 10
99.380116882279154
 20
5.4281105389259281
 30
0.0
 40
0.2339686652771474
 50
286.27400793882367
 51
335.69121762831321
  0
ARC
  5
3672
  8
0
 10
98.697292867797898
 20
7.6761573718796248
 30
0.0
 40
2.583416332987154
 50
261.06746420535382
 51
286.8393854659887
  0
ARC
  5
3673
  8
0
 10
98.729018312998676
 20
7.7987971445583852
 30
0.0
 40
2.7095226764814422
 50
241.1895229525397
 51
260.8074040274837
  0
ARC
  5
3674
  8
0
 10
97.079279491396193
 20
4.6617717289211313
 30
0.0
 40
0.8368553646307342
 50
65.729732060618971
 51
114.8640092168949
  0
ARC
  5
3675
  8
0
 10
98.414653837220584
 20
1.655745806569942
 30
0.0
 40
4.1260590585469821
 50
114.1372443764902
 51
155.85474579357009
  0
ARC
  5
3676
  8
0
 10
81.441561652972041
 20
10.73193849234249
 30
0.0
 40
15.1340836144538
 50
323.11610347035219
 51
330.77781852118562
  0
ARC
  5
3677
  8
0
 10
92.625334736105316
 20
2.556545102061289
 30
0.0
 40
1.2935369840075941
 50
284.67683698675188
 51
315.41532034392719
  0
ARC
  5
3678
  8
0
 10
92.920478920800747
 20
1.7100360022316461
 30
0.0
 40
0.4061302397028501
 50
176.44080391748631
 51
274.60340305173361
  0
ARC
  5
3679
  8
0
 10
99.236888412561441
 20
1.525053419327274
 30
0.0
 40
6.7250420703399856
 50
155.0225549517526
 51
178.20889586013689
  0
ARC
  5
367A
  8
0
 10
86.080650189571273
 20
7.7789221765705321
 30
0.0
 40
7.8423374172467986
 50
334.1925861839448
 51
357.5722348775256
  0
ARC
  5
367B
  8
0
 10
103.6135778157734
 20
-9.5963750735845501
 30
0.0
 40
16.5416846698655
 50
92.663122665082355
 51
107.62608448270881
  0
ARC
  5
367C
  8
0
 10
103.13742734476889
 20
-8.0731296596352742
 30
0.0
 40
14.945772871746909
 50
107.6546366649582
 51
124.5140400956188
  0
ARC
  5
367D
  8
0
 10
94.192792465098876
 20
4.5962506058745873
 30
0.0
 40
0.4667511037740037
 50
181.27576622697049
 51
280.44516713995711
  0
ARC
  5
367E
  8
0
 10
94.223101482563834
 20
5.1245861945073052
 30
0.0
 40
0.9888446662575562
 50
273.14844343880139
 51
296.8052592001909
  0
ARC
  5
367F
  8
0
 10
91.393705560583925
 20
4.7996412944312894
 30
0.0
 40
2.3422282190604871
 50
354.76314254156352
 51
19.208194363182368
  0
ARC
  5
3680
  8
0
 10
88.698153996297464
 20
-3.993889793640844
 30
0.0
 40
0.3980948269546408
 50
183.7997447047413
 51
268.49009643226861
  0
LINE
  5
3681
  8
0
 10
88.300921234389392
 20
-4.019899280843533
 30
0.0
 11
88.203936408289394
 21
-1.2531856338435361
 31
0.0
  0
ARC
  5
3682
  8
0
 10
284.47680764399388
 20
17.148640824576471
 30
0.0
 40
197.13362777596629
 50
184.43226026300189
 51
185.3561852516919
  0
ARC
  5
3683
  8
0
 10
43.969450208520669
 20
-3.2635316278277382
 30
0.0
 40
44.267114329027272
 50
6.7168497955016511
 51
10.35051287517167
  0
ARC
  5
3684
  8
0
 10
87.354172860805988
 20
-19.67151859375268
 30
0.0
 40
18.437925238722261
 50
75.505865777451831
 51
87.358427430303578
  0
ARC
  5
3685
  8
0
 10
92.208368230178607
 20
3.0055711556545779
 30
0.0
 40
4.8319243479716798
 50
267.15848666023402
 51
275.67326993916492
  0
ARC
  5
3686
  8
0
 10
95.892813133706994
 20
-13.703389137573151
 30
0.0
 40
12.325185697132479
 50
101.0419434635029
 51
105.0808185794084
  0
ARC
  5
3687
  8
0
 10
92.230021014562425
 20
2.5431577881441991
 30
0.0
 40
4.3490582608734094
 50
287.4225566530784
 51
312.62386120497462
  0
ARC
  5
3688
  8
0
 10
88.78347625623087
 20
5.2627940147690424
 30
0.0
 40
8.7118603302068998
 50
317.19514728446188
 51
333.66336410542772
  0
ARC
  5
3689
  8
0
 10
98.537780457873225
 20
0.4521694747374099
 30
0.0
 40
2.1642422947327962
 50
133.47462454746471
 51
154.09081147646049
  0
ARC
  5
368A
  8
0
 10
98.737138498415803
 20
1.361061965477425
 30
0.0
 40
1.8134431977009591
 50
123.4877575993949
 51
158.6010274917119
  0
ARC
  5
368B
  8
0
 10
98.303698640073065
 20
1.9050241302047679
 30
0.0
 40
1.1223008028532619
 50
43.545540787885344
 51
120.35391839043329
  0
ARC
  5
368C
  8
0
 10
97.192587211203346
 20
0.9055574789964992
 30
0.0
 40
2.616549701457592
 50
22.546972218575721
 51
42.64686340052878
  0
ARC
  5
368D
  8
0
 10
99.419275280634679
 20
1.838069316784142
 30
0.0
 40
0.2026308050549015
 50
339.24365094158838
 51
20.444783437027692
  0
ARC
  5
368E
  8
0
 10
99.051216008715926
 20
2.059427076082307
 30
0.0
 40
0.6299184705540292
 50
308.02019192617041
 51
332.26337596418068
  0
ARC
  5
368F
  8
0
 10
97.83049268110598
 20
2.8882295134717948
 30
0.0
 40
2.0841583706761848
 50
292.15457498368659
 51
320.5227795297011
  0
ARC
  5
3690
  8
0
 10
98.243154603386756
 20
2.07485101139391
 30
0.0
 40
1.177634610522081
 50
224.87879710474161
 51
288.48045703940102
  0
ARC
  5
3691
  8
0
 10
99.676103331049944
 20
3.065184391806862
 30
0.0
 40
2.9083113501069562
 50
204.84524666232639
 51
218.77281654273591
  0
ARC
  5
3692
  8
0
 10
97.212264538023234
 20
1.921876755962969
 30
0.0
 40
0.1921418922573317
 50
148.3444530662525
 51
204.17082313051301
  0
ARC
  5
3693
  8
0
 10
93.339159604989405
 20
-4.7876938471435473
 30
0.0
 40
2.40176004200001
 50
105.77958548999941
 51
170.73789048774529
  0
LINE
  5
3694
  8
0
 10
88.687664301689409
 20
-4.391846396243535
 30
0.0
 11
99.998073972189374
 21
-4.4378674058435328
 31
0.0
  0
LINE
  5
3695
  8
0
 10
99.998073972189417
 20
-4.4378674058435328
 30
0.0
 11
102.0074461889897
 21
-4.4931500351532661
 31
0.0
  0
LINE
  5
3696
  8
0
 10
92.686030614989392
 20
-1.8026854463435269
 30
0.0
 11
92.686030614989392
 21
-2.4764443054435361
 31
0.0
  0
LINE
  5
3697
  8
0
 10
93.675787559289404
 20
-1.7124733679935349
 30
0.0
 11
93.680030618289408
 21
-2.2343442641435329
 31
0.0
  0
ARC
  5
3698
  8
0
 10
93.567167752747196
 20
-1.709264256461011
 30
0.0
 40
0.1086672019060572
 50
358.30772045517091
 51
108.7707484123728
  0
ARC
  5
3699
  8
0
 10
93.508139875038836
 20
-2.2615061389161362
 30
0.0
 40
0.1740235458469705
 50
291.01467497209399
 51
8.9795313182695828
  0
ARC
  5
369A
  8
0
 10
92.941412755262775
 20
0.6989178851383571
 30
0.0
 40
3.1856152437318279
 50
265.40182975303537
 51
281.3903300517905
  0
LINE
  5
369B
  8
0
 10
93.584499571411314
 20
-2.4178819403658842
 30
0.0
 11
97.616861140589407
 21
-2.4239551750435342
 31
0.0
  0
ARC
  5
369C
  8
0
 10
97.616840672616604
 20
-0.1626535675657195
 30
0.0
 40
2.2613016075704468
 50
270.0005186077131
 51
1.998796746761788
  0
LINE
  5
369D
  8
0
 10
99.876766413189415
 20
-0.0837827396435316
 30
0.0
 11
99.843566497589435
 21
0.9365295505564645
 31
0.0
  0
ARC
  5
369E
  8
0
 10
98.303403627223759
 20
1.0796188457952871
 30
0.0
 40
1.5467954660086569
 50
354.69215472917892
 51
32.418246680135141
  0
ARC
  5
369F
  8
0
 10
102.4858611754038
 20
7.7725413387045741
 30
0.0
 40
0.3254951801370801
 50
270.10194545038928
 51
346.53194138897851
  0
ARC
  5
36A0
  8
0
 10
95.685504882844029
 20
9.2017179496062482
 30
0.0
 40
7.2742870163565749
 50
348.05977326969582
 51
359.98664486764432
  0
LINE
  5
36A1
  8
0
 10
102.9597917015894
 20
9.2000223785564632
 30
0.0
 11
103.13962319038799
 21
9.1973611710057526
 31
0.0
  0
ARC
  5
36A2
  8
0
 10
102.8391857379783
 20
7.2273746692545302
 30
0.0
 40
0.2999865156111154
 50
271.10919455299211
 51
0.0000245444119248
  0
ARC
  5
36A3
  8
0
 10
92.455903819719879
 20
8.5316273069558406
 30
0.0
 40
1.4037772217007249
 50
114.19902839380831
 51
125.5941419812393
  0
LINE
  5
36A4
  8
0
 10
96.901066777789424
 20
18.47404190230057
 30
0.0
 11
103.2578171062835
 21
18.474041902300559
 31
0.0
  0
ENDSEC
  0
EOF
