  0
SECTION
  2
HEADER
  9
$ACADVER
  1
AC1009
  9
$INSBASE
 10
86.588509937209778
 20
4.9074549211151872
 30
0.0
  9
$EXTMIN
 10
78.04930059542572
 20
4.8996269440329767
 30
0.0
  9
$EXTMAX
 10
94.731752241675323
 20
28.95659872814192
 30
0.0
  9
$LIMMIN
 10
0.0
 20
0.0
  9
$LIMMAX
 10
22.0
 20
17.0
  9
$ORTHOMODE
 70
     0
  9
$REGENMODE
 70
     1
  9
$FILLMODE
 70
     1
  9
$QTEXTMODE
 70
     0
  9
$MIRRTEXT
 70
     0
  9
$DRAGMODE
 70
     2
  9
$LTSCALE
 40
1.2099999999999991
  9
$OSMODE
 70
  3071
  9
$ATTMODE
 70
     1
  9
$TEXTSIZE
 40
0.2
  9
$TRACEWID
 40
0.05
  9
$TEXTSTYLE
  7
STANDARD
  9
$CLAYER
  8
0
  9
$CELTYPE
  6
BYLAYER
  9
$CECOLOR
 62
   256
  9
$DIMSCALE
 40
1.0
  9
$DIMASZ
 40
0.1875
  9
$DIMEXO
 40
0.0625
  9
$DIMDLI
 40
0.8359999999999999
  9
$DIMRND
 40
0.0
  9
$DIMDLE
 40
0.0
  9
$DIMEXE
 40
0.125
  9
$DIMTP
 40
0.0
  9
$DIMTM
 40
0.0
  9
$DIMTXT
 40
0.5
  9
$DIMCEN
 40
0.198
  9
$DIMTSZ
 40
0.0
  9
$DIMTOL
 70
     0
  9
$DIMLIM
 70
     0
  9
$DIMTIH
 70
     1
  9
$DIMTOH
 70
     1
  9
$DIMSE1
 70
     0
  9
$DIMSE2
 70
     0
  9
$DIMTAD
 70
     0
  9
$DIMZIN
 70
     0
  9
$DIMBLK
  1

  9
$DIMASO
 70
     1
  9
$DIMSHO
 70
     1
  9
$DIMPOST
  1
\X
  9
$DIMAPOST
  1

  9
$DIMALT
 70
     1
  9
$DIMALTD
 70
     2
  9
$DIMALTF
 40
25.399999999999999
  9
$DIMLFAC
 40
1.0
  9
$DIMTOFL
 70
     0
  9
$DIMTVP
 40
0.0
  9
$DIMTIX
 70
     0
  9
$DIMSOXD
 70
     0
  9
$DIMSAH
 70
     0
  9
$DIMBLK1
  1

  9
$DIMBLK2
  1

  9
$DIMSTYLE
  2
STANDARD
  9
$DIMCLRD
 70
     0
  9
$DIMCLRE
 70
     0
  9
$DIMCLRT
 70
     0
  9
$DIMTFAC
 40
1.0
  9
$DIMGAP
 40
0.09
  9
$LUNITS
 70
     2
  9
$LUPREC
 70
     4
  9
$SKETCHINC
 40
0.1
  9
$FILLETRAD
 40
0.0
  9
$AUNITS
 70
     0
  9
$AUPREC
 70
     0
  9
$MENU
  1
.
  9
$ELEVATION
 40
0.0
  9
$PELEVATION
 40
0.0
  9
$THICKNESS
 40
0.0
  9
$LIMCHECK
 70
     0
  9
$BLIPMODE
 70
     0
  9
$CHAMFERA
 40
0.0
  9
$CHAMFERB
 40
0.0
  9
$SKPOLY
 70
     0
  9
$TDCREATE
 40
2457976.4815514698
  9
$TDUPDATE
 40
2458232.5322040631
  9
$TDINDWG
 40
0.5443157523
  9
$TDUSRTIMER
 40
0.5443157523
  9
$USRTIMER
 70
     1
  9
$ANGBASE
 50
0.0
  9
$ANGDIR
 70
     0
  9
$PDMODE
 70
     0
  9
$PDSIZE
 40
0.3125
  9
$PLINEWID
 40
0.0
  9
$COORDS
 70
     1
  9
$SPLFRAME
 70
     0
  9
$SPLINETYPE
 70
     6
  9
$SPLINESEGS
 70
     8
  9
$ATTDIA
 70
     1
  9
$ATTREQ
 70
     1
  9
$HANDLING
 70
     1
  9
$HANDSEED
  5
23D1
  9
$SURFTAB1
 70
     6
  9
$SURFTAB2
 70
     6
  9
$SURFTYPE
 70
     6
  9
$SURFU
 70
     6
  9
$SURFV
 70
     6
  9
$UCSNAME
  2

  9
$UCSORG
 10
0.0
 20
0.0
 30
0.0
  9
$UCSXDIR
 10
1.0
 20
0.0
 30
0.0
  9
$UCSYDIR
 10
0.0
 20
1.0
 30
0.0
  9
$PUCSNAME
  2

  9
$PUCSORG
 10
0.0
 20
0.0
 30
0.0
  9
$PUCSXDIR
 10
1.0
 20
0.0
 30
0.0
  9
$PUCSYDIR
 10
0.0
 20
1.0
 30
0.0
  9
$USERI1
 70
     0
  9
$USERI2
 70
     0
  9
$USERI3
 70
     0
  9
$USERI4
 70
     0
  9
$USERI5
 70
     0
  9
$USERR1
 40
0.0
  9
$USERR2
 40
0.0
  9
$USERR3
 40
0.0
  9
$USERR4
 40
0.0
  9
$USERR5
 40
0.0
  9
$WORLDVIEW
 70
     1
  9
$SHADEDGE
 70
     3
  9
$SHADEDIF
 70
    70
  9
$TILEMODE
 70
     1
  9
$MAXACTVP
 70
    48
  9
$PLIMCHECK
 70
     0
  9
$PEXTMIN
 10
1.0000000000000000E+020
 20
1.0000000000000000E+020
 30
1.0000000000000000E+020
  9
$PEXTMAX
 10
-1.0000000000000000E+020
 20
-1.0000000000000000E+020
 30
-1.0000000000000000E+020
  9
$PLIMMIN
 10
0.0
 20
0.0
  9
$PLIMMAX
 10
12.0
 20
9.0
  9
$UNITMODE
 70
     0
  9
$VISRETAIN
 70
     1
  9
$PLINEGEN
 70
     0
  9
$PSLTSCALE
 70
     1
  0
ENDSEC
  0
SECTION
  2
TABLES
  0
TABLE
  2
VPORT
 70
     1
  0
VPORT
  2
*ACTIVE
 70
     0
 10
0.0
 20
0.0
 11
1.0
 21
1.0
 12
0.0
 22
0.0
 13
0.0
 23
0.0
 14
1.0
 24
1.0
 15
0.0
 25
0.0
 16
-0.0000000000000142
 26
0.0
 36
82.335644694735592
 17
86.394889010940659
 27
16.92811283608745
 37
0.0
 40
29.291935702640771
 41
2.0983240223463682
 42
50.0
 43
0.0
 44
0.0
 50
0.0
 51
0.0
 71
     0
 72
   100
 73
     1
 74
     1
 75
     0
 76
     0
 77
     0
 78
     0
  0
ENDTAB
  0
TABLE
  2
LTYPE
 70
     2
  0
LTYPE
  2
CONTINUOUS
 70
     0
  3
Solid line
 72
    65
 73
     0
 40
0.0
  0
LTYPE
  2
PHANTOM2
 70
     0
  3
___ _ _ ___ _ _ ___ _ _ ___ _ _
 72
    65
 73
     6
 40
1.25
 49
0.625
 49
-0.125
 49
0.125
 49
-0.125
 49
0.125
 49
-0.125
  0
ENDTAB
  0
TABLE
  2
LAYER
 70
     2
  0
LAYER
  2
0
 70
     0
 62
     7
  6
CONTINUOUS
  0
LAYER
  2
DEFPOINTS
 70
     0
 62
     7
  6
CONTINUOUS
  0
ENDTAB
  0
TABLE
  2
STYLE
 70
     1
  0
STYLE
  2
STANDARD
 70
     0
 40
0.0
 41
0.8
 50
0.0
 71
     0
 42
0.2
  3
txt
  4

  0
ENDTAB
  0
TABLE
  2
VIEW
 70
     0
  0
ENDTAB
  0
TABLE
  2
UCS
 70
     0
  0
ENDTAB
  0
TABLE
  2
APPID
 70
     7
  0
APPID
  2
ACAD
 70
     0
  0
APPID
  2
ACAD_MLEADERVER
 70
     0
  0
APPID
  2
ACAD_NAV_VCDISPLAY
 70
     0
  0
APPID
  2
ACAD_EXEMPT_FROM_CAD_STANDARDS
 70
     0
  0
APPID
  2
ACAD_DSTYLE_DIMJAG
 70
     0
  0
APPID
  2
ACAD_DSTYLE_DIMTALN
 70
     0
  0
APPID
  2
ACDBATTR
 70
     0
  0
ENDTAB
  0
TABLE
  2
DIMSTYLE
 70
     1
  0
DIMSTYLE
  2
STANDARD
 70
     0
  3

  4

  5

  6

  7

 40
1.0
 41
0.1875
 42
0.0625
 43
0.38
 44
0.125
 45
0.0
 46
0.0
 47
1.5
 48
1.5
140
0.15625
141
0.09
142
0.0
143
25.399999999999999
144
1.0
145
0.0
146
1.0
147
0.09
 71
     0
 72
     0
 73
     1
 74
     1
 75
     0
 76
     0
 77
     0
 78
     4
170
     0
171
     2
172
     0
173
     0
174
     0
175
     0
176
     0
177
     0
178
     0
  0
ENDTAB
  0
ENDSEC
  0
SECTION
  2
BLOCKS
  0
BLOCK
  8
0
  2
$MODEL_SPACE
 70
     0
 10
0.0
 20
0.0
 30
0.0
  3
$MODEL_SPACE
  1

  0
ENDBLK
  5
21
  8
0
  0
BLOCK
 67
     1
  8
0
  2
$PAPER_SPACE
 70
     0
 10
0.0
 20
0.0
 30
0.0
  3
$PAPER_SPACE
  1

  0
ENDBLK
  5
1D
 67
     1
  8
0
  0
ENDSEC
  0
SECTION
  2
ENTITIES
  0
ATTDEF
  5
1F67
  8
DEFPOINTS
 10
86.582605594545953
 20
4.9046269440329731
 30
0.0
 40
0.001
  1
K-4007
  3

  2
MODELNUMBER
 70
     0
1001
ACDBATTR
1070
     0
1070
     1
  0
ATTDEF
  5
1F68
  8
DEFPOINTS
 10
86.582605594545953
 20
4.902960277366307
 30
0.0
 40
0.001
  1
SAN SOUCI
  3

  2
TRADENAME
 70
     0
1001
ACDBATTR
1070
     0
1070
     1
  0
ATTDEF
  5
1F69
  8
DEFPOINTS
 10
86.582605594545953
 20
4.9012936106996419
 30
0.0
 40
0.001
  1
TOILET
  3

  2
PRODUCT
 70
     0
1001
ACDBATTR
1070
     0
1070
     1
  0
ATTDEF
  5
1F6A
  8
DEFPOINTS
 10
86.582605594545953
 20
4.8996269440329767
 30
0.0
 40
0.001
  1
VITREOUS CHINA
  3

  2
MATERIAL
 70
     0
1001
ACDBATTR
1070
     0
1070
     1
  0
LINE
  5
224B
  8
0
 10
94.332740555415796
 20
20.156470649096811
 30
0.0
 11
78.844279317200559
 21
20.156470669545179
 31
0.0
  0
LINE
  5
224C
  8
0
 10
79.620956211561776
 20
20.29460731111833
 30
0.0
 11
93.556063803613313
 21
20.294607323018109
 31
0.0
  0
LINE
  5
224D
  8
0
 10
78.599461593444246
 20
25.87268776341519
 30
0.0
 11
78.811050803944255
 21
25.853418579215191
 31
0.0
  0
LINE
  5
224E
  8
0
 10
94.416364829605655
 20
27.546470665503328
 30
0.0
 11
78.760655044813873
 21
27.546470665503339
 31
0.0
  0
LINE
  5
224F
  8
0
 10
92.5284429179098
 20
4.9074549211151872
 30
0.0
 11
80.648576956509757
 21
4.9074549211151872
 31
0.0
  0
ARC
  5
2250
  8
0
 10
46.71493970297044
 20
7.8717435477387108
 30
0.0
 40
34.062864593523571
 50
355.00757388779641
 51
357.59659911422278
  0
ARC
  5
2251
  8
0
 10
31.081848303990299
 20
8.1841711973679594
 30
0.0
 40
49.696492461907788
 50
357.99253622225808
 51
5.9060146949677144
  0
ARC
  5
2252
  8
0
 10
64.323590965915145
 20
11.56608195267021
 30
0.0
 40
16.283306025840972
 50
6.1048716640178
 51
22.423931002368558
  0
ARC
  5
2253
  8
0
 10
86.920845938598305
 20
676.49390456923504
 30
0.0
 40
658.53865135887804
 50
269.3429806942932
 51
269.97108529464617
  0
ARC
  5
2254
  8
0
 10
79.159170352971827
 20
17.72304886478106
 30
0.0
 40
0.2232252102790983
 50
14.10662791181182
 51
67.626837337018614
  0
LINE
  5
2255
  8
0
 10
79.244138189237034
 20
17.92947066911519
 30
0.0
 11
79.022113165277744
 21
17.92947066911519
 31
0.0
  0
ARC
  5
2256
  8
0
 10
78.987169792086945
 20
18.36627215366688
 30
0.0
 40
0.4381969605514272
 50
195.2832455080796
 51
274.57382408405482
  0
ARC
  5
2257
  8
0
 10
79.930440885776335
 20
18.855727466779971
 30
0.0
 40
1.493938926937209
 50
173.7902167157919
 51
203.88755398856139
  0
ARC
  5
2258
  8
0
 10
568.48294228530983
 20
-0.5553475972369313
 30
0.0
 40
490.42839651803757
 50
176.9127464537637
 51
177.7127558713496
  0
ARC
  5
2259
  8
0
 10
1651.1759810115559
 20
-77.932128097330605
 30
0.0
 40
1575.8431104156321
 50
176.16661264681571
 51
176.17814969981109
  0
ARC
  5
225A
  8
0
 10
78.927906963548068
 20
27.417113537295069
 30
0.0
 40
0.0695017557281216
 50
93.69727822963911
 51
176.4816689212953
  0
LINE
  5
225B
  8
0
 10
94.198422992823595
 20
28.956598728141909
 30
0.0
 11
78.978596881596019
 21
28.95659872814192
 31
0.0
  0
ARC
  5
225C
  8
0
 10
79.01496124496245
 20
28.672955811044648
 30
0.0
 40
0.2859644581805447
 50
97.305737039790174
 51
169.92962874013531
  0
LINE
  5
225D
  8
0
 10
78.733402431344246
 20
28.722958869115189
 30
0.0
 11
78.663383567944237
 21
27.652984940015202
 31
0.0
  0
ARC
  5
225E
  8
0
 10
78.763219268669445
 20
27.646484878000869
 30
0.0
 40
0.1000470786454183
 50
176.27486746955651
 51
268.53133847843412
  0
ARC
  5
225F
  8
0
 10
79.390479804861755
 20
17.812202682297471
 30
0.0
 40
0.1875303953921369
 50
96.438782149882996
 51
141.29374210470391
  0
ARC
  5
2260
  8
0
 10
79.267899763606977
 20
27.41025740748594
 30
0.0
 40
0.0764380193746549
 50
94.39487699881407
 51
170.34676730765131
  0
ARC
  5
2261
  8
0
 10
1078.2028927803401
 20
-37.758852006045828
 30
0.0
 40
1001.134536640462
 50
176.26694236583819
 51
176.61319358922469
  0
ARC
  5
2262
  8
0
 10
88.171175643558513
 20
20.978950825714549
 30
0.0
 40
9.3630907658701066
 50
177.51644534125231
 51
185.03951733248979
  0
ARC
  5
2263
  8
0
 10
84.623082289101944
 20
-10.837305063618739
 30
0.0
 40
32.681729515846129
 50
95.361933194504644
 51
97.916906062505646
  0
ARC
  5
2264
  8
0
 10
80.026091870364453
 20
21.226894314232752
 30
0.0
 40
0.2823338792180711
 50
104.6272563082226
 51
159.16940784917651
  0
ARC
  5
2265
  8
0
 10
80.316636257259646
 20
20.102741097341202
 30
0.0
 40
1.443426042562542
 50
97.765370060860874
 51
104.5179200042564
  0
LINE
  5
2266
  8
0
 10
80.119311456277856
 20
21.532615799287239
 30
0.0
 11
80.036096968944236
 21
21.513066261915188
 31
0.0
  0
LINE
  5
2267
  8
0
 10
80.036096968944236
 20
21.513066261915188
 30
0.0
 11
80.000994140744254
 21
21.499923683115188
 31
0.0
  0
LINE
  5
2268
  8
0
 10
80.000994140744254
 20
21.499923683115188
 30
0.0
 11
80.008727575044233
 21
21.488875266215189
 31
0.0
  0
LINE
  5
2269
  8
0
 10
80.008727575044233
 20
21.488875266215189
 30
0.0
 11
80.056631314544234
 21
21.47961472011519
 31
0.0
  0
ARC
  5
226A
  8
0
 10
151.10073599834629
 20
1359.4383814312851
 30
0.0
 40
1339.843620065267
 50
266.96051304926391
 51
266.98287020740082
  0
ARC
  5
226B
  8
0
 10
85.261098714673864
 20
982.28669679639211
 30
0.0
 40
960.84611118319833
 50
269.72078586724598
 51
270.07915428291483
  0
ARC
  5
226C
  8
0
 10
83.714975578676544
 20
19.888154938997442
 30
0.0
 40
4.2065968674085372
 50
159.9942289257877
 51
173.14349892435331
  0
ARC
  5
226D
  8
0
 10
79.628561810792434
 20
20.38457030423675
 30
0.0
 40
0.0902839147937363
 50
176.32862057724029
 51
265.16762428587941
  0
ARC
  5
226E
  8
0
 10
80.154684503594837
 20
20.102126553409501
 30
0.0
 40
0.1947192952949904
 50
25.814673119765551
 51
81.303745783655728
  0
ARC
  5
226F
  8
0
 10
80.380261303949084
 20
20.213223478639041
 30
0.0
 40
0.0567529610876052
 50
207.61221002463901
 51
270.13171627948549
  0
LINE
  5
2270
  8
0
 10
78.909747721244244
 20
27.100725812815192
 30
0.0
 11
78.69761463284425
 21
27.112592301115189
 31
0.0
  0
ARC
  5
2271
  8
0
 10
78.697388487410166
 20
27.087658022365581
 30
0.0
 40
0.0249353042596448
 50
89.480361000337822
 51
156.07865063845949
  0
ARC
  5
2272
  8
0
 10
78.810108197101215
 20
27.034575012919749
 30
0.0
 40
0.1495234854744128
 50
154.99895289359699
 51
169.68726364787909
  0
ARC
  5
2273
  8
0
 10
78.398876910706704
 20
27.152853257190571
 30
0.0
 40
0.2795268859293903
 50
321.25073164789802
 51
340.89040943945821
  0
ARC
  5
2274
  8
0
 10
78.282572012408991
 20
27.22582958288708
 30
0.0
 40
0.416212238566216
 50
305.42270275147342
 51
323.43773310649328
  0
ARC
  5
2275
  8
0
 10
78.188904579539667
 20
27.385258813351552
 30
0.0
 40
0.6006360468795321
 50
282.35403854188939
 51
303.8889607180256
  0
ARC
  5
2276
  8
0
 10
78.126779163407917
 20
27.647566436696621
 30
0.0
 40
0.8701735545541067
 50
269.00673435197621
 51
282.65466211001251
  0
ARC
  5
2277
  8
0
 10
78.113429348543306
 20
26.752707388542021
 30
0.0
 40
0.0248767909619853
 50
93.998219181550851
 51
170.53086379479689
  0
ARC
  5
2278
  8
0
 10
79.397176930291295
 20
26.501205959095721
 30
0.0
 40
1.3330187705941581
 50
168.94560805846839
 51
176.62515397003821
  0
ARC
  5
2279
  8
0
 10
81.917462584982886
 20
26.257585975316712
 30
0.0
 40
3.8644388892319119
 50
175.2189791409217
 51
177.68875028398691
  0
ARC
  5
227A
  8
0
 10
81.471175091535855
 20
26.098443231338159
 30
0.0
 40
3.429503550297468
 50
174.73015865532011
 51
176.1775845030096
  0
ARC
  5
227B
  8
0
 10
78.087879163547967
 20
26.333465495161601
 30
0.0
 40
0.0391053305903742
 50
189.4149014399147
 51
248.63029764559889
  0
ARC
  5
227C
  8
0
 10
77.985994751960135
 20
25.538112864448049
 30
0.0
 40
0.7639787413206534
 50
53.357301747656791
 51
83.413174054788129
  0
ARC
  5
227D
  8
0
 10
78.225401417671577
 20
25.873077990022679
 30
0.0
 40
0.3524151949863538
 50
3.8642230172345982
 51
52.085581844335898
  0
ARC
  5
227E
  8
0
 10
78.604678085664105
 20
25.900043794780739
 30
0.0
 40
0.0278489540764805
 50
186.6307687102323
 51
259.20394052997779
  0
LINE
  5
227F
  8
0
 10
78.811050803944255
 20
25.853418579215191
 30
0.0
 11
78.812796990744246
 21
25.85402189281519
 31
0.0
  0
LINE
  5
2280
  8
0
 10
78.812796990744246
 20
25.85402189281519
 30
0.0
 11
78.819232762544246
 21
25.866524076715191
 31
0.0
  0
ARC
  5
2281
  8
0
 10
77.738747343824713
 20
26.147355154557911
 30
0.0
 40
1.116384716102756
 50
345.43050907209579
 51
353.97619455052779
  0
ARC
  5
2282
  8
0
 10
69.656213301444154
 20
27.209915657456431
 30
0.0
 40
9.2681424624759448
 50
352.6871428782535
 51
356.97444872291442
  0
LINE
  5
2283
  8
0
 10
78.909747721244244
 20
27.100725812815192
 30
0.0
 11
78.911110443844251
 21
27.1001351660152
 31
0.0
  0
LINE
  5
2284
  8
0
 10
78.911110443844251
 20
27.1001351660152
 30
0.0
 11
78.915733060844246
 21
27.08760416301519
 31
0.0
  0
ARC
  5
2285
  8
0
 10
76.095141545130744
 20
26.937172483559952
 30
0.0
 40
2.8246001820963489
 50
355.60527337677081
 51
3.0528851875523739
  0
LINE
  5
2286
  8
0
 10
78.919676216403388
 20
26.917935033691322
 30
0.0
 11
78.959189052544247
 21
26.915032017015189
 31
0.0
  0
LINE
  5
2287
  8
0
 10
78.959189052544247
 20
26.915032017015189
 30
0.0
 11
78.962095600844236
 21
26.911023988515179
 31
0.0
  0
LINE
  5
2288
  8
0
 10
78.848967807394246
 20
26.03019988741519
 30
0.0
 11
78.888900103444243
 21
26.027810936615179
 31
0.0
  0
ARC
  5
2289
  8
0
 10
74.688222373656373
 20
26.820577905225701
 30
0.0
 40
4.2748301552290648
 50
349.31263436728489
 51
1.212344203694053
  0
LINE
  5
228A
  8
0
 10
78.69761463284425
 20
27.112592301115189
 30
0.0
 11
78.699572104644247
 21
27.111376914915191
 31
0.0
  0
ARC
  5
228B
  8
0
 10
78.590730417950553
 20
27.069899541345642
 30
0.0
 40
0.116476973177345
 50
358.18136142744447
 51
20.860835591361379
  0
ARC
  5
228C
  8
0
 10
75.929309859407766
 20
26.984200480329271
 30
0.0
 40
2.779048966393709
 50
355.69524846835787
 51
1.6908959457217461
  0
ARC
  5
228D
  8
0
 10
83.896678900274054
 20
25.758259464798918
 30
0.0
 40
5.2948147213864143
 50
168.92234614852819
 51
169.7014367673853
  0
LINE
  5
228E
  8
0
 10
78.111694802644251
 20
26.777523634815189
 30
0.0
 11
78.701161021644253
 21
26.703086169515188
 31
0.0
  0
LINE
  5
228F
  8
0
 10
78.073629791244286
 20
26.297048709615179
 30
0.0
 11
78.670862871444243
 21
26.289238806615192
 31
0.0
  0
LINE
  5
2290
  8
0
 10
78.599461593444275
 20
25.872687763415168
 30
0.0
 11
78.601502996744244
 21
25.873538278415189
 31
0.0
  0
ARC
  5
2291
  8
0
 10
78.530430342446095
 20
25.91620006550794
 30
0.0
 40
0.082893608118662
 50
329.02545964883478
 51
349.30788869384003
  0
ARC
  5
2292
  8
0
 10
75.694423115992691
 20
26.505712242346789
 30
0.0
 40
2.9795094122960419
 50
348.28654997877658
 51
354.31374539550058
  0
ARC
  5
2293
  8
0
 10
71.919448484231225
 20
26.01849780206993
 30
0.0
 40
6.7425572560274301
 50
1.6317795879320149
 51
2.3028314331398358
  0
LINE
  5
2294
  8
0
 10
78.701161021644253
 20
26.703086169515188
 30
0.0
 11
78.747745653944236
 21
26.571484665415191
 31
0.0
  0
LINE
  5
2295
  8
0
 10
78.747745653944236
 20
26.571484665415191
 30
0.0
 11
78.737558227744245
 21
26.425663829365192
 31
0.0
  0
LINE
  5
2296
  8
0
 10
78.737558227744245
 20
26.425663829365192
 30
0.0
 11
78.670862871444243
 21
26.289238806615192
 31
0.0
  0
LINE
  5
2297
  8
0
 10
78.111694802644251
 20
26.777523634815189
 30
0.0
 11
78.20730450114425
 21
26.587613676815199
 31
0.0
  0
LINE
  5
2298
  8
0
 10
78.20730450114425
 20
26.587613676815199
 30
0.0
 11
78.199912166480942
 21
26.486688572222921
 31
0.0
  0
LINE
  5
2299
  8
0
 10
78.199912166480942
 20
26.486688572222921
 30
0.0
 11
78.073629791244286
 21
26.297048709615179
 31
0.0
  0
LINE
  5
229A
  8
0
 10
78.20730450114425
 20
26.587613676815199
 30
0.0
 11
78.747745653944236
 21
26.571484665415191
 31
0.0
  0
LINE
  5
229B
  8
0
 10
78.199912166480942
 20
26.486688572222921
 30
0.0
 11
78.736604136154881
 21
26.423712713395069
 31
0.0
  0
ARC
  5
229C
  8
0
 10
79.336621571770593
 20
28.678164336741311
 30
0.0
 40
0.278798187121899
 50
92.927309803112195
 51
171.31363339754731
  0
LINE
  5
229D
  8
0
 10
79.06102124140007
 20
28.720270001943451
 30
0.0
 11
78.997546528044239
 21
27.652840684515191
 31
0.0
  0
ARC
  5
229E
  8
0
 10
79.100207118611536
 20
27.64916645062906
 30
0.0
 40
0.1027263201437367
 50
177.9502526137758
 51
268.60288454011283
  0
LINE
  5
229F
  8
0
 10
78.923425149547825
 20
27.486470637815199
 30
0.0
 11
94.253594724871732
 21
27.486470637815199
 31
0.0
  0
ARC
  5
22A0
  8
0
 10
79.127873358061976
 20
27.629952685398631
 30
0.0
 40
0.1437071698691366
 50
273.207706061029
 51
324.48486822615263
  0
ARC
  5
22A1
  8
0
 10
83.202256943417865
 20
19.912970118992291
 30
0.0
 40
0.4029705327738104
 50
37.175891022675913
 51
71.273128575366584
  0
LINE
  5
22A2
  8
0
 10
79.351439483492243
 20
18.060466874217859
 30
0.0
 11
79.444882561392262
 21
19.919142925817859
 31
0.0
  0
ARC
  5
22A3
  8
0
 10
79.618097331746341
 20
18.05054401361571
 30
0.0
 40
0.266842408919639
 50
177.8688951745352
 51
191.64676162437959
  0
ARC
  5
22A4
  8
0
 10
79.693978263364812
 20
19.907083497440521
 30
0.0
 40
0.2493874466648144
 50
90.085163070103775
 51
177.2283131277249
  0
ARC
  5
22A5
  8
0
 10
89.136370935474019
 20
-382.69940822697271
 30
0.0
 40
404.47162099858519
 50
90.360921854238015
 51
91.072014068037305
  0
ARC
  5
22A6
  8
0
 10
126.4620801714491
 20
7.8717435477387108
 30
0.0
 40
34.062864593523571
 50
182.4034008857771
 51
184.99242611220359
  0
ARC
  5
22A7
  8
0
 10
142.09517157042919
 20
8.1841711973679594
 30
0.0
 40
49.696492461907788
 50
174.09398530503219
 51
182.0074637777418
  0
ARC
  5
22A8
  8
0
 10
108.8534289085044
 20
11.56608195267021
 30
0.0
 40
16.283306025840972
 50
157.57606899763141
 51
173.89512833598201
  0
ARC
  5
22A9
  8
0
 10
86.256173935821266
 20
676.49390456923504
 30
0.0
 40
658.53865135887804
 50
270.02891470535383
 51
270.6570193057068
  0
ARC
  5
22AA
  8
0
 10
94.017849521447744
 20
17.72304886478106
 30
0.0
 40
0.2232252102790983
 50
112.3731626629814
 51
165.8933720881881
  0
LINE
  5
22AB
  8
0
 10
93.932881685182537
 20
17.92947066911519
 30
0.0
 11
94.154906709141812
 21
17.92947066911519
 31
0.0
  0
ARC
  5
22AC
  8
0
 10
94.189850082332626
 20
18.36627215366688
 30
0.0
 40
0.4381969605514272
 50
265.42617591594438
 51
344.7167544919202
  0
ARC
  5
22AD
  8
0
 10
93.246578988643208
 20
18.855727466779971
 30
0.0
 40
1.493938926937209
 50
336.11244601143852
 51
6.2097832842080392
  0
ARC
  5
22AE
  8
0
 10
-340.80021181804977
 20
1.8122676380957441
 30
0.0
 40
435.8716619991701
 50
2.2622103187247098
 51
3.3682838520864649
  0
ARC
  5
22AF
  8
0
 10
94.249112910871503
 20
27.417113537295069
 30
0.0
 40
0.0695017557281216
 50
3.5183310787046809
 51
86.30272177036008
  0
ARC
  5
22B0
  8
0
 10
94.162058629457121
 20
28.672955811044648
 30
0.0
 40
0.2859644581805447
 50
10.07037125986473
 51
82.694262960209826
  0
LINE
  5
22B1
  8
0
 10
94.443617443075311
 20
28.722958869115189
 30
0.0
 11
94.513636306475334
 21
27.652984940015202
 31
0.0
  0
ARC
  5
22B2
  8
0
 10
94.413800605750126
 20
27.646484878000869
 30
0.0
 40
0.1000470786454183
 50
271.46866152156502
 51
3.7251325304435081
  0
ARC
  5
22B3
  8
0
 10
93.786540069557816
 20
17.812202682297471
 30
0.0
 40
0.1875303953921369
 50
38.706257895296112
 51
83.561217850116989
  0
ARC
  5
22B4
  8
0
 10
93.90912011081258
 20
27.41025740748594
 30
0.0
 40
0.0764380193746549
 50
9.6532326923486611
 51
85.605123001185945
  0
ARC
  5
22B5
  8
0
 10
-905.02587290592066
 20
-37.758852006045828
 30
0.0
 40
1001.134536640462
 50
3.386806410775276
 51
3.7330576341617832
  0
ARC
  5
22B6
  8
0
 10
85.005844230860646
 20
20.978950825714559
 30
0.0
 40
9.3630907658704885
 50
354.96048254189452
 51
2.4835546587475901
  0
ARC
  5
22B7
  8
0
 10
88.553937585317613
 20
-10.837305063618739
 30
0.0
 40
32.681729515846129
 50
82.083093937494354
 51
84.638066805495356
  0
ARC
  5
22B8
  8
0
 10
93.150928004055103
 20
21.226894314232752
 30
0.0
 40
0.2823338792180711
 50
20.830592150823541
 51
75.372743691777401
  0
ARC
  5
22B9
  8
0
 10
92.860383617159926
 20
20.102741097341202
 30
0.0
 40
1.443426042562542
 50
75.482079995743575
 51
82.234629939139097
  0
LINE
  5
22BA
  8
0
 10
93.057708418141715
 20
21.532615799287239
 30
0.0
 11
93.140922905475335
 21
21.513066261915188
 31
0.0
  0
LINE
  5
22BB
  8
0
 10
93.140922905475335
 20
21.513066261915188
 30
0.0
 11
93.176025733675317
 21
21.499923683115188
 31
0.0
  0
LINE
  5
22BC
  8
0
 10
93.176025733675317
 20
21.499923683115188
 30
0.0
 11
93.168292299375295
 21
21.488875266215189
 31
0.0
  0
LINE
  5
22BD
  8
0
 10
93.168292299375295
 20
21.488875266215189
 30
0.0
 11
93.120388559875323
 21
21.47961472011519
 31
0.0
  0
ARC
  5
22BE
  8
0
 10
22.076283876073209
 20
1359.4383814312851
 30
0.0
 40
1339.843620065267
 50
273.01712979259833
 51
273.0394869507362
  0
ARC
  5
22BF
  8
0
 10
87.915921159745693
 20
982.28669679639211
 30
0.0
 40
960.84611118319833
 50
269.92084571708517
 51
270.27921413275391
  0
ARC
  5
22C0
  8
0
 10
89.462044295743027
 20
19.888154938997442
 30
0.0
 40
4.2065968674085372
 50
6.8565010756466327
 51
20.005771074212269
  0
ARC
  5
22C1
  8
0
 10
93.548458063627123
 20
20.38457030423675
 30
0.0
 40
0.090283914793739
 50
274.8324653587344
 51
3.671379422758362
  0
ARC
  5
22C2
  8
0
 10
93.02233537082472
 20
20.102126553409501
 30
0.0
 40
0.1947192952949904
 50
98.696254216344272
 51
154.18532688023441
  0
ARC
  5
22C3
  8
0
 10
92.796758570470487
 20
20.213223478639041
 30
0.0
 40
0.0567529610876052
 50
269.86828372051451
 51
332.38778997536087
  0
ARC
  5
22C4
  8
0
 10
93.840398302648964
 20
28.678164336741311
 30
0.0
 40
0.278798187121899
 50
8.6863666024527344
 51
87.072690196887805
  0
LINE
  5
22C5
  8
0
 10
94.115998633019487
 20
28.720270001943451
 30
0.0
 11
94.179473346375303
 21
27.652840684515191
 31
0.0
  0
ARC
  5
22C6
  8
0
 10
94.076812755808035
 20
27.64916645062906
 30
0.0
 40
0.1027263201437367
 50
271.39711545988638
 51
2.049747386224182
  0
ARC
  5
22C7
  8
0
 10
94.049146516357581
 20
27.629952685398631
 30
0.0
 40
0.1437071698691366
 50
215.5151317738474
 51
266.79229393897089
  0
ARC
  5
22C8
  8
0
 10
89.974762931001678
 20
19.912970118992291
 30
0.0
 40
0.4029705327738104
 50
108.7268714246334
 51
142.82410897732399
  0
LINE
  5
22C9
  8
0
 10
93.825580390927314
 20
18.060466874217859
 30
0.0
 11
93.732137313027295
 21
19.919142925817859
 31
0.0
  0
ARC
  5
22CA
  8
0
 10
93.558922542673216
 20
18.05054401361571
 30
0.0
 40
0.266842408919639
 50
348.35323837562038
 51
2.131104825464734
  0
ARC
  5
22CB
  8
0
 10
93.483041611054745
 20
19.907083497440521
 30
0.0
 40
0.2493874466648144
 50
2.7716868722749539
 51
89.914836929896225
  0
ARC
  5
22CC
  8
0
 10
84.040648938945537
 20
-382.69940822697271
 30
0.0
 40
404.47162099858519
 50
88.927985931962695
 51
89.639078145761971
  0
ENDSEC
  0
EOF
