  0
SECTION
  2
HEADER
  9
$ACADVER
  1
AC1009
  9
$INSBASE
 10
-34.183232810236802
 20
-3.7876249889999989
 30
0.0
  9
$EXTMIN
 10
-34.187947256460291
 20
-3.796197002266283
 30
0.0
  9
$EXTMAX
 10
-5.4401085289999989
 20
21.54049743933335
 30
0.0
  9
$LIMMIN
 10
0.0
 20
0.0
  9
$LIMMAX
 10
22.0
 20
17.0
  9
$ORTHOMODE
 70
     1
  9
$REGENMODE
 70
     1
  9
$FILLMODE
 70
     1
  9
$QTEXTMODE
 70
     0
  9
$MIRRTEXT
 70
     0
  9
$DRAGMODE
 70
     2
  9
$LTSCALE
 40
1.2099999999999991
  9
$OSMODE
 70
    47
  9
$ATTMODE
 70
     1
  9
$TEXTSIZE
 40
0.2
  9
$TRACEWID
 40
0.05
  9
$TEXTSTYLE
  7
STANDARD
  9
$CLAYER
  8
0
  9
$CELTYPE
  6
BYLAYER
  9
$CECOLOR
 62
   256
  9
$DIMSCALE
 40
1.0
  9
$DIMASZ
 40
0.1875
  9
$DIMEXO
 40
0.0625
  9
$DIMDLI
 40
0.8359999999999999
  9
$DIMRND
 40
0.0
  9
$DIMDLE
 40
0.0
  9
$DIMEXE
 40
0.125
  9
$DIMTP
 40
0.0
  9
$DIMTM
 40
0.0
  9
$DIMTXT
 40
0.15625
  9
$DIMCEN
 40
0.198
  9
$DIMTSZ
 40
0.0
  9
$DIMTOL
 70
     0
  9
$DIMLIM
 70
     0
  9
$DIMTIH
 70
     1
  9
$DIMTOH
 70
     1
  9
$DIMSE1
 70
     0
  9
$DIMSE2
 70
     0
  9
$DIMTAD
 70
     0
  9
$DIMZIN
 70
     0
  9
$DIMBLK
  1

  9
$DIMASO
 70
     1
  9
$DIMSHO
 70
     1
  9
$DIMPOST
  1

  9
$DIMAPOST
  1

  9
$DIMALT
 70
     0
  9
$DIMALTD
 70
     2
  9
$DIMALTF
 40
25.399999999999999
  9
$DIMLFAC
 40
1.0
  9
$DIMTOFL
 70
     0
  9
$DIMTVP
 40
0.0
  9
$DIMTIX
 70
     0
  9
$DIMSOXD
 70
     0
  9
$DIMSAH
 70
     0
  9
$DIMBLK1
  1

  9
$DIMBLK2
  1

  9
$DIMSTYLE
  2
STANDARD
  9
$DIMCLRD
 70
     0
  9
$DIMCLRE
 70
     0
  9
$DIMCLRT
 70
     0
  9
$DIMTFAC
 40
1.0
  9
$DIMGAP
 40
0.09
  9
$LUNITS
 70
     2
  9
$LUPREC
 70
     4
  9
$SKETCHINC
 40
0.1
  9
$FILLETRAD
 40
0.0
  9
$AUNITS
 70
     0
  9
$AUPREC
 70
     0
  9
$MENU
  1
.
  9
$ELEVATION
 40
0.0
  9
$PELEVATION
 40
0.0
  9
$THICKNESS
 40
0.0
  9
$LIMCHECK
 70
     0
  9
$BLIPMODE
 70
     0
  9
$CHAMFERA
 40
0.0
  9
$CHAMFERB
 40
0.0
  9
$SKPOLY
 70
     0
  9
$TDCREATE
 40
2457227.4993586461
  9
$TDUPDATE
 40
2457323.518823796
  9
$TDINDWG
 40
0.2107745833
  9
$TDUSRTIMER
 40
0.2107745833
  9
$USRTIMER
 70
     1
  9
$ANGBASE
 50
0.0
  9
$ANGDIR
 70
     0
  9
$PDMODE
 70
     0
  9
$PDSIZE
 40
0.3125
  9
$PLINEWID
 40
0.0
  9
$COORDS
 70
     1
  9
$SPLFRAME
 70
     0
  9
$SPLINETYPE
 70
     6
  9
$SPLINESEGS
 70
     8
  9
$ATTDIA
 70
     0
  9
$ATTREQ
 70
     1
  9
$HANDLING
 70
     1
  9
$HANDSEED
  5
1475
  9
$SURFTAB1
 70
     6
  9
$SURFTAB2
 70
     6
  9
$SURFTYPE
 70
     6
  9
$SURFU
 70
     6
  9
$SURFV
 70
     6
  9
$UCSNAME
  2

  9
$UCSORG
 10
0.0
 20
0.0
 30
0.0
  9
$UCSXDIR
 10
1.0
 20
0.0
 30
0.0
  9
$UCSYDIR
 10
0.0
 20
1.0
 30
0.0
  9
$PUCSNAME
  2

  9
$PUCSORG
 10
0.0
 20
0.0
 30
0.0
  9
$PUCSXDIR
 10
1.0
 20
0.0
 30
0.0
  9
$PUCSYDIR
 10
0.0
 20
1.0
 30
0.0
  9
$USERI1
 70
     0
  9
$USERI2
 70
     0
  9
$USERI3
 70
     0
  9
$USERI4
 70
     0
  9
$USERI5
 70
     0
  9
$USERR1
 40
0.0
  9
$USERR2
 40
0.0
  9
$USERR3
 40
0.0
  9
$USERR4
 40
0.0
  9
$USERR5
 40
0.0
  9
$WORLDVIEW
 70
     1
  9
$SHADEDGE
 70
     3
  9
$SHADEDIF
 70
    70
  9
$TILEMODE
 70
     1
  9
$MAXACTVP
 70
    64
  9
$PLIMCHECK
 70
     0
  9
$PEXTMIN
 10
1.0000000000000000E+020
 20
1.0000000000000000E+020
 30
1.0000000000000000E+020
  9
$PEXTMAX
 10
-1.0000000000000000E+020
 20
-1.0000000000000000E+020
 30
-1.0000000000000000E+020
  9
$PLIMMIN
 10
0.0
 20
0.0
  9
$PLIMMAX
 10
12.0
 20
9.0
  9
$UNITMODE
 70
     0
  9
$VISRETAIN
 70
     1
  9
$PLINEGEN
 70
     0
  9
$PSLTSCALE
 70
     1
  0
ENDSEC
  0
SECTION
  2
TABLES
  0
TABLE
  2
VPORT
 70
     1
  0
VPORT
  2
*ACTIVE
 70
     0
 10
0.0
 20
0.0
 11
1.0
 21
1.0
 12
-22.4513488077516
 22
9.8655174360665043
 13
0.0
 23
0.0
 14
1.0
 24
1.0
 15
0.0
 25
0.0
 16
0.0
 26
0.0
 36
1.0
 17
0.0
 27
0.0
 37
0.0
 40
47.94203410875653
 41
2.0329087048832268
 42
50.0
 43
0.0
 44
0.0
 50
0.0
 51
0.0
 71
     0
 72
   100
 73
     1
 74
     1
 75
     0
 76
     0
 77
     0
 78
     0
  0
ENDTAB
  0
TABLE
  2
LTYPE
 70
     1
  0
LTYPE
  2
CONTINUOUS
 70
     0
  3
Solid line
 72
    65
 73
     0
 40
0.0
  0
ENDTAB
  0
TABLE
  2
LAYER
 70
     2
  0
LAYER
  2
0
 70
     0
 62
     7
  6
CONTINUOUS
  0
LAYER
  2
DEFPOINTS
 70
     0
 62
     7
  6
CONTINUOUS
  0
ENDTAB
  0
TABLE
  2
STYLE
 70
     1
  0
STYLE
  2
STANDARD
 70
     0
 40
0.0
 41
0.8
 50
0.0
 71
     0
 42
0.2
  3
txt
  4

  0
ENDTAB
  0
TABLE
  2
VIEW
 70
     0
  0
ENDTAB
  0
TABLE
  2
UCS
 70
     0
  0
ENDTAB
  0
TABLE
  2
APPID
 70
     5
  0
APPID
  2
ACAD
 70
     0
  0
APPID
  2
ACAD_MLEADERVER
 70
     0
  0
APPID
  2
ACAD_NAV_VCDISPLAY
 70
     0
  0
APPID
  2
ACAD_EXEMPT_FROM_CAD_STANDARDS
 70
     0
  0
APPID
  2
ACDBATTR
 70
     0
  0
ENDTAB
  0
TABLE
  2
DIMSTYLE
 70
     1
  0
DIMSTYLE
  2
STANDARD
 70
     0
  3

  4

  5

  6

  7

 40
1.0
 41
0.1875
 42
0.0625
 43
0.38
 44
0.125
 45
0.0
 46
0.0
 47
1.5
 48
1.5
140
0.15625
141
0.09
142
0.0
143
25.399999999999999
144
1.0
145
0.0
146
1.0
147
0.09
 71
     0
 72
     0
 73
     1
 74
     1
 75
     0
 76
     0
 77
     0
 78
     4
170
     0
171
     2
172
     0
173
     0
174
     0
175
     0
176
     0
177
     0
178
     0
  0
ENDTAB
  0
ENDSEC
  0
SECTION
  2
BLOCKS
  0
BLOCK
  8
0
  2
$MODEL_SPACE
 70
     0
 10
0.0
 20
0.0
 30
0.0
  3
$MODEL_SPACE
  1

  0
ENDBLK
  5
21
  8
0
  0
BLOCK
 67
     1
  8
0
  2
$PAPER_SPACE
 70
     0
 10
0.0
 20
0.0
 30
0.0
  3
$PAPER_SPACE
  1

  0
ENDBLK
  5
1D
 67
     1
  8
0
  0
ENDSEC
  0
SECTION
  2
ENTITIES
  0
LINE
  5
48E
  8
0
 10
-32.640138755700001
 20
-3.7876249889999989
 30
0.0
 11
-32.628749474899998
 21
-3.1351335317000002
 31
0.0
  0
LINE
  5
497
  8
0
 10
-32.640138755700001
 20
-3.7876249889999989
 30
0.0
 11
-8.3701387557000011
 21
-3.7876249889999989
 31
0.0
  0
ARC
  5
F13
  8
0
 10
-0.4470488237522183
 20
3.1294821464710179
 30
0.0
 40
8.9419529472663246
 50
124.4519723687666
 51
187.7562835523334
  0
ARC
  5
F15
  8
0
 10
74.689211884837604
 20
12.774349593300199
 30
0.0
 40
84.694478750934721
 50
187.3613860540249
 51
191.27683364228059
  0
LINE
  5
F1F
  8
0
 10
-5.5242712040999988
 20
12.474304256
 30
0.0
 11
-5.4401085289999989
 21
10.6796948169
 31
0.0
  0
ARC
  5
F21
  8
0
 10
-5.6981245789795194
 20
10.674778614080219
 30
0.0
 40
0.2579679211039991
 50
318.25599970065048
 51
1.0909882292306761
  0
LINE
  5
F23
  8
0
 10
-5.7407748817999993
 20
13.8769542787
 30
0.0
 11
-5.5490388278999987
 21
13.008011017899999
 31
0.0
  0
LINE
  5
F24
  8
0
 10
-5.5490388339457732
 20
13.0080110452993
 30
0.0
 11
-5.5242358421000004
 21
12.4743059125
 31
0.0
  0
ARC
  5
F25
  8
0
 10
-5.979177304379407
 20
13.798676174593171
 30
0.0
 40
0.2509246432878797
 50
18.17730424017169
 51
92.981160971957365
  0
LINE
  5
F26
  8
0
 10
-5.9922272931000302
 20
14.0492612388
 30
0.0
 11
-16.044854077899998
 21
14.1728877435
 31
0.0
  0
ARC
  5
F27
  8
0
 10
-10.21978958387197
 20
223.66115217587549
 30
0.0
 40
209.569235125885
 50
266.4708037513912
 51
268.40723472169338
  0
ARC
  5
F28
  8
0
 10
-23.09546970120056
 20
14.226491012463621
 30
0.0
 40
0.2640224250807773
 50
95.353202415676506
 51
156.79830117163141
  0
ARC
  5
F29
  8
0
 10
-22.536356955429319
 20
13.85208778552054
 30
0.0
 40
0.933670177670095
 50
149.1756516289652
 51
175.9009688401724
  0
LINE
  5
F2A
  8
0
 10
-23.467638745561679
 20
13.918827379270009
 30
0.0
 11
-23.563557076418839
 21
13.13763526366113
 31
0.0
  0
LINE
  5
F2B
  8
0
 10
-21.7010553163
 20
12.7154296834
 30
0.0
 11
-5.5354416382520553
 21
12.7154296834
 31
0.0
  0
ARC
  5
F2C
  8
0
 10
-21.762057647642379
 20
16.74805220244907
 30
0.0
 40
4.0349114815282787
 50
218.41195220979259
 51
271.9300141557618
  0
ARC
  5
F2D
  8
0
 10
-15.498442413575971
 20
19.69812752768949
 30
0.0
 40
10.88248556948497
 50
177.19052740956079
 51
210.36627844145971
  0
ARC
  5
F2E
  8
0
 10
-32.162033957322322
 20
-3.1357795482774908
 30
0.0
 40
0.4667159632934918
 50
120.93125681650599
 51
179.92068233718399
  0
ARC
  5
F2F
  8
0
 10
-32.561467610425979
 20
-2.5583578099039039
 30
0.0
 40
0.2383473689503411
 50
312.01675735075111
 51
2.8002790264797581
  0
LINE
  5
F30
  8
0
 10
-32.323404852203673
 20
-2.5467134364500001
 30
0.0
 11
-32.679050125000003
 21
-0.318336919
 31
0.0
  0
ARC
  5
F3D
  8
0
 10
153.2467408375218
 20
-5.227395979364819
 30
0.0
 40
185.99058741209859
 50
176.5551102573217
 51
178.48755231491941
  0
ARC
  5
F3E
  8
0
 10
-27.04722663449018
 20
4.8396515172212213
 30
0.0
 40
5.474026929133827
 50
134.97123382265571
 51
168.31308817461559
  0
LINE
  5
F3F
  8
0
 10
-5.4401869947051962
 20
10.678734740651191
 30
0.0
 11
-32.612240509928242
 21
10.23086901530735
 31
0.0
  0
ARC
  5
F40
  8
0
 10
-5.3183283311881784
 20
6.7552972949911441
 30
0.0
 40
11.915681180742309
 50
161.71250809728051
 51
181.70761675000969
  0
LINE
  5
F41
  8
0
 10
-17.2287178477
 20
6.400220449699999
 30
0.0
 11
-17.541470282978821
 21
-2.2449501370940599
 31
0.0
  0
ARC
  5
F42
  8
0
 10
-18.028124559699819
 20
-2.2302613155690909
 30
0.0
 40
0.4868759046498777
 50
269.70409499721279
 51
358.27115041904989
  0
LINE
  5
F43
  8
0
 10
-18.030639027199999
 20
-2.7171307271999998
 30
0.0
 11
-32.375331314852822
 21
-2.707229391328474
 31
0.0
  0
ARC
  5
F47
  8
0
 10
-17.681937236197381
 20
13.14606773588056
 30
0.0
 40
6.3855610695846776
 50
245.9826335756417
 51
274.02259390828999
  0
ARC
  5
F48
  8
0
 10
-15.97408542012926
 20
13.960867596537989
 30
0.0
 40
7.9207626429759221
 50
214.6633693983307
 51
237.06117399327579
  0
LINE
  5
F4A
  8
0
 10
-32.290138755699999
 20
6.4134505228612229
 30
0.0
 11
-32.290138755700013
 21
9.2319839457573885
 31
0.0
  0
LINE
  5
F4B
  8
0
 10
-23.276356745046542
 20
10.38474852801116
 30
0.0
 11
-23.203782392800001
 21
9.8866263290000003
 31
0.0
  0
ARC
  5
F4C
  8
0
 10
-24.087768995836122
 20
10.04250009713866
 30
0.0
 40
0.8976240560173687
 50
275.77674621779011
 51
349.99980642415971
  0
LINE
  5
F4D
  8
0
 10
-23.997420132276439
 20
9.1494345739016776
 30
0.0
 11
-25.781529375200002
 21
9.1943914857499998
 31
0.0
  0
ARC
  5
F4E
  8
0
 10
-25.87270810181132
 20
7.1219835945077294
 30
0.0
 40
2.074412694684856
 50
87.480809950829382
 51
118.2331840988616
  0
ARC
  5
F4F
  8
0
 10
-27.6144062367635
 20
10.002206775805551
 30
0.0
 40
1.298516202555541
 50
248.52297891697049
 51
305.84337089544329
  0
ARC
  5
F50
  8
0
 10
-22.696649193134231
 20
9.3397890438789251
 30
0.0
 40
0.2379313761269068
 50
29.210389040802468
 51
115.2322483002975
  0
LINE
  5
F51
  8
0
 10
-22.7980765856
 20
9.5550187392999995
 30
0.0
 11
-23.232084418540989
 21
10.080880454075499
 31
0.0
  0
ARC
  5
F53
  8
0
 10
-22.106297262390711
 20
5.7237629291950478
 30
0.0
 40
1.2179947084481479
 50
176.09689271749741
 51
253.9127917665628
  0
ARC
  5
F54
  8
0
 10
-14.48774058717315
 20
34.845033402592172
 30
0.0
 40
31.31897413874454
 50
255.2836872301132
 51
264.79675548003939
  0
ARC
  5
F55
  8
0
 10
-6.8273468328969624
 20
5.4142752333271273
 30
0.0
 40
16.498787133350572
 50
165.4649257288275
 51
178.63719795401011
  0
LINE
  5
F56
  8
0
 10
-28.089829439799999
 20
8.7938537261
 30
0.0
 11
-28.136897794599999
 21
6.6125222563000001
 31
0.0
  0
LINE
  5
F57
  8
0
 10
-28.7191406196002
 20
8.8329498285503831
 30
0.0
 11
-28.67558980590001
 21
6.6662334460999997
 31
0.0
  0
ARC
  5
F58
  8
0
 10
-28.403072310557441
 20
6.6711860492247297
 30
0.0
 40
0.2725624947521109
 50
181.04115158671851
 51
347.57094276902461
  0
ARC
  5
F64
  8
0
 10
-29.07384325970034
 20
-4.6967794202186859
 30
0.0
 40
13.534377987476599
 50
88.498247099527106
 51
97.826127219340194
  0
LINE
  5
F65
  8
0
 10
-32.612240509928242
 20
10.23086901530735
 30
0.0
 11
-32.652457537899998
 21
10.5532361072
 31
0.0
  0
ARC
  5
F66
  8
0
 10
-30.149406289858511
 20
11.771147111826419
 30
0.0
 40
2.7836258307308879
 50
177.59572027831891
 51
205.94618975517591
  0
LINE
  5
F67
  8
0
 10
-32.930581693100002
 20
11.887921004100001
 30
0.0
 11
-32.930581693100002
 21
20.214996210700001
 31
0.0
  0
LINE
  5
F68
  8
0
 10
-33.10159011283698
 20
20.212060626894331
 30
0.0
 11
-26.221962652166589
 21
20.231434332267689
 31
0.0
  0
ARC
  5
F6A
  8
0
 10
-33.076706614589988
 20
20.315640446176321
 30
0.0
 40
0.1065268390946548
 50
180.1924437744108
 51
256.49153601755489
  0
LINE
  5
F6B
  8
0
 10
-33.183232810236802
 20
20.31528233003953
 30
0.0
 11
-33.1570161617
 21
21.289946448799999
 31
0.0
  0
ARC
  5
F6C
  8
0
 10
-32.89956479130263
 20
21.27619706105353
 30
0.0
 40
0.2578182572722236
 50
84.647815853206453
 51
176.94297916348239
  0
LINE
  5
F6D
  8
0
 10
-32.875586906449733
 20
21.532897888517841
 30
0.0
 11
-26.630405899500001
 21
21.532492393999998
 31
0.0
  0
ARC
  5
F6E
  8
0
 10
-26.567030009227
 20
21.285621667319571
 30
0.0
 40
0.2548757720137804
 50
4.1263832366274862
 51
104.39787946742361
  0
LINE
  5
F6F
  8
0
 10
-26.312814937799999
 20
21.3039616951
 30
0.0
 11
-26.221962652166589
 21
20.231434332267689
 31
0.0
  0
ARC
  5
F70
  8
0
 10
-28.44258021238592
 20
8.2002019983304066
 30
0.0
 40
0.6905472290051027
 50
59.28100997987778
 51
113.6090993217727
  0
LINE
  5
F71
  8
0
 10
-32.612240509928249
 20
10.230869015307411
 30
0.0
 11
-32.492631608840583
 21
9.5525314935833148
 31
0.0
  0
ARC
  5
F72
  8
0
 10
-31.946947115868159
 20
9.6730133601999118
 30
0.0
 40
0.5588268480074897
 50
192.45060416868901
 51
232.1113475441845
  0
LINE
  5
F73
  8
0
 10
-31.3606644147
 20
-2.6810475990586409
 30
0.0
 11
-31.083354445600001
 21
5.4767934732999981
 31
0.0
  0
ARC
  5
F74
  8
0
 10
-27.726540925214319
 20
5.1614521773186963
 30
0.0
 40
3.3715926716605789
 50
110.8742287217984
 51
174.63334600019081
  0
LINE
  5
F75
  8
0
 10
-28.927899287100001
 20
8.3117498187999992
 30
0.0
 11
-28.708573653969751
 21
8.3072279051462168
 31
0.0
  0
LINE
  5
F76
  8
0
 10
-23.090866701113349
 20
8.1905854407328533
 30
0.0
 11
-23.237483316599999
 21
8.1350637917000004
 31
0.0
  0
LINE
  5
F77
  8
0
 10
-23.237483316599999
 20
8.1350637917000004
 30
0.0
 11
-28.098939849459718
 21
8.3716417457158361
 31
0.0
  0
ARC
  5
F7A
  8
0
 10
-31.899424047871161
 20
9.8999676667265764
 30
0.0
 40
0.7738605902528004
 50
239.67592224282839
 51
266.4165415406344
  0
ARC
  5
F7B
  8
0
 10
-31.147575957826518
 20
13.74506893842076
 30
0.0
 40
4.6862756657262823
 50
260.16814154458967
 51
271.19076475529903
  0
ARC
  5
F7C
  8
0
 10
-31.05399874959457
 20
8.8512857377922067
 30
0.0
 40
0.2085542856219088
 50
318.93148153497788
 51
88.953437532166006
  0
ATTDEF
  5
107A
  8
DEFPOINTS
 10
-34.187947256460291
 20
-3.7911970022662871
 30
0.0
 40
0.001
  1
K-4000
  3

  2
MODELNUMBER
 70
     0
1001
ACDBATTR
1070
     0
1070
     1
  0
ATTDEF
  5
107B
  8
DEFPOINTS
 10
-34.187947256460291
 20
-3.7928636689329518
 30
0.0
 40
0.001
  1
SAN SOUCI
  3

  2
TRADENAME
 70
     0
1001
ACDBATTR
1070
     0
1070
     1
  0
ATTDEF
  5
107C
  8
DEFPOINTS
 10
-34.187947256460291
 20
-3.7945303355996169
 30
0.0
 40
0.001
  1
TOILET
  3

  2
PRODUCT
 70
     0
1001
ACDBATTR
1070
     0
1070
     1
  0
ATTDEF
  5
107D
  8
DEFPOINTS
 10
-34.187947256460291
 20
-3.7961970022662821
 30
0.0
 40
0.001
  1
VITREOUS CHINA
  3

  2
MATERIAL
 70
     0
1001
ACDBATTR
1070
     0
1070
     1
  0
ENDSEC
  0
EOF
