  0
SECTION
  2
HEADER
  9
$ACADVER
  1
AC1009
  9
$INSBASE
 10
8.6058593750000156
 20
62.125589900699993
 30
0.0
  9
$EXTMIN
 10
0.4025974175
 20
33.386400271949853
 30
0.0
  9
$EXTMAX
 10
16.809121987499999
 20
62.124833323020241
 30
0.0
  9
$LIMMIN
 10
0.0
 20
0.0
  9
$LIMMAX
 10
22.0
 20
17.0
  9
$ORTHOMODE
 70
     1
  9
$REGENMODE
 70
     1
  9
$FILLMODE
 70
     1
  9
$QTEXTMODE
 70
     0
  9
$MIRRTEXT
 70
     0
  9
$DRAGMODE
 70
     2
  9
$LTSCALE
 40
1.2099999999999991
  9
$OSMODE
 70
    47
  9
$ATTMODE
 70
     1
  9
$TEXTSIZE
 40
0.001
  9
$TRACEWID
 40
0.05
  9
$TEXTSTYLE
  7
STANDARD
  9
$CLAYER
  8
0
  9
$CELTYPE
  6
BYLAYER
  9
$CECOLOR
 62
   256
  9
$DIMSCALE
 40
1.0
  9
$DIMASZ
 40
0.1875
  9
$DIMEXO
 40
0.0625
  9
$DIMDLI
 40
0.8359999999999999
  9
$DIMRND
 40
0.0
  9
$DIMDLE
 40
0.0
  9
$DIMEXE
 40
0.125
  9
$DIMTP
 40
0.0
  9
$DIMTM
 40
0.0
  9
$DIMTXT
 40
0.15625
  9
$DIMCEN
 40
0.198
  9
$DIMTSZ
 40
0.0
  9
$DIMTOL
 70
     0
  9
$DIMLIM
 70
     0
  9
$DIMTIH
 70
     1
  9
$DIMTOH
 70
     1
  9
$DIMSE1
 70
     0
  9
$DIMSE2
 70
     0
  9
$DIMTAD
 70
     0
  9
$DIMZIN
 70
     0
  9
$DIMBLK
  1

  9
$DIMASO
 70
     1
  9
$DIMSHO
 70
     1
  9
$DIMPOST
  1

  9
$DIMAPOST
  1

  9
$DIMALT
 70
     0
  9
$DIMALTD
 70
     2
  9
$DIMALTF
 40
25.399999999999999
  9
$DIMLFAC
 40
1.0
  9
$DIMTOFL
 70
     0
  9
$DIMTVP
 40
0.0
  9
$DIMTIX
 70
     0
  9
$DIMSOXD
 70
     0
  9
$DIMSAH
 70
     0
  9
$DIMBLK1
  1

  9
$DIMBLK2
  1

  9
$DIMSTYLE
  2
STANDARD
  9
$DIMCLRD
 70
     0
  9
$DIMCLRE
 70
     0
  9
$DIMCLRT
 70
     0
  9
$DIMTFAC
 40
1.0
  9
$DIMGAP
 40
0.09
  9
$LUNITS
 70
     2
  9
$LUPREC
 70
     4
  9
$SKETCHINC
 40
0.1
  9
$FILLETRAD
 40
0.0
  9
$AUNITS
 70
     0
  9
$AUPREC
 70
     0
  9
$MENU
  1
.
  9
$ELEVATION
 40
0.0
  9
$PELEVATION
 40
0.0
  9
$THICKNESS
 40
0.0
  9
$LIMCHECK
 70
     0
  9
$BLIPMODE
 70
     0
  9
$CHAMFERA
 40
0.0
  9
$CHAMFERB
 40
0.0
  9
$SKPOLY
 70
     0
  9
$TDCREATE
 40
2457227.4993586461
  9
$TDUPDATE
 40
2457323.5195513079
  9
$TDINDWG
 40
0.2234667477
  9
$TDUSRTIMER
 40
0.2234667477
  9
$USRTIMER
 70
     1
  9
$ANGBASE
 50
0.0
  9
$ANGDIR
 70
     0
  9
$PDMODE
 70
     0
  9
$PDSIZE
 40
0.3125
  9
$PLINEWID
 40
0.0
  9
$COORDS
 70
     1
  9
$SPLFRAME
 70
     0
  9
$SPLINETYPE
 70
     6
  9
$SPLINESEGS
 70
     8
  9
$ATTDIA
 70
     0
  9
$ATTREQ
 70
     1
  9
$HANDLING
 70
     1
  9
$HANDSEED
  5
154F
  9
$SURFTAB1
 70
     6
  9
$SURFTAB2
 70
     6
  9
$SURFTYPE
 70
     6
  9
$SURFU
 70
     6
  9
$SURFV
 70
     6
  9
$UCSNAME
  2

  9
$UCSORG
 10
0.0
 20
0.0
 30
0.0
  9
$UCSXDIR
 10
1.0
 20
0.0
 30
0.0
  9
$UCSYDIR
 10
0.0
 20
1.0
 30
0.0
  9
$PUCSNAME
  2

  9
$PUCSORG
 10
0.0
 20
0.0
 30
0.0
  9
$PUCSXDIR
 10
1.0
 20
0.0
 30
0.0
  9
$PUCSYDIR
 10
0.0
 20
1.0
 30
0.0
  9
$USERI1
 70
     0
  9
$USERI2
 70
     0
  9
$USERI3
 70
     0
  9
$USERI4
 70
     0
  9
$USERI5
 70
     0
  9
$USERR1
 40
0.0
  9
$USERR2
 40
0.0
  9
$USERR3
 40
0.0
  9
$USERR4
 40
0.0
  9
$USERR5
 40
0.0
  9
$WORLDVIEW
 70
     1
  9
$SHADEDGE
 70
     3
  9
$SHADEDIF
 70
    70
  9
$TILEMODE
 70
     1
  9
$MAXACTVP
 70
    64
  9
$PLIMCHECK
 70
     0
  9
$PEXTMIN
 10
1.0000000000000000E+020
 20
1.0000000000000000E+020
 30
1.0000000000000000E+020
  9
$PEXTMAX
 10
-1.0000000000000000E+020
 20
-1.0000000000000000E+020
 30
-1.0000000000000000E+020
  9
$PLIMMIN
 10
0.0
 20
0.0
  9
$PLIMMAX
 10
12.0
 20
9.0
  9
$UNITMODE
 70
     0
  9
$VISRETAIN
 70
     1
  9
$PLINEGEN
 70
     0
  9
$PSLTSCALE
 70
     1
  0
ENDSEC
  0
SECTION
  2
TABLES
  0
TABLE
  2
VPORT
 70
     1
  0
VPORT
  2
*ACTIVE
 70
     0
 10
0.0
 20
0.0
 11
1.0
 21
1.0
 12
12.149801268806129
 22
46.263491038649349
 13
0.0
 23
0.0
 14
1.0
 24
1.0
 15
0.0
 25
0.0
 16
0.0
 26
0.0
 36
1.0
 17
0.0
 27
0.0
 37
0.0
 40
64.642983941435375
 41
2.0329087048832268
 42
50.0
 43
0.0
 44
0.0
 50
0.0
 51
0.0
 71
     0
 72
   100
 73
     1
 74
     1
 75
     0
 76
     0
 77
     0
 78
     0
  0
ENDTAB
  0
TABLE
  2
LTYPE
 70
     1
  0
LTYPE
  2
CONTINUOUS
 70
     0
  3
Solid line
 72
    65
 73
     0
 40
0.0
  0
ENDTAB
  0
TABLE
  2
LAYER
 70
     2
  0
LAYER
  2
0
 70
     0
 62
     7
  6
CONTINUOUS
  0
LAYER
  2
DEFPOINTS
 70
     0
 62
     7
  6
CONTINUOUS
  0
ENDTAB
  0
TABLE
  2
STYLE
 70
     1
  0
STYLE
  2
STANDARD
 70
     0
 40
0.0
 41
0.8
 50
0.0
 71
     0
 42
0.001
  3
txt
  4

  0
ENDTAB
  0
TABLE
  2
VIEW
 70
     0
  0
ENDTAB
  0
TABLE
  2
UCS
 70
     0
  0
ENDTAB
  0
TABLE
  2
APPID
 70
     5
  0
APPID
  2
ACAD
 70
     0
  0
APPID
  2
ACAD_MLEADERVER
 70
     0
  0
APPID
  2
ACAD_NAV_VCDISPLAY
 70
     0
  0
APPID
  2
ACAD_EXEMPT_FROM_CAD_STANDARDS
 70
     0
  0
APPID
  2
ACDBATTR
 70
     0
  0
ENDTAB
  0
TABLE
  2
DIMSTYLE
 70
     1
  0
DIMSTYLE
  2
STANDARD
 70
     0
  3

  4

  5

  6

  7

 40
1.0
 41
0.1875
 42
0.0625
 43
0.38
 44
0.125
 45
0.0
 46
0.0
 47
1.5
 48
1.5
140
0.15625
141
0.09
142
0.0
143
25.399999999999999
144
1.0
145
0.0
146
1.0
147
0.09
 71
     0
 72
     0
 73
     1
 74
     1
 75
     0
 76
     0
 77
     0
 78
     4
170
     0
171
     2
172
     0
173
     0
174
     0
175
     0
176
     0
177
     0
178
     0
  0
ENDTAB
  0
ENDSEC
  0
SECTION
  2
BLOCKS
  0
BLOCK
  8
0
  2
$MODEL_SPACE
 70
     2
 10
0.0
 20
0.0
 30
0.0
  3
$MODEL_SPACE
  1

  0
ENDBLK
  5
21
  8
0
  0
BLOCK
 67
     1
  8
0
  2
$PAPER_SPACE
 70
     0
 10
0.0
 20
0.0
 30
0.0
  3
$PAPER_SPACE
  1

  0
ENDBLK
  5
1D
 67
     1
  8
0
  0
ENDSEC
  0
SECTION
  2
ENTITIES
  0
CIRCLE
  5
C64
  8
0
 10
13.490859374999999
 20
57.886694060799996
 30
0.0
 40
0.5000433229
  0
ARC
  5
F1C
  8
0
 10
8.3124068413992998
 20
39.063667929386682
 30
0.0
 40
5.68484673739668
 50
272.95893143205012
 51
325.23815087326409
  0
ARC
  5
F1D
  8
0
 10
0.62672018129136
 20
44.768035873384541
 30
0.0
 40
15.25433511185404
 50
324.09555936049861
 51
352.72710808496453
  0
LINE
  5
F1E
  8
0
 10
15.758236839649459
 20
42.836212040170338
 30
0.0
 11
16.630211195277841
 21
54.47899302019465
 31
0.0
  0
LINE
  5
F20
  8
0
 10
16.628268655676798
 20
54.453055831819761
 30
0.0
 11
16.809121987499999
 21
59.963932324200002
 31
0.0
  0
ARC
  5
F28
  8
0
 10
8.8337176022986768
 20
38.942391876771183
 30
0.0
 40
5.5606620196690111
 50
214.3307383663894
 51
267.65154354691271
  0
ARC
  5
F29
  8
0
 10
15.377353976810619
 20
44.291004261561312
 30
0.0
 40
13.999682980358291
 50
185.96351920700459
 51
217.3051902058746
  0
LINE
  5
F2A
  8
0
 10
1.4534338075999991
 20
42.836504116500002
 30
0.0
 11
0.5967536886
 21
54.172811735599993
 31
0.0
  0
LINE
  5
F2B
  8
0
 10
0.5967536886
 20
54.172811735599993
 30
0.0
 11
0.4025974175
 21
59.963895319199999
 31
0.0
  0
ARC
  5
F38
  8
0
 10
0.7528104245998011
 20
59.948204289376861
 30
0.0
 40
0.3505610944389298
 50
125.0805234655268
 51
177.4413951368962
  0
ARC
  5
F39
  8
0
 10
16.483424528960121
 20
59.961645128881877
 30
0.0
 40
0.325705489302466
 50
0.4023503441502008
 51
57.090391201809759
  0
ARC
  5
F3A
  8
0
 10
14.52541786430112
 20
57.094176557262529
 30
0.0
 40
3.7978134583107992
 50
55.794899618410582
 51
93.321198908455244
  0
ARC
  5
F3C
  8
0
 10
9.4864125121743932
 20
14.23632047629493
 30
0.0
 40
46.897536832778698
 50
84.102126889074896
 51
91.075854867510316
  0
ARC
  5
F3D
  8
0
 10
2.686300885698877
 20
57.094176557262529
 30
0.0
 40
3.7978134583107992
 50
86.678801091544685
 51
124.2051003815894
  0
ARC
  5
F3E
  8
0
 10
7.7253062378256043
 20
14.23632047629493
 30
0.0
 40
46.897536832778698
 50
88.924145132489656
 51
95.897873110925119
  0
ARC
  5
F3F
  8
0
 10
1.0474870907238181
 20
43.139344353611143
 30
0.0
 40
14.77554887316357
 50
1.8016911690459829
 51
34.062591315186779
  0
ARC
  5
F40
  8
0
 10
16.164231659066679
 20
43.139344353213382
 30
0.0
 40
14.77554887316357
 50
145.9374086817979
 51
178.21808497048471
  0
ARC
  5
F41
  8
0
 10
16.164231659066679
 20
43.139344353213382
 30
0.0
 40
14.77554887316357
 50
178.77954396777619
 51
178.78082456104869
  0
LINE
  5
F42
  8
0
 10
4.0712523517000001
 20
51.485959484050518
 30
0.0
 11
13.147317817169791
 21
51.485959484050532
 31
0.0
  0
ARC
  5
F43
  8
0
 10
13.141801439192401
 20
51.300045612507979
 30
0.0
 40
0.1859956936542554
 50
38.214200377270892
 51
88.300436287503857
  0
ARC
  5
F44
  8
0
 10
4.0856522174186294
 20
51.267094859365443
 30
0.0
 40
0.2193378217983767
 50
93.764263527898308
 51
137.5613353800982
  0
LINE
  5
F45
  8
0
 10
12.1350620514
 20
51.485959484050532
 30
0.0
 11
12.1350620514
 21
52.59095003569999
 31
0.0
  0
LINE
  5
F46
  8
0
 10
10.57648499885155
 20
51.485959484050518
 30
0.0
 11
10.5860719879
 21
52.584519613999987
 31
0.0
  0
LINE
  5
F47
  8
0
 10
11.01995077461104
 20
53.075980584286469
 30
0.0
 11
11.624290254097181
 21
53.078795690328462
 31
0.0
  0
ARC
  5
F48
  8
0
 10
11.610400876518289
 20
52.552943085625721
 30
0.0
 40
0.5260360032185945
 50
4.1433227668459329
 51
88.486994793426746
  0
ARC
  5
F49
  8
0
 10
11.081124930362041
 20
52.587405949615508
 30
0.0
 40
0.4923895317487017
 50
97.136831380928456
 51
179.58783895424151
  0
LINE
  5
F4A
  8
0
 10
5.0766566985999972
 20
51.485959484050532
 30
0.0
 11
5.0766566985999999
 21
52.59095003569999
 31
0.0
  0
LINE
  5
F4B
  8
0
 10
6.6352337511484443
 20
51.485959484050518
 30
0.0
 11
6.6256467620999979
 21
52.584519613999987
 31
0.0
  0
LINE
  5
F4C
  8
0
 10
6.1917679753889594
 20
53.075980584286469
 30
0.0
 11
5.5874284959028184
 21
53.078795690328462
 31
0.0
  0
ARC
  5
F4D
  8
0
 10
5.6013178734817082
 20
52.552943085625721
 30
0.0
 40
0.5260360032185945
 50
91.513005206573311
 51
175.8566772331541
  0
ARC
  5
F4E
  8
0
 10
6.1305938196379559
 20
52.587405949615508
 30
0.0
 40
0.4923895317487017
 50
0.4121610457584644
 51
82.863168619071587
  0
LINE
  5
F4F
  8
0
 10
4.458707444499999
 20
51.486406716099992
 30
0.0
 11
4.4587074444999999
 21
50.967262223072026
 31
0.0
  0
LINE
  5
F50
  8
0
 10
4.4686372012123217
 20
50.967262223072019
 30
0.0
 11
12.74307832008772
 21
50.96725844320116
 31
0.0
  0
LINE
  5
F51
  8
0
 10
12.74307832008772
 20
50.96725844320116
 30
0.0
 11
12.753011305399999
 21
51.486406716099992
 31
0.0
  0
ARC
  5
F53
  8
0
 10
11.311356122006019
 20
50.093777598464932
 30
0.0
 40
3.3283693049418459
 50
46.766388988054942
 51
81.629841906482611
  0
ARC
  5
F54
  8
0
 10
6.2458572599277309
 20
44.016754142161993
 30
0.0
 40
11.235546588320179
 50
27.274387540303639
 51
49.174330816876612
  0
ARC
  5
F56
  8
0
 10
9.1286438606538365
 20
24.94363163776033
 30
0.0
 40
28.567846236650421
 50
84.642820271307187
 51
91.048557053522345
  0
ARC
  5
F57
  8
0
 10
5.900362627994018
 20
50.09377759846496
 30
0.0
 40
3.3283693049418459
 50
98.370158093516579
 51
133.2336110119443
  0
ARC
  5
F58
  8
0
 10
10.96586149007222
 20
44.01675414216195
 30
0.0
 40
11.235546588320179
 50
130.8256691831225
 51
152.7673912160987
  0
ARC
  5
F59
  8
0
 10
8.0830748893458502
 20
24.94363163776033
 30
0.0
 40
28.567846236650421
 50
88.951442946476917
 51
95.357179728692032
  0
ARC
  5
F66
  8
0
 10
8.7997681860246662
 20
25.717867518652241
 30
0.0
 40
29.387157417623449
 50
90.378064430677483
 51
106.17323490931599
  0
ARC
  5
F67
  8
0
 10
8.4119504999753172
 20
25.717867518652241
 30
0.0
 40
29.387157417623449
 50
73.841723843413064
 51
89.621935569322503
  0
ATTDEF
  5
1007
  8
DEFPOINTS
 10
8.6012691290288785
 20
62.123833323020243
 30
0.0
 40
0.001
  1
K-4000
  3

  2
MODELNUMBER
 70
     0
1001
ACDBATTR
1070
     0
1070
     1
  0
ATTDEF
  5
1008
  8
DEFPOINTS
 10
8.6012691290288785
 20
62.122166656353592
 30
0.0
 40
0.001
  1
SAN SOUCI
  3

  2
TRADENAME
 70
     0
1001
ACDBATTR
1070
     0
1070
     1
  0
ATTDEF
  5
1014
  8
DEFPOINTS
 10
8.6012691290288785
 20
62.12049998968692
 30
0.0
 40
0.001
  1
TOILET
  3

  2
PRODUCT
 70
     0
1001
ACDBATTR
1070
     0
1070
     1
  0
ATTDEF
  5
1015
  8
DEFPOINTS
 10
8.6012691290288785
 20
62.118833323020262
 30
0.0
 40
0.001
  1
VITREOUS CHINA
  3

  2
MATERIAL
 70
     0
1001
ACDBATTR
1070
     0
1070
     1
  0
ENDSEC
  0
EOF
