  0
SECTION
  2
HEADER
  9
$ACADVER
  1
AC1009
  9
$INSBASE
 10
9.3227885048499992
 20
-3.8298124889999992
 30
0.0
  9
$EXTMIN
 10
1.109450083014629
 20
-3.8370099724897191
 30
0.0
  9
$EXTMAX
 10
28.203836843058308
 20
21.490317105300001
 30
0.0
  9
$LIMMIN
 10
0.0
 20
0.0
  9
$LIMMAX
 10
22.0
 20
17.0
  9
$ORTHOMODE
 70
     1
  9
$REGENMODE
 70
     1
  9
$FILLMODE
 70
     1
  9
$QTEXTMODE
 70
     0
  9
$MIRRTEXT
 70
     0
  9
$DRAGMODE
 70
     2
  9
$LTSCALE
 40
1.2099999999999991
  9
$OSMODE
 70
    47
  9
$ATTMODE
 70
     1
  9
$TEXTSIZE
 40
0.2
  9
$TRACEWID
 40
0.05
  9
$TEXTSTYLE
  7
STANDARD
  9
$CLAYER
  8
0
  9
$CELTYPE
  6
BYLAYER
  9
$CECOLOR
 62
   256
  9
$DIMSCALE
 40
1.0
  9
$DIMASZ
 40
0.1875
  9
$DIMEXO
 40
0.0625
  9
$DIMDLI
 40
0.8359999999999999
  9
$DIMRND
 40
0.0
  9
$DIMDLE
 40
0.0
  9
$DIMEXE
 40
0.125
  9
$DIMTP
 40
0.0
  9
$DIMTM
 40
0.0
  9
$DIMTXT
 40
0.15625
  9
$DIMCEN
 40
0.198
  9
$DIMTSZ
 40
0.0
  9
$DIMTOL
 70
     0
  9
$DIMLIM
 70
     0
  9
$DIMTIH
 70
     1
  9
$DIMTOH
 70
     1
  9
$DIMSE1
 70
     0
  9
$DIMSE2
 70
     0
  9
$DIMTAD
 70
     0
  9
$DIMZIN
 70
     0
  9
$DIMBLK
  1

  9
$DIMASO
 70
     1
  9
$DIMSHO
 70
     1
  9
$DIMPOST
  1

  9
$DIMAPOST
  1

  9
$DIMALT
 70
     0
  9
$DIMALTD
 70
     2
  9
$DIMALTF
 40
25.399999999999999
  9
$DIMLFAC
 40
1.0
  9
$DIMTOFL
 70
     0
  9
$DIMTVP
 40
0.0
  9
$DIMTIX
 70
     0
  9
$DIMSOXD
 70
     0
  9
$DIMSAH
 70
     0
  9
$DIMBLK1
  1

  9
$DIMBLK2
  1

  9
$DIMSTYLE
  2
STANDARD
  9
$DIMCLRD
 70
     0
  9
$DIMCLRE
 70
     0
  9
$DIMCLRT
 70
     0
  9
$DIMTFAC
 40
1.0
  9
$DIMGAP
 40
0.09
  9
$LUNITS
 70
     2
  9
$LUPREC
 70
     4
  9
$SKETCHINC
 40
0.1
  9
$FILLETRAD
 40
0.2
  9
$AUNITS
 70
     0
  9
$AUPREC
 70
     0
  9
$MENU
  1
.
  9
$ELEVATION
 40
0.0
  9
$PELEVATION
 40
0.0
  9
$THICKNESS
 40
0.0
  9
$LIMCHECK
 70
     0
  9
$BLIPMODE
 70
     0
  9
$CHAMFERA
 40
0.0
  9
$CHAMFERB
 40
0.0
  9
$SKPOLY
 70
     0
  9
$TDCREATE
 40
2457227.4910739241
  9
$TDUPDATE
 40
2457323.5178573611
  9
$TDINDWG
 40
0.2045573611
  9
$TDUSRTIMER
 40
0.2045573611
  9
$USRTIMER
 70
     1
  9
$ANGBASE
 50
0.0
  9
$ANGDIR
 70
     0
  9
$PDMODE
 70
     0
  9
$PDSIZE
 40
0.3125
  9
$PLINEWID
 40
0.0
  9
$COORDS
 70
     1
  9
$SPLFRAME
 70
     0
  9
$SPLINETYPE
 70
     6
  9
$SPLINESEGS
 70
     8
  9
$ATTDIA
 70
     0
  9
$ATTREQ
 70
     1
  9
$HANDLING
 70
     1
  9
$HANDSEED
  5
A96
  9
$SURFTAB1
 70
     6
  9
$SURFTAB2
 70
     6
  9
$SURFTYPE
 70
     6
  9
$SURFU
 70
     6
  9
$SURFV
 70
     6
  9
$UCSNAME
  2

  9
$UCSORG
 10
0.0
 20
0.0
 30
0.0
  9
$UCSXDIR
 10
1.0
 20
0.0
 30
0.0
  9
$UCSYDIR
 10
0.0
 20
1.0
 30
0.0
  9
$PUCSNAME
  2

  9
$PUCSORG
 10
0.0
 20
0.0
 30
0.0
  9
$PUCSXDIR
 10
1.0
 20
0.0
 30
0.0
  9
$PUCSYDIR
 10
0.0
 20
1.0
 30
0.0
  9
$USERI1
 70
     0
  9
$USERI2
 70
     0
  9
$USERI3
 70
     0
  9
$USERI4
 70
     0
  9
$USERI5
 70
     0
  9
$USERR1
 40
0.0
  9
$USERR2
 40
0.0
  9
$USERR3
 40
0.0
  9
$USERR4
 40
0.0
  9
$USERR5
 40
0.0
  9
$WORLDVIEW
 70
     1
  9
$SHADEDGE
 70
     3
  9
$SHADEDIF
 70
    70
  9
$TILEMODE
 70
     1
  9
$MAXACTVP
 70
    64
  9
$PLIMCHECK
 70
     0
  9
$PEXTMIN
 10
1.0000000000000000E+020
 20
1.0000000000000000E+020
 30
1.0000000000000000E+020
  9
$PEXTMAX
 10
-1.0000000000000000E+020
 20
-1.0000000000000000E+020
 30
-1.0000000000000000E+020
  9
$PLIMMIN
 10
0.0
 20
0.0
  9
$PLIMMAX
 10
12.0
 20
9.0
  9
$UNITMODE
 70
     0
  9
$VISRETAIN
 70
     1
  9
$PLINEGEN
 70
     0
  9
$PSLTSCALE
 70
     1
  0
ENDSEC
  0
SECTION
  2
TABLES
  0
TABLE
  2
VPORT
 70
     1
  0
VPORT
  2
*ACTIVE
 70
     0
 10
0.0
 20
0.0
 11
1.0
 21
1.0
 12
13.502647960230041
 22
8.1897388264470532
 13
0.0
 23
0.0
 14
1.0
 24
1.0
 15
0.0
 25
0.0
 16
0.0
 26
0.0
 36
1.0
 17
0.0
 27
0.0
 37
0.0
 40
45.803905336309143
 41
2.0329087048832268
 42
50.0
 43
0.0
 44
0.0
 50
0.0
 51
0.0
 71
     0
 72
   100
 73
     1
 74
     1
 75
     0
 76
     0
 77
     0
 78
     0
  0
ENDTAB
  0
TABLE
  2
LTYPE
 70
     1
  0
LTYPE
  2
CONTINUOUS
 70
     0
  3
Solid line
 72
    65
 73
     0
 40
0.0
  0
ENDTAB
  0
TABLE
  2
LAYER
 70
     2
  0
LAYER
  2
0
 70
     0
 62
     7
  6
CONTINUOUS
  0
LAYER
  2
DEFPOINTS
 70
     0
 62
     7
  6
CONTINUOUS
  0
ENDTAB
  0
TABLE
  2
STYLE
 70
     1
  0
STYLE
  2
STANDARD
 70
     0
 40
0.0
 41
0.8
 50
0.0
 71
     0
 42
0.2
  3
txt
  4

  0
ENDTAB
  0
TABLE
  2
VIEW
 70
     0
  0
ENDTAB
  0
TABLE
  2
UCS
 70
     0
  0
ENDTAB
  0
TABLE
  2
APPID
 70
     5
  0
APPID
  2
ACAD
 70
     0
  0
APPID
  2
ACAD_MLEADERVER
 70
     0
  0
APPID
  2
ACAD_NAV_VCDISPLAY
 70
     0
  0
APPID
  2
ACAD_EXEMPT_FROM_CAD_STANDARDS
 70
     0
  0
APPID
  2
ACDBATTR
 70
     0
  0
ENDTAB
  0
TABLE
  2
DIMSTYLE
 70
     1
  0
DIMSTYLE
  2
STANDARD
 70
     0
  3

  4

  5

  6

  7

 40
1.0
 41
0.1875
 42
0.0625
 43
0.38
 44
0.125
 45
0.0
 46
0.0
 47
1.5
 48
1.5
140
0.15625
141
0.09
142
0.0
143
25.399999999999999
144
1.0
145
0.0
146
1.0
147
0.09
 71
     0
 72
     0
 73
     1
 74
     1
 75
     0
 76
     0
 77
     0
 78
     4
170
     0
171
     2
172
     0
173
     0
174
     0
175
     0
176
     0
177
     0
178
     0
  0
ENDTAB
  0
ENDSEC
  0
SECTION
  2
BLOCKS
  0
BLOCK
  8
0
  2
$MODEL_SPACE
 70
     0
 10
0.0
 20
0.0
 30
0.0
  3
$MODEL_SPACE
  1

  0
ENDBLK
  5
21
  8
0
  0
BLOCK
 67
     1
  8
0
  2
$PAPER_SPACE
 70
     0
 10
0.0
 20
0.0
 30
0.0
  3
$PAPER_SPACE
  1

  0
ENDBLK
  5
1D
 67
     1
  8
0
  0
ENDSEC
  0
SECTION
  2
ENTITIES
  0
ARC
  5
43C
  8
0
 10
16.9312035853
 20
21.240315620400001
 30
0.0
 40
0.2499998434
 50
3.7513401027
 51
89.971094227999984
  0
ARC
  5
43D
  8
0
 10
1.7148904591
 20
21.2403156558
 30
0.0
 40
0.2499997224
 50
90.029243401599985
 51
176.24865076430001
  0
ARC
  5
444
  8
0
 10
1.4951922911
 20
20.180187504599999
 30
0.0
 40
0.0999999974
 50
176.26105718619999
 51
270.0
  0
ARC
  5
445
  8
0
 10
17.150902075800001
 20
20.180185925899998
 30
0.0
 40
0.0999995908
 50
270.00000002220003
 51
3.7396899949999991
  0
LINE
  5
68C
  8
0
 10
16.9311747707
 20
21.490317105300001
 30
0.0
 11
1.7147628608366241
 21
21.490315345637331
 31
0.0
  0
LINE
  5
68D
  8
0
 10
17.250688735066671
 20
20.186708256201712
 30
0.0
 11
17.180665606400002
 21
21.256663936700001
 31
0.0
  0
LINE
  5
68E
  8
0
 10
17.15090207583874
 20
20.080186335099999
 30
0.0
 11
1.495531705599999
 21
20.0801877936
 31
0.0
  0
LINE
  5
68F
  8
0
 10
1.395405141051028
 20
20.186708560120699
 30
0.0
 11
1.4654266467999999
 21
21.256675711
 31
0.0
  0
LINE
  5
690
  8
0
 10
17.103495438585629
 20
20.080187510999991
 30
0.0
 11
17.5255270147
 21
11.459479678799999
 31
0.0
  0
LINE
  5
698
  8
0
 10
1.542598315072246
 20
20.080187510999998
 30
0.0
 11
1.1205667353999991
 21
11.459479678799999
 31
0.0
  0
ARC
  5
69A
  8
0
 10
1.9804111943614711
 20
11.32076859823402
 30
0.0
 40
0.8709611113468424
 50
170.83593252906121
 51
270.20917596882089
  0
ARC
  5
69B
  8
0
 10
16.665440537390211
 20
11.320979624883529
 30
0.0
 40
0.8711664670922663
 50
269.79633025512499
 51
9.1478305737968864
  0
LINE
  5
69C
  8
0
 10
3.4436880944000001
 20
-3.8298124889999992
 30
0.0
 11
15.2018889153
 21
-3.8298124889999992
 31
0.0
  0
ARC
  5
69D
  8
0
 10
127.35899240940169
 20
1.5527451310652269
 30
0.0
 40
112.2861869987576
 50
178.73581598444829
 51
182.74758698860651
  0
ARC
  5
69E
  8
0
 10
31.508926979452781
 20
3.740956242351948
 30
0.0
 40
16.411337053453622
 50
156.32796998227761
 51
178.9906684142808
  0
ARC
  5
6A0
  8
0
 10
-108.71329880355439
 20
1.555301405148277
 30
0.0
 40
112.2861869987576
 50
357.2511721735512
 51
1.262943177709392
  0
ARC
  5
6A1
  8
0
 10
-12.86318600663866
 20
3.7414367192510078
 30
0.0
 40
16.411337053453622
 50
1.0080907478768559
 51
23.670155410362291
  0
ARC
  5
6A2
  8
0
 10
1.9843210605384001
 20
10.24981462398315
 30
0.0
 40
0.2
 50
23.67015541036232
 51
90.209175968821043
  0
ARC
  5
6A5
  8
0
 10
16.661632861790469
 20
10.24981992538515
 30
0.0
 40
0.2
 50
89.796330255124417
 51
156.32796998227681
  0
LINE
  5
6A6
  8
0
 10
2.1849317145125999
 20
10.290187510999999
 30
0.0
 11
16.46101836490363
 21
10.290187510999999
 31
0.0
  0
LINE
  5
6A7
  8
0
 10
16.324422919500002
 20
12.903187511
 30
0.0
 11
2.3216709561000002
 21
12.903187511
 31
0.0
  0
LINE
  5
6A8
  8
0
 10
1.170039864395733
 20
12.670187511
 30
0.0
 11
17.476053885704271
 21
12.670187511
 31
0.0
  0
LINE
  5
6B4
  8
0
 10
5.1939801905999641
 20
14.442058599299999
 30
0.0
 11
13.436497044627441
 21
14.44243551228811
 31
0.0
  0
ARC
  5
6B5
  8
0
 10
12.20405830852436
 20
-8.0098992256543102
 30
0.0
 40
22.486619401151671
 50
80.777570905690652
 51
86.818327299822215
  0
ARC
  5
6B6
  8
0
 10
15.798543184282
 20
13.801245313033601
 30
0.0
 40
0.3849184641742502
 50
21.690054561291451
 51
88.601893820578866
  0
ARC
  5
6B7
  8
0
 10
12.205489321594451
 20
12.506592601734621
 30
0.0
 40
4.2039146409259907
 50
6.4465558715333851
 51
19.986794746529618
  0
ARC
  5
6B8
  8
0
 10
16.324209445396189
 20
12.963669693891889
 30
0.0
 40
0.0604831757790015
 50
270.32829998820119
 51
14.284320442663891
  0
ARC
  5
6B9
  8
0
 10
6.4420354452756401
 20
-8.0098992256543102
 30
0.0
 40
22.486619401151671
 50
93.181672700177884
 51
99.222429094309305
  0
ARC
  5
6BA
  8
0
 10
2.847550569517999
 20
13.801245313033601
 30
0.0
 40
0.3849184641742502
 50
91.39810617942112
 51
158.3099454387085
  0
ARC
  5
6BB
  8
0
 10
6.4406044322055527
 20
12.506592601734621
 30
0.0
 40
4.2039146409259907
 50
160.01320525347029
 51
173.55344412846659
  0
ARC
  5
6BC
  8
0
 10
2.321884308403809
 20
12.963669693891889
 30
0.0
 40
0.0604831757790015
 50
165.7156795573361
 51
269.67170001179898
  0
ATTDEF
  5
766
  8
DEFPOINTS
 10
9.318494615216796
 20
-3.8320099724897232
 30
0.0
 40
0.001
  1
K-4000
  3

  2
MODELNUMBER
 70
     0
1001
ACDBATTR
1070
     0
1070
     1
  0
ATTDEF
  5
767
  8
DEFPOINTS
 10
9.318494615216796
 20
-3.8336766391563879
 30
0.0
 40
0.001
  1
SAN SOUCI
  3

  2
TRADENAME
 70
     0
1001
ACDBATTR
1070
     0
1070
     1
  0
ATTDEF
  5
768
  8
DEFPOINTS
 10
9.318494615216796
 20
-3.8353433058230531
 30
0.0
 40
0.001
  1
TOILET
  3

  2
PRODUCT
 70
     0
1001
ACDBATTR
1070
     0
1070
     1
  0
ATTDEF
  5
769
  8
DEFPOINTS
 10
9.318494615216796
 20
-3.8370099724897182
 30
0.0
 40
0.001
  1
VITREOUS CHINA
  3

  2
MATERIAL
 70
     0
1001
ACDBATTR
1070
     0
1070
     1
  0
ENDSEC
  0
EOF
