  0
SECTION
  2
HEADER
  9
$ACADVER
  1
AC1009
  9
$INSBASE
 10
-36.024893195396778
 20
-1.7876595311000001
 30
0.0
  9
$EXTMIN
 10
-36.04219508219154
 20
-1.798652921639188
 30
0.0
  9
$EXTMAX
 10
-6.9895105810000002
 20
26.702340468900001
 30
0.0
  9
$LIMMIN
 10
0.0
 20
0.0
  9
$LIMMAX
 10
22.0
 20
17.0
  9
$ORTHOMODE
 70
     0
  9
$REGENMODE
 70
     1
  9
$FILLMODE
 70
     1
  9
$QTEXTMODE
 70
     0
  9
$MIRRTEXT
 70
     0
  9
$DRAGMODE
 70
     2
  9
$LTSCALE
 40
1.2099999999999991
  9
$OSMODE
 70
    47
  9
$ATTMODE
 70
     1
  9
$TEXTSIZE
 40
0.2
  9
$TRACEWID
 40
0.05
  9
$TEXTSTYLE
  7
STANDARD
  9
$CLAYER
  8
0
  9
$CELTYPE
  6
BYLAYER
  9
$CECOLOR
 62
   256
  9
$DIMSCALE
 40
1.0
  9
$DIMASZ
 40
0.1875
  9
$DIMEXO
 40
0.0625
  9
$DIMDLI
 40
0.8359999999999999
  9
$DIMRND
 40
0.0
  9
$DIMDLE
 40
0.0
  9
$DIMEXE
 40
0.125
  9
$DIMTP
 40
0.0
  9
$DIMTM
 40
0.0
  9
$DIMTXT
 40
0.15625
  9
$DIMCEN
 40
0.198
  9
$DIMTSZ
 40
0.0
  9
$DIMTOL
 70
     0
  9
$DIMLIM
 70
     0
  9
$DIMTIH
 70
     1
  9
$DIMTOH
 70
     1
  9
$DIMSE1
 70
     0
  9
$DIMSE2
 70
     0
  9
$DIMTAD
 70
     0
  9
$DIMZIN
 70
     0
  9
$DIMBLK
  1

  9
$DIMASO
 70
     1
  9
$DIMSHO
 70
     1
  9
$DIMPOST
  1

  9
$DIMAPOST
  1

  9
$DIMALT
 70
     0
  9
$DIMALTD
 70
     2
  9
$DIMALTF
 40
25.399999999999999
  9
$DIMLFAC
 40
1.0
  9
$DIMTOFL
 70
     0
  9
$DIMTVP
 40
0.0
  9
$DIMTIX
 70
     0
  9
$DIMSOXD
 70
     0
  9
$DIMSAH
 70
     0
  9
$DIMBLK1
  1

  9
$DIMBLK2
  1

  9
$DIMSTYLE
  2
STANDARD
  9
$DIMCLRD
 70
     0
  9
$DIMCLRE
 70
     0
  9
$DIMCLRT
 70
     0
  9
$DIMTFAC
 40
1.0
  9
$DIMGAP
 40
0.09
  9
$LUNITS
 70
     2
  9
$LUPREC
 70
     4
  9
$SKETCHINC
 40
0.1
  9
$FILLETRAD
 40
0.0
  9
$AUNITS
 70
     0
  9
$AUPREC
 70
     0
  9
$MENU
  1
.
  9
$ELEVATION
 40
0.0
  9
$PELEVATION
 40
0.0
  9
$THICKNESS
 40
0.0
  9
$LIMCHECK
 70
     0
  9
$BLIPMODE
 70
     0
  9
$CHAMFERA
 40
0.0
  9
$CHAMFERB
 40
0.0
  9
$SKPOLY
 70
     0
  9
$TDCREATE
 40
2457422.5712863891
  9
$TDUPDATE
 40
2457423.5904644909
  9
$TDINDWG
 40
0.1637594213
  9
$TDUSRTIMER
 40
0.1637594213
  9
$USRTIMER
 70
     1
  9
$ANGBASE
 50
0.0
  9
$ANGDIR
 70
     0
  9
$PDMODE
 70
     0
  9
$PDSIZE
 40
0.3125
  9
$PLINEWID
 40
0.0
  9
$COORDS
 70
     0
  9
$SPLFRAME
 70
     0
  9
$SPLINETYPE
 70
     6
  9
$SPLINESEGS
 70
     8
  9
$ATTDIA
 70
     1
  9
$ATTREQ
 70
     1
  9
$HANDLING
 70
     1
  9
$HANDSEED
  5
1244
  9
$SURFTAB1
 70
     6
  9
$SURFTAB2
 70
     6
  9
$SURFTYPE
 70
     6
  9
$SURFU
 70
     6
  9
$SURFV
 70
     6
  9
$UCSNAME
  2

  9
$UCSORG
 10
0.0
 20
0.0
 30
0.0
  9
$UCSXDIR
 10
1.0
 20
0.0
 30
0.0
  9
$UCSYDIR
 10
0.0
 20
1.0
 30
0.0
  9
$PUCSNAME
  2

  9
$PUCSORG
 10
0.0
 20
0.0
 30
0.0
  9
$PUCSXDIR
 10
1.0
 20
0.0
 30
0.0
  9
$PUCSYDIR
 10
0.0
 20
1.0
 30
0.0
  9
$USERI1
 70
     0
  9
$USERI2
 70
     0
  9
$USERI3
 70
     0
  9
$USERI4
 70
     0
  9
$USERI5
 70
     0
  9
$USERR1
 40
0.0
  9
$USERR2
 40
0.0
  9
$USERR3
 40
0.0
  9
$USERR4
 40
0.0
  9
$USERR5
 40
0.0
  9
$WORLDVIEW
 70
     1
  9
$SHADEDGE
 70
     3
  9
$SHADEDIF
 70
    70
  9
$TILEMODE
 70
     1
  9
$MAXACTVP
 70
    48
  9
$PLIMCHECK
 70
     0
  9
$PEXTMIN
 10
1.0000000000000000E+020
 20
1.0000000000000000E+020
 30
1.0000000000000000E+020
  9
$PEXTMAX
 10
-1.0000000000000000E+020
 20
-1.0000000000000000E+020
 30
-1.0000000000000000E+020
  9
$PLIMMIN
 10
0.0
 20
0.0
  9
$PLIMMAX
 10
12.0
 20
9.0
  9
$UNITMODE
 70
     0
  9
$VISRETAIN
 70
     1
  9
$PLINEGEN
 70
     0
  9
$PSLTSCALE
 70
     1
  0
ENDSEC
  0
SECTION
  2
TABLES
  0
TABLE
  2
VPORT
 70
     1
  0
VPORT
  2
*ACTIVE
 70
     0
 10
0.0
 20
0.0
 11
1.0
 21
1.0
 12
5.008421926222411
 22
3.6348708345428662
 13
0.0
 23
0.0
 14
1.0
 24
1.0
 15
0.0
 25
0.0
 16
-0.0000000000000249
 26
0.0
 36
109.65144361097759
 17
-21.008327960968021
 27
12.45587306580868
 37
0.0
 40
70.013605273608633
 41
2.123303167420814
 42
50.0
 43
0.0
 44
0.0
 50
0.0
 51
0.0
 71
     0
 72
   100
 73
     1
 74
     1
 75
     0
 76
     0
 77
     0
 78
     0
  0
ENDTAB
  0
TABLE
  2
LTYPE
 70
     2
  0
LTYPE
  2
CONTINUOUS
 70
     0
  3
Solid line
 72
    65
 73
     0
 40
0.0
  0
ENDTAB
  0
TABLE
  2
LAYER
 70
     2
  0
LAYER
  2
0
 70
     0
 62
     7
  6
CONTINUOUS
  0
LAYER
  2
DEFPOINTS
 70
     0
 62
     7
  6
CONTINUOUS
  0
ENDTAB
  0
TABLE
  2
STYLE
 70
     1
  0
STYLE
  2
STANDARD
 70
     0
 40
0.0
 41
0.8
 50
0.0
 71
     0
 42
0.2
  3
txt
  4

  0
ENDTAB
  0
TABLE
  2
VIEW
 70
     8
  0
ENDTAB
  0
TABLE
  2
UCS
 70
     0
  0
ENDTAB
  0
TABLE
  2
APPID
 70
     4
  0
APPID
  2
ACAD
 70
     0
  0
APPID
  2
ACAD_MLEADERVER
 70
     0
  0
APPID
  2
ACAD_NAV_VCDISPLAY
 70
     0
  0
APPID
  2
ACDBATTR
 70
     0
  0
ENDTAB
  0
TABLE
  2
DIMSTYLE
 70
     2
  0
DIMSTYLE
  2
STANDARD
 70
     0
  3

  4

  5

  6

  7

 40
1.0
 41
0.1875
 42
0.0625
 43
0.38
 44
0.125
 45
0.0
 46
0.0
 47
1.5
 48
1.5
140
0.15625
141
0.09
142
0.0
143
25.399999999999999
144
1.0
145
0.0
146
1.0
147
0.09
 71
     0
 72
     0
 73
     1
 74
     1
 75
     0
 76
     0
 77
     0
 78
     4
170
     0
171
     2
172
     0
173
     0
174
     0
175
     0
176
     0
177
     0
178
     0
  0
ENDTAB
  0
ENDSEC
  0
SECTION
  2
BLOCKS
  0
BLOCK
  8
0
  2
$MODEL_SPACE
 70
     0
 10
0.0
 20
0.0
 30
0.0
  3
$MODEL_SPACE
  1

  0
ENDBLK
  5
21
  8
0
  0
BLOCK
 67
     1
  8
0
  2
$PAPER_SPACE
 70
     0
 10
0.0
 20
0.0
 30
0.0
  3
$PAPER_SPACE
  1

  0
ENDBLK
  5
1D
 67
     1
  8
0
  0
ENDSEC
  0
SECTION
  2
ENTITIES
  0
LINE
  5
900
  8
0
 10
-34.465778171799997
 20
1.6056505077000001
 30
0.0
 11
-34.097337979300001
 21
-0.6276595327000001
 31
0.0
  0
LINE
  5
904
  8
0
 10
-35.02714687440001
 20
24.574434438200001
 30
0.0
 11
-35.024893195399997
 21
24.505709577800001
 31
0.0
  0
LINE
  5
90B
  8
0
 10
-34.988810997400002
 20
13.7013404689
 30
0.0
 11
-34.988810997400002
 21
24.401778648899999
 31
0.0
  0
LINE
  5
910
  8
0
 10
-34.488810997399987
 20
-0.9175270461
 30
0.0
 11
-34.488810997399987
 21
-1.7876595311000001
 31
0.0
  0
LINE
  5
91A
  8
0
 10
-35.02714687440001
 20
24.574434438200001
 30
0.0
 11
-34.9592421483
 21
26.51897137320001
 31
0.0
  0
LINE
  5
92C
  8
0
 10
-10.358810997400001
 20
-1.7876595311000001
 30
0.0
 11
-34.488810997399987
 21
-1.7876595311000001
 31
0.0
  0
LINE
  5
936
  8
0
 10
-34.553810997399999
 20
13.2083719278
 30
0.0
 11
-34.583643782999999
 21
13.4513404689
 31
0.0
  0
LINE
  5
938
  8
0
 10
-34.286684285900002
 20
7.2282057094000001
 30
0.0
 11
-34.477544248000001
 21
1.761778907899999
 31
0.0
  0
LINE
  5
95E
  8
0
 10
-34.198810970499999
 20
-0.6276595311
 30
0.0
 11
-10.358810997400001
 21
-0.6276962411432061
 31
0.0
  0
LINE
  5
962
  8
0
 10
-10.358810997400001
 20
-0.4474163831000001
 30
0.0
 11
-21.303573264299999
 21
-0.4169781222000009
 31
0.0
  0
LINE
  5
981
  8
0
 10
-34.467323128499999
 20
13.1985653374
 30
0.0
 11
-34.445019950899997
 21
13.067660172
 31
0.0
  0
LINE
  5
987
  8
0
 10
-32.475810997400004
 20
21.032173654000001
 30
0.0
 11
-32.475810997400004
 21
20.968723371300001
 31
0.0
  0
LINE
  5
98C
  8
0
 10
-31.741810997399998
 20
21.032173654000001
 30
0.0
 11
-31.741810997399998
 21
20.968723371300001
 31
0.0
  0
LINE
  5
99C
  8
0
 10
-28.233036515599998
 20
24.823845043800009
 30
0.0
 11
-28.1531249222
 21
25.043601925600001
 31
0.0
  0
LINE
  5
9A8
  8
0
 10
-11.317394114307911
 20
0.8985130805765113
 30
0.0
 11
-19.652459926056871
 21
0.8790183099316166
 31
0.0
  0
LINE
  5
9F9
  8
0
 10
-28.316107767399998
 20
24.425639607299999
 30
0.0
 11
-28.29547867050001
 21
24.572423259200001
 31
0.0
  0
POLYLINE
  5
A0E
  8
0
 66
     1
 10
0.0
 20
0.0
 30
0.0
  0
VERTEX
  5
117B
  8
0
 10
-28.682956658599998
 20
14.962340468900001
 30
0.0
  0
VERTEX
  5
117C
  8
0
 10
-28.682875485299999
 20
14.9661131475
 30
0.0
  0
VERTEX
  5
117D
  8
0
 10
-28.682827055800001
 20
14.9699198868
 30
0.0
  0
VERTEX
  5
117E
  8
0
 10
-28.682810997400001
 20
24.322340468899998
 30
0.0
  0
SEQEND
  5
117F
  8
0
  0
LINE
  5
A1B
  8
0
 10
-27.9025895483
 20
25.296104289100001
 30
0.0
 11
-27.945293007899998
 21
26.51897137280001
 31
0.0
  0
LINE
  5
A1C
  8
0
 10
-26.734866695499999
 20
14.799843427600001
 30
0.0
 11
-26.742522212400001
 21
14.712340468900001
 31
0.0
  0
LINE
  5
A2D
  8
0
 10
-25.4523054245
 20
12.3432554423
 30
0.0
 11
-25.50813014820001
 21
13.300202578
 31
0.0
  0
LINE
  5
A32
  8
0
 10
-25.529610997399999
 20
15.9952102326
 30
0.0
 11
-25.529610997399999
 21
15.792842032099999
 31
0.0
  0
LINE
  5
A34
  8
0
 10
-25.527709422600001
 20
15.9952102326
 30
0.0
 11
-25.527709422600001
 21
16.1133204689
 31
0.0
  0
LINE
  5
A36
  8
0
 10
-25.511961391100002
 20
15.7827208835
 30
0.0
 11
-25.511961391100009
 21
15.737077067742289
 31
0.0
  0
LINE
  5
A44
  8
0
 10
-25.118260603700001
 20
15.7827208835
 30
0.0
 11
-25.118260603700001
 21
15.738515391111299
 31
0.0
  0
LINE
  5
A47
  8
0
 10
-25.102512572199998
 20
16.1133204689
 30
0.0
 11
-25.102512572199998
 21
15.9952102326
 31
0.0
  0
LINE
  5
A49
  8
0
 10
-25.1006109974
 20
15.9952102326
 30
0.0
 11
-25.1006109974
 21
15.792842032099999
 31
0.0
  0
LINE
  5
A51
  8
0
 10
-25.0054157543
 20
15.471302188599999
 30
0.0
 11
-25.034507749900001
 21
15.1387791579
 31
0.0
  0
LINE
  5
A5C
  8
0
 10
-24.869238799600001
 20
15.761896284300001
 30
0.0
 11
-25.009494180099999
 21
15.424685568899999
 31
0.0
  0
LINE
  5
A63
  8
0
 10
-25.1006109974
 20
15.9587311049
 30
0.0
 11
-24.76797287242556
 21
16.124033468899999
 31
0.0
  0
LINE
  5
A82
  8
0
 10
-24.690706050006959
 20
10.59345023240831
 30
0.0
 11
-24.9522167563
 21
7.7909288328999988
 31
0.0
  0
LINE
  5
A8E
  8
0
 10
-27.2252839097
 20
11.1331377302
 30
0.0
 11
-34.444882669499997
 21
13.067623387599999
 31
0.0
  0
LINE
  5
AA1
  8
0
 10
-25.547780394299998
 20
15.211222168300001
 30
0.0
 11
-25.605306568844341
 21
15.391652814966641
 31
0.0
  0
LINE
  5
AAF
  8
0
 10
-23.288645559599999
 20
15.002554874185311
 30
0.0
 11
-23.288645559599999
 21
14.8680055082
 31
0.0
  0
LINE
  5
AC1
  8
0
 10
-25.137810245699999
 20
14.854580344
 30
0.0
 11
-25.540955758199999
 21
15.2869009772
 31
0.0
  0
LINE
  5
AE3
  8
0
 10
-7.6487151637000004
 20
12.2349273143
 30
0.0
 11
-25.587259817327631
 21
12.33855520855958
 31
0.0
  0
LINE
  5
AE9
  8
0
 10
-34.553810997399999
 20
13.2083719278
 30
0.0
 11
-25.54531942446696
 21
12.18692739683476
 31
0.0
  0
LINE
  5
B1D
  8
0
 10
-28.1680211746
 20
13.4513404689
 30
0.0
 11
-34.738810997400002
 21
13.4513404689
 31
0.0
  0
LINE
  5
B1F
  8
0
 10
-22.300424211125161
 20
12.711061361146101
 30
0.0
 11
-7.4112830499999989
 21
12.7110570024
 31
0.0
  0
LINE
  5
B3D
  8
0
 10
-19.540803534199998
 20
1.0975502256
 30
0.0
 11
-19.370049101900001
 21
5.8537216048999996
 31
0.0
  0
LINE
  5
B50
  8
0
 10
-7.6363379682000003
 20
14.712340468900001
 30
0.0
 11
-28.302810997400002
 21
14.712340468900001
 31
0.0
  0
LINE
  5
B52
  8
0
 10
-34.738810997400002
 20
14.733339992099999
 30
0.0
 11
-28.835917688199999
 21
14.7593316061
 31
0.0
  0
LINE
  5
B54
  8
0
 10
-23.308330618999999
 20
14.848320468900001
 30
0.0
 11
-25.123413519
 21
14.848320468900001
 31
0.0
  0
LINE
  5
B5F
  8
0
 10
-6.9895105810000002
 20
15.0223404689
 30
0.0
 11
-24.971251503631461
 21
15.0223404689
 31
0.0
  0
LINE
  5
B61
  8
0
 10
-25.642885859700002
 20
15.0803204689
 30
0.0
 11
-26.570906904263168
 21
15.08025175380129
 31
0.0
  0
LINE
  5
B63
  8
0
 10
-25.692614741300002
 20
15.146320468900001
 30
0.0
 11
-26.559607253399999
 21
15.146320468900001
 31
0.0
  0
LINE
  5
B85
  8
0
 10
-17.767966771095558
 20
8.592112610887332
 30
0.0
 11
-17.7636618216
 21
1.065185126599999
 31
0.0
  0
LINE
  5
B9D
  8
0
 10
-24.85135779995915
 20
15.79944044744372
 30
0.0
 11
-24.5713585397
 21
15.8223404689
 31
0.0
  0
LINE
  5
B9E
  8
0
 10
-23.111477907800001
 20
16.124033468899999
 30
0.0
 11
-24.519383000400001
 21
16.015300487000001
 31
0.0
  0
LINE
  5
BA0
  8
0
 10
-25.110110018099999
 20
15.7830055082
 30
0.0
 11
-25.118260603700001
 21
15.7827208835
 31
0.0
  0
LINE
  5
BA5
  8
0
 10
-25.118260603700001
 20
15.7827208835
 30
0.0
 11
-25.190881320864548
 21
15.7827208835
 31
0.0
  0
LINE
  5
BA6
  8
0
 10
-25.437590900535451
 20
15.7827208835
 30
0.0
 11
-25.511961391100002
 21
15.7827208835
 31
0.0
  0
LINE
  5
BB2
  8
0
 10
-24.5713585397
 20
15.8223404689
 30
0.0
 11
-8.0168088038
 21
15.8223404689
 31
0.0
  0
LINE
  5
BB5
  8
0
 10
-25.1006109974
 20
15.9952102326
 30
0.0
 11
-25.102512572199998
 21
15.9952102326
 31
0.0
  0
LINE
  5
BBB
  8
0
 10
-25.527709422600001
 20
15.9952102326
 30
0.0
 11
-25.529610997399999
 21
15.9952102326
 31
0.0
  0
LINE
  5
BBC
  8
0
 10
-25.102512572199998
 20
16.1133204689
 30
0.0
 11
-25.527709422600001
 21
16.1133204689
 31
0.0
  0
LINE
  5
BBD
  8
0
 10
-25.052132998400001
 20
16.124033468899999
 30
0.0
 11
-7.8521329992999993
 21
16.124033468899999
 31
0.0
  0
LINE
  5
BBF
  8
0
 10
-25.520111976700001
 20
15.7830055082
 30
0.0
 11
-25.511961391100002
 21
15.7827208835
 31
0.0
  0
LINE
  5
BDF
  8
0
 10
-14.027935516699999
 20
9.0808776911999995
 30
0.0
 11
-13.79590329
 21
1.0375609600999991
 31
0.0
  0
LINE
  5
BE6
  8
0
 10
-13.363623801099999
 20
-1.7876595311000001
 30
0.0
 11
-13.36362380213267
 21
-0.4390597579056168
 31
0.0
  0
LINE
  5
BF9
  8
0
 10
-11.3638528033
 20
1.0375609600999991
 30
0.0
 11
-11.890924946
 21
8.9011372824000006
 31
0.0
  0
LINE
  5
C04
  8
0
 10
-32.475810997400004
 20
20.968723371300001
 30
0.0
 11
-31.741810997399998
 21
20.968723371300001
 31
0.0
  0
LINE
  5
C0E
  8
0
 10
-10.358810997400001
 20
-1.7876595311000001
 30
0.0
 11
-10.358810997400001
 21
-0.4474163831000001
 31
0.0
  0
LINE
  5
C14
  8
0
 10
-20.956393974600001
 20
-0.1375071793
 30
0.0
 11
-19.652419799800001
 21
0.8790495916999999
 31
0.0
  0
LINE
  5
C2B
  8
0
 10
-21.150316677100001
 20
-0.2277220266
 30
0.0
 11
-21.0266201118
 21
-0.1779381378
 31
0.0
  0
LINE
  5
C30
  8
0
 10
-28.434939830400001
 20
24.322340468899998
 30
0.0
 11
-34.835008938999998
 21
24.322340468899998
 31
0.0
  0
LINE
  5
C60
  8
0
 10
-28.1531249222
 20
25.043601925600001
 30
0.0
 11
-34.889257744798691
 21
25.043599293652012
 31
0.0
  0
LINE
  5
C75
  8
0
 10
-28.135177255799999
 20
26.702340468900001
 30
0.0
 11
-34.7693578911
 21
26.702340468900001
 31
0.0
  0
ARC
  5
D10
  8
0
 10
-34.738810997400002
 20
13.7013404689
 30
0.0
 40
0.25
 50
180.0
 51
270.0
  0
ARC
  5
D12
  8
0
 10
-33.092810997400001
 20
22.8523404689
 30
0.0
 40
0.8
 50
347.12674828870001
 51
360.0
  0
ARC
  5
D13
  8
0
 10
-34.835008937799998
 20
24.5123404689
 30
0.0
 40
0.19
 50
181.99999599809999
 51
270.0
  0
ARC
  5
D14
  8
0
 10
-34.7693578911
 20
26.5123404689
 30
0.0
 40
0.19
 50
90.0
 51
178.00000000009999
  0
ARC
  5
D17
  8
0
 10
-31.124810997400001
 20
22.8523404689
 30
0.0
 40
0.8
 50
180.0
 51
192.87325137650001
  0
ARC
  5
D18
  8
0
 10
-32.108810997399999
 20
23.212340468899999
 30
0.0
 40
0.715
 50
286.95353764719999
 51
253.0464623522
  0
ARC
  5
D1A
  8
0
 10
-32.108810997399999
 20
21.2623404689
 30
0.0
 40
0.47
 50
218.66143581739999
 51
321.33856418260001
  0
ARC
  5
D1B
  8
0
 10
-32.108810997399999
 20
23.212340468899999
 30
0.0
 40
0.4034205369
 50
297.14188238079998
 51
242.8581176191999
  0
CIRCLE
  5
D1D
  8
0
 10
-32.108810997399999
 20
23.212340468899999
 30
0.0
 40
0.33
  0
ARC
  5
D1F
  8
0
 10
-28.168021174599989
 20
-10.17265953109978
 30
0.0
 40
23.623999999999789
 50
75.618661271353645
 51
90.000000000000028
  0
ARC
  5
D21
  8
0
 10
-23.956542155499999
 20
7.6980197946000004
 30
0.0
 40
1.0
 50
174.6690157953
 51
255.0177953402
  0
ARC
  5
D24
  8
0
 10
-28.27043699902832
 20
15.17558905364333
 30
0.0
 40
0.4643784308484503
 50
207.33630649392239
 51
266.00239987188979
  0
ARC
  5
D25
  8
0
 10
-26.5596109974
 20
15.1123204689
 30
0.0
 40
0.034
 50
90.0
 51
250.59566137397189
  0
ARC
  5
D26
  8
0
 10
-26.5688775733
 20
15.050320468900001
 30
0.0
 40
0.03
 50
93.878698490468366
 51
128.40727654829999
  0
ARC
  5
D27
  8
0
 10
-27.057643584800001
 20
24.3984568815
 30
0.0
 40
1.25
 50
160.0168934475
 51
172.0
  0
ARC
  5
D28
  8
0
 10
-28.135115199899989
 20
26.512340720499999
 30
0.0
 40
0.1899369115
 50
2.0005775526999998
 51
90.018713387700004
  0
ARC
  5
D29
  8
0
 10
-28.012155907699999
 20
24.9923404689
 30
0.0
 40
0.15
 50
97.719885572999999
 51
160.0168934781
  0
ARC
  5
D2A
  8
0
 10
-28.0524545962
 20
25.289621507100001
 30
0.0
 40
0.15
 50
277.71981879869998
 51
1.9997864497
  0
ARC
  5
D2B
  8
0
 10
-28.4349399231
 20
24.442340468899999
 30
0.0
 40
0.12
 50
270.0000442493
 51
352.0
  0
ARC
  5
D2C
  8
0
 10
-26.342664842800001
 20
14.7655302117
 30
0.0
 40
0.3937
 50
128.45670830809999
 51
174.9998851016
  0
ARC
  5
D2E
  8
0
 10
-25.64288604590001
 20
15.1803204689
 30
0.0
 40
0.1
 50
270.00010667409998
 51
18.0
  0
ARC
  5
D2F
  8
0
 10
-25.692610997399999
 20
15.1123204689
 30
0.0
 40
0.034
 50
289.73579607457742
 51
90.0
  0
ARC
  5
D31
  8
0
 10
-25.519768477700001
 20
15.792842032099999
 30
0.0
 40
0.0098425197
 50
180.00000000590001
 51
268.0
  0
ARC
  5
D33
  8
0
 10
-24.914964386099999
 20
15.1283204689
 30
0.0
 40
0.12
 50
175.0000000336
 51
242.02674819696429
  0
ARC
  5
D34
  8
0
 10
-25.123413519
 20
14.8680055082
 30
0.0
 40
0.0196850394
 50
222.9999987859
 51
270.0
  0
ARC
  5
D3A
  8
0
 10
-25.314236110700001
 20
15.498320468899999
 30
0.0
 40
0.31
 50
354.99999999949989
 51
223.00000000079999
  0
ARC
  5
D3D
  8
0
 10
-25.110453517100002
 20
15.792842032099999
 30
0.0
 40
0.0098425197
 50
272.0
 51
359.99999999410011
  0
ARC
  5
D42
  8
0
 10
-24.4875518622
 20
15.6031419975
 30
0.0
 40
0.4133858268
 50
94.416205975499992
 51
157.4162059757
  0
ARC
  5
D43
  8
0
 10
-16.4594903333
 20
35.712198596999997
 30
0.0
 40
30.0
 50
255.01779533999999
 51
265.92622991730002
  0
ARC
  5
D53
  8
0
 10
-23.3083305989
 20
14.8680055082
 30
0.0
 40
0.0196850394
 50
269.99999999929997
 51
360.0
  0
ARC
  5
D54
  8
0
 10
-23.30949323099199
 20
15.001555154782229
 30
0.0
 40
0.0208716276642043
 50
2.7454316706861581
 51
84.787468025666612
  0
ARC
  5
F0C
  8
0
 10
-34.198897573192369
 20
-0.9175729459972306
 30
0.0
 40
0.2899134278411253
 50
89.982878736371973
 51
179.990928773386
  0
ARC
  5
F0D
  8
0
 10
-10.63161976377206
 20
-0.4621038222825246
 30
0.0
 40
0.2732038504106169
 50
3.0817067888180421
 51
67.788825610608725
  0
ARC
  5
F0E
  8
0
 10
-10.40337710034302
 20
0.0968760973317203
 30
0.0
 40
0.3305786136781725
 50
214.9483845212124
 51
247.78882561060871
  0
LINE
  5
F0F
  8
0
 10
-10.674341951600001
 20
-0.0924919813000003
 30
0.0
 11
-11.31739411447629
 21
0.8985130808360018
 31
0.0
  0
ARC
  5
F10
  8
0
 10
-11.074492510544861
 20
1.0569567147539161
 30
0.0
 40
0.2900096107407522
 50
183.83479519004871
 51
213.1162311058942
  0
ARC
  5
F17
  8
0
 10
-33.6358021919404
 20
1.7467063280636741
 30
0.0
 40
0.8418769931542135
 50
178.97414781452741
 51
189.6453550777554
  0
ARC
  5
F18
  8
0
 10
-29.063455004167949
 20
6.9607368762887623
 30
0.0
 40
5.2300730115581544
 50
133.97738147809639
 51
177.0685833423799
  0
ARC
  5
F19
  8
0
 10
-30.03343128346485
 20
7.8594401060829071
 30
0.0
 40
3.9105266616348562
 50
81.021447377065613
 51
132.89350260258331
  0
LINE
  5
F1A
  8
0
 10
-27.2252839097
 20
11.1331377302
 30
0.0
 11
-25.020531791508201
 21
11.04165428670899
 31
0.0
  0
POLYLINE
  5
F24
  8
0
 10
-35.009164049627017
 20
25.08940784830266
 30
0.0
 66
     1
 70
     8
  0
VERTEX
  8
0
  5
11C2
 10
-35.0092
 20
25.0894
 30
0.000000
  70
    32
  0
VERTEX
  8
0
  5
11C3
 10
-35.0092
 20
25.0889
 30
0.000000
  70
    32
  0
VERTEX
  8
0
  5
11C4
 10
-35.0092
 20
25.0884
 30
0.000000
  70
    32
  0
VERTEX
  8
0
  5
11C5
 10
-35.0092
 20
25.0879
 30
0.000000
  70
    32
  0
VERTEX
  8
0
  5
11C6
 10
-35.0091
 20
25.0874
 30
0.000000
  70
    32
  0
VERTEX
  8
0
  5
11C7
 10
-35.0091
 20
25.0870
 30
0.000000
  70
    32
  0
VERTEX
  8
0
  5
11C8
 10
-35.0090
 20
25.0865
 30
0.000000
  70
    32
  0
VERTEX
  8
0
  5
11C9
 10
-35.0089
 20
25.0860
 30
0.000000
  70
    32
  0
VERTEX
  8
0
  5
11CA
 10
-35.0088
 20
25.0855
 30
0.000000
  70
    32
  0
VERTEX
  8
0
  5
11CB
 10
-35.0087
 20
25.0850
 30
0.000000
  70
    32
  0
VERTEX
  8
0
  5
11CC
 10
-35.0085
 20
25.0845
 30
0.000000
  70
    32
  0
VERTEX
  8
0
  5
11CD
 10
-35.0084
 20
25.0840
 30
0.000000
  70
    32
  0
VERTEX
  8
0
  5
11CE
 10
-35.0082
 20
25.0835
 30
0.000000
  70
    32
  0
VERTEX
  8
0
  5
11CF
 10
-35.0080
 20
25.0830
 30
0.000000
  70
    32
  0
VERTEX
  8
0
  5
11D0
 10
-35.0078
 20
25.0825
 30
0.000000
  70
    32
  0
VERTEX
  8
0
  5
11D1
 10
-35.0075
 20
25.0820
 30
0.000000
  70
    32
  0
VERTEX
  8
0
  5
11D2
 10
-35.0073
 20
25.0815
 30
0.000000
  70
    32
  0
VERTEX
  8
0
  5
11D3
 10
-35.0070
 20
25.0810
 30
0.000000
  70
    32
  0
VERTEX
  8
0
  5
11D4
 10
-35.0067
 20
25.0805
 30
0.000000
  70
    32
  0
VERTEX
  8
0
  5
11D5
 10
-35.0064
 20
25.0800
 30
0.000000
  70
    32
  0
VERTEX
  8
0
  5
11D6
 10
-35.0060
 20
25.0795
 30
0.000000
  70
    32
  0
VERTEX
  8
0
  5
11D7
 10
-35.0057
 20
25.0790
 30
0.000000
  70
    32
  0
VERTEX
  8
0
  5
11D8
 10
-35.0053
 20
25.0785
 30
0.000000
  70
    32
  0
VERTEX
  8
0
  5
11D9
 10
-35.0049
 20
25.0780
 30
0.000000
  70
    32
  0
VERTEX
  8
0
  5
11DA
 10
-35.0045
 20
25.0775
 30
0.000000
  70
    32
  0
VERTEX
  8
0
  5
11DB
 10
-35.0041
 20
25.0770
 30
0.000000
  70
    32
  0
VERTEX
  8
0
  5
11DC
 10
-35.0037
 20
25.0765
 30
0.000000
  70
    32
  0
VERTEX
  8
0
  5
11DD
 10
-35.0032
 20
25.0761
 30
0.000000
  70
    32
  0
VERTEX
  8
0
  5
11DE
 10
-35.0027
 20
25.0756
 30
0.000000
  70
    32
  0
VERTEX
  8
0
  5
11DF
 10
-35.0022
 20
25.0751
 30
0.000000
  70
    32
  0
VERTEX
  8
0
  5
11E0
 10
-35.0017
 20
25.0746
 30
0.000000
  70
    32
  0
VERTEX
  8
0
  5
11E1
 10
-35.0012
 20
25.0741
 30
0.000000
  70
    32
  0
VERTEX
  8
0
  5
11E2
 10
-35.0006
 20
25.0736
 30
0.000000
  70
    32
  0
VERTEX
  8
0
  5
11E3
 10
-35.0001
 20
25.0731
 30
0.000000
  70
    32
  0
VERTEX
  8
0
  5
11E4
 10
-34.9995
 20
25.0727
 30
0.000000
  70
    32
  0
VERTEX
  8
0
  5
11E5
 10
-34.9989
 20
25.0722
 30
0.000000
  70
    32
  0
VERTEX
  8
0
  5
11E6
 10
-34.9983
 20
25.0717
 30
0.000000
  70
    32
  0
VERTEX
  8
0
  5
11E7
 10
-34.9977
 20
25.0712
 30
0.000000
  70
    32
  0
VERTEX
  8
0
  5
11E8
 10
-34.9970
 20
25.0707
 30
0.000000
  70
    32
  0
VERTEX
  8
0
  5
11E9
 10
-34.9963
 20
25.0703
 30
0.000000
  70
    32
  0
VERTEX
  8
0
  5
11EA
 10
-34.9957
 20
25.0698
 30
0.000000
  70
    32
  0
VERTEX
  8
0
  5
11EB
 10
-34.9950
 20
25.0693
 30
0.000000
  70
    32
  0
VERTEX
  8
0
  5
11EC
 10
-34.9942
 20
25.0689
 30
0.000000
  70
    32
  0
VERTEX
  8
0
  5
11ED
 10
-34.9935
 20
25.0684
 30
0.000000
  70
    32
  0
VERTEX
  8
0
  5
11EE
 10
-34.9928
 20
25.0679
 30
0.000000
  70
    32
  0
VERTEX
  8
0
  5
11EF
 10
-34.9920
 20
25.0675
 30
0.000000
  70
    32
  0
VERTEX
  8
0
  5
11F0
 10
-34.9912
 20
25.0670
 30
0.000000
  70
    32
  0
VERTEX
  8
0
  5
11F1
 10
-34.9904
 20
25.0665
 30
0.000000
  70
    32
  0
VERTEX
  8
0
  5
11F2
 10
-34.9896
 20
25.0661
 30
0.000000
  70
    32
  0
VERTEX
  8
0
  5
11F3
 10
-34.9888
 20
25.0656
 30
0.000000
  70
    32
  0
VERTEX
  8
0
  5
11F4
 10
-34.9879
 20
25.0652
 30
0.000000
  70
    32
  0
VERTEX
  8
0
  5
11F5
 10
-34.9871
 20
25.0647
 30
0.000000
  70
    32
  0
VERTEX
  8
0
  5
11F6
 10
-34.9862
 20
25.0643
 30
0.000000
  70
    32
  0
VERTEX
  8
0
  5
11F7
 10
-34.9853
 20
25.0639
 30
0.000000
  70
    32
  0
VERTEX
  8
0
  5
11F8
 10
-34.9844
 20
25.0634
 30
0.000000
  70
    32
  0
VERTEX
  8
0
  5
11F9
 10
-34.9835
 20
25.0630
 30
0.000000
  70
    32
  0
VERTEX
  8
0
  5
11FA
 10
-34.9826
 20
25.0626
 30
0.000000
  70
    32
  0
VERTEX
  8
0
  5
11FB
 10
-34.9816
 20
25.0621
 30
0.000000
  70
    32
  0
VERTEX
  8
0
  5
11FC
 10
-34.9807
 20
25.0617
 30
0.000000
  70
    32
  0
VERTEX
  8
0
  5
11FD
 10
-34.9797
 20
25.0613
 30
0.000000
  70
    32
  0
VERTEX
  8
0
  5
11FE
 10
-34.9787
 20
25.0609
 30
0.000000
  70
    32
  0
VERTEX
  8
0
  5
11FF
 10
-34.9777
 20
25.0605
 30
0.000000
  70
    32
  0
VERTEX
  8
0
  5
1200
 10
-34.9767
 20
25.0601
 30
0.000000
  70
    32
  0
VERTEX
  8
0
  5
1201
 10
-34.9756
 20
25.0596
 30
0.000000
  70
    32
  0
VERTEX
  8
0
  5
1202
 10
-34.9746
 20
25.0592
 30
0.000000
  70
    32
  0
VERTEX
  8
0
  5
1203
 10
-34.9735
 20
25.0588
 30
0.000000
  70
    32
  0
VERTEX
  8
0
  5
1204
 10
-34.9725
 20
25.0584
 30
0.000000
  70
    32
  0
VERTEX
  8
0
  5
1205
 10
-34.9714
 20
25.0581
 30
0.000000
  70
    32
  0
VERTEX
  8
0
  5
1206
 10
-34.9703
 20
25.0577
 30
0.000000
  70
    32
  0
VERTEX
  8
0
  5
1207
 10
-34.9692
 20
25.0573
 30
0.000000
  70
    32
  0
VERTEX
  8
0
  5
1208
 10
-34.9681
 20
25.0569
 30
0.000000
  70
    32
  0
VERTEX
  8
0
  5
1209
 10
-34.9669
 20
25.0565
 30
0.000000
  70
    32
  0
VERTEX
  8
0
  5
120A
 10
-34.9658
 20
25.0562
 30
0.000000
  70
    32
  0
VERTEX
  8
0
  5
120B
 10
-34.9646
 20
25.0558
 30
0.000000
  70
    32
  0
VERTEX
  8
0
  5
120C
 10
-34.9635
 20
25.0554
 30
0.000000
  70
    32
  0
VERTEX
  8
0
  5
120D
 10
-34.9623
 20
25.0551
 30
0.000000
  70
    32
  0
VERTEX
  8
0
  5
120E
 10
-34.9611
 20
25.0547
 30
0.000000
  70
    32
  0
VERTEX
  8
0
  5
120F
 10
-34.9599
 20
25.0544
 30
0.000000
  70
    32
  0
VERTEX
  8
0
  5
1210
 10
-34.9587
 20
25.0540
 30
0.000000
  70
    32
  0
VERTEX
  8
0
  5
1211
 10
-34.9575
 20
25.0537
 30
0.000000
  70
    32
  0
VERTEX
  8
0
  5
1212
 10
-34.9562
 20
25.0533
 30
0.000000
  70
    32
  0
VERTEX
  8
0
  5
1213
 10
-34.9550
 20
25.0530
 30
0.000000
  70
    32
  0
VERTEX
  8
0
  5
1214
 10
-34.9537
 20
25.0527
 30
0.000000
  70
    32
  0
VERTEX
  8
0
  5
1215
 10
-34.9525
 20
25.0524
 30
0.000000
  70
    32
  0
VERTEX
  8
0
  5
1216
 10
-34.9512
 20
25.0521
 30
0.000000
  70
    32
  0
VERTEX
  8
0
  5
1217
 10
-34.9499
 20
25.0517
 30
0.000000
  70
    32
  0
VERTEX
  8
0
  5
1218
 10
-34.9486
 20
25.0514
 30
0.000000
  70
    32
  0
VERTEX
  8
0
  5
1219
 10
-34.9473
 20
25.0511
 30
0.000000
  70
    32
  0
VERTEX
  8
0
  5
121A
 10
-34.9460
 20
25.0508
 30
0.000000
  70
    32
  0
VERTEX
  8
0
  5
121B
 10
-34.9447
 20
25.0505
 30
0.000000
  70
    32
  0
VERTEX
  8
0
  5
121C
 10
-34.9434
 20
25.0503
 30
0.000000
  70
    32
  0
VERTEX
  8
0
  5
121D
 10
-34.9421
 20
25.0500
 30
0.000000
  70
    32
  0
VERTEX
  8
0
  5
121E
 10
-34.9407
 20
25.0497
 30
0.000000
  70
    32
  0
VERTEX
  8
0
  5
121F
 10
-34.9394
 20
25.0494
 30
0.000000
  70
    32
  0
VERTEX
  8
0
  5
1220
 10
-34.9380
 20
25.0492
 30
0.000000
  70
    32
  0
VERTEX
  8
0
  5
1221
 10
-34.9367
 20
25.0489
 30
0.000000
  70
    32
  0
VERTEX
  8
0
  5
1222
 10
-34.9353
 20
25.0487
 30
0.000000
  70
    32
  0
VERTEX
  8
0
  5
1223
 10
-34.9339
 20
25.0484
 30
0.000000
  70
    32
  0
VERTEX
  8
0
  5
1224
 10
-34.9325
 20
25.0482
 30
0.000000
  70
    32
  0
VERTEX
  8
0
  5
1225
 10
-34.9312
 20
25.0479
 30
0.000000
  70
    32
  0
VERTEX
  8
0
  5
1226
 10
-34.9298
 20
25.0477
 30
0.000000
  70
    32
  0
VERTEX
  8
0
  5
1227
 10
-34.9284
 20
25.0475
 30
0.000000
  70
    32
  0
VERTEX
  8
0
  5
1228
 10
-34.9270
 20
25.0472
 30
0.000000
  70
    32
  0
VERTEX
  8
0
  5
1229
 10
-34.9256
 20
25.0470
 30
0.000000
  70
    32
  0
VERTEX
  8
0
  5
122A
 10
-34.9241
 20
25.0468
 30
0.000000
  70
    32
  0
VERTEX
  8
0
  5
122B
 10
-34.9227
 20
25.0466
 30
0.000000
  70
    32
  0
VERTEX
  8
0
  5
122C
 10
-34.9213
 20
25.0464
 30
0.000000
  70
    32
  0
VERTEX
  8
0
  5
122D
 10
-34.9199
 20
25.0462
 30
0.000000
  70
    32
  0
VERTEX
  8
0
  5
122E
 10
-34.9184
 20
25.0460
 30
0.000000
  70
    32
  0
VERTEX
  8
0
  5
122F
 10
-34.9170
 20
25.0459
 30
0.000000
  70
    32
  0
VERTEX
  8
0
  5
1230
 10
-34.9156
 20
25.0457
 30
0.000000
  70
    32
  0
VERTEX
  8
0
  5
1231
 10
-34.9141
 20
25.0455
 30
0.000000
  70
    32
  0
VERTEX
  8
0
  5
1232
 10
-34.9127
 20
25.0454
 30
0.000000
  70
    32
  0
VERTEX
  8
0
  5
1233
 10
-34.9112
 20
25.0452
 30
0.000000
  70
    32
  0
VERTEX
  8
0
  5
1234
 10
-34.9098
 20
25.0451
 30
0.000000
  70
    32
  0
VERTEX
  8
0
  5
1235
 10
-34.9083
 20
25.0449
 30
0.000000
  70
    32
  0
VERTEX
  8
0
  5
1236
 10
-34.9068
 20
25.0448
 30
0.000000
  70
    32
  0
VERTEX
  8
0
  5
1237
 10
-34.9054
 20
25.0446
 30
0.000000
  70
    32
  0
VERTEX
  8
0
  5
1238
 10
-34.9039
 20
25.0445
 30
0.000000
  70
    32
  0
VERTEX
  8
0
  5
1239
 10
-34.9025
 20
25.0444
 30
0.000000
  70
    32
  0
VERTEX
  8
0
  5
123A
 10
-34.9010
 20
25.0443
 30
0.000000
  70
    32
  0
VERTEX
  8
0
  5
123B
 10
-34.8995
 20
25.0442
 30
0.000000
  70
    32
  0
VERTEX
  8
0
  5
123C
 10
-34.8981
 20
25.0441
 30
0.000000
  70
    32
  0
VERTEX
  8
0
  5
123D
 10
-34.8966
 20
25.0440
 30
0.000000
  70
    32
  0
VERTEX
  8
0
  5
123E
 10
-34.8951
 20
25.0439
 30
0.000000
  70
    32
  0
VERTEX
  8
0
  5
123F
 10
-34.8937
 20
25.0438
 30
0.000000
  70
    32
  0
VERTEX
  8
0
  5
1240
 10
-34.8922
 20
25.0437
 30
0.000000
  70
    32
  0
VERTEX
  8
0
  5
1241
 10
-34.8907
 20
25.0437
 30
0.000000
  70
    32
  0
VERTEX
  8
0
  5
1242
 10
-34.8893
 20
25.0436
 30
0.000000
  70
    32
  0
SEQEND
  8
0
  5
1243
  0
ARC
  5
F25
  8
0
 10
-13.202645031898101
 20
14.445960974808941
 30
0.0
 40
21.271070870714759
 50
183.7269773663632
 51
194.3805678193842
  0
ARC
  5
F28
  8
0
 10
-32.69013793327732
 20
21.261361551769411
 30
0.0
 40
0.3137883489336788
 50
313.08089406014079
 51
355.67231114650292
  0
ARC
  5
F29
  8
0
 10
-31.524225057307941
 20
21.262924641638069
 30
0.0
 40
0.3171587293796164
 50
184.5648343597187
 51
226.68196043364151
  0
LINE
  5
F2A
  8
0
 10
-31.840377731699999
 20
21.237682888599959
 30
0.0
 11
-31.904703247500361
 21
22.674104450560861
 31
0.0
  0
LINE
  5
F2B
  8
0
 10
-32.312918748341133
 20
22.67410444600366
 30
0.0
 11
-32.37724426310001
 21
21.237682888599881
 31
0.0
  0
ARC
  5
F3E
  8
0
 10
-34.76480293443722
 20
14.955929709905011
 30
0.0
 40
0.224099776180245
 50
178.36073965587161
 51
276.65727110881011
  0
ARC
  5
F3F
  8
0
 10
-28.892310598553149
 20
14.960960958539671
 30
0.0
 40
0.2093585154241861
 50
285.62829043182302
 51
0.3775870759592554
  0
ARC
  5
F40
  8
0
 10
-18.35578685478044
 20
12.272365198346391
 30
0.0
 40
11.19085846281877
 50
3.5914133155398709
 51
11.55744136729931
  0
ARC
  5
F41
  8
0
 10
-7.4342759705516093
 20
12.95784519606414
 30
0.0
 40
0.2478569174656941
 50
275.32262689223018
 51
3.591413315539822
  0
ARC
  5
F42
  8
0
 10
-7.3883188101486459
 20
12.464560133536571
 30
0.0
 40
0.2475643310745105
 50
95.322626892230247
 51
177.54533794813281
  0
ARC
  5
F43
  8
0
 10
-7.6363383877907234
 20
14.46234048224605
 30
0.0
 40
0.2499999874093882
 50
12.032337675571631
 51
90.004454177195456
  0
LINE
  5
F44
  8
0
 10
-7.6356559823000012
 20
12.4751630243
 30
0.0
 11
-7.6538014496000004
 21
12.234956696899999
 31
0.0
  0
ARC
  5
F45
  8
0
 10
-17.349597707838001
 20
22.732867498656852
 30
0.0
 40
14.86989808632493
 50
291.53660072129952
 51
302.6385111825478
  0
ARC
  5
F46
  8
0
 10
-10.988142868197279
 20
13.298592385757891
 30
0.0
 40
3.5047340434121299
 50
298.24203068079839
 51
342.33242944881403
  0
ARC
  5
F47
  8
0
 10
-19.862622289699779
 20
1.1241891152289301
 30
0.0
 40
0.3229217749797323
 50
310.61246223663431
 51
355.25919411052581
  0
ARC
  5
F48
  8
0
 10
-21.147986097709659
 20
0.1140720243788231
 30
0.0
 40
0.3162271926342488
 50
292.56886847976477
 51
307.29137084105309
  0
ARC
  5
F49
  8
0
 10
-21.032271721377331
 20
-0.4800187522906213
 30
0.0
 40
0.2785387839109207
 50
115.07022648065021
 51
166.9187810234458
  0
ARC
  5
F4A
  8
0
 10
-21.61095331033934
 20
-0.3455552714341914
 30
0.0
 40
0.3155595321005068
 50
296.79330754528388
 51
346.91878102344589
  0
ARC
  5
F4B
  8
0
 10
-21.28099382030506
 20
13.44805808170093
 30
0.0
 40
4.446900433180585
 50
194.44794291019829
 51
219.9360378908608
  0
ARC
  5
F67
  8
0
 10
-18.56744930474725
 20
6.2843692403907037
 30
0.0
 40
0.496917869772504
 50
267.31647265820868
 51
356.757866019375
  0
ARC
  5
F68
  8
0
 10
-18.790451916566759
 20
17.722348080223561
 30
0.0
 40
9.2538739651996291
 50
230.3870383906773
 51
275.33538308654499
  0
LINE
  5
F69
  8
0
 10
-18.071326780261799
 20
6.2562656819427849
 30
0.0
 11
-17.929975995400032
 21
8.5085668502999994
 31
0.0
  0
ARC
  5
F6A
  8
0
 10
-17.514240287096971
 20
7.901240065865589
 30
0.0
 40
0.735990490527636
 50
93.963014827039814
 51
124.3929586928675
  0
ARC
  5
F6B
  8
0
 10
-17.885052538206761
 20
25.444113330619238
 30
0.0
 40
16.811687372442929
 50
271.09047160095992
 51
283.26355637120821
  0
ARC
  5
F6C
  8
0
 10
-12.676774771856669
 20
14.01537659448849
 30
0.0
 40
5.0536910105777242
 50
256.94747745927287
 51
277.91209275863349
  0
ARC
  5
F6D
  8
0
 10
-12.01467490781773
 20
8.8901787262361776
 30
0.0
 40
0.1242342194632237
 50
5.0605699683425778
 51
74.328237266842265
  0
ARC
  5
F6E
  8
0
 10
-13.894122605690351
 20
8.5537686288389114
 30
0.0
 40
0.5438238276218927
 50
81.966420751922598
 51
104.2443099742387
  0
ARC
  5
F70
  8
0
 10
-18.182540508643111
 20
1.036988806991151
 30
0.0
 40
0.4198266152811758
 50
339.02667651110022
 51
3.8509876596347161
  0
ARC
  5
F71
  8
0
 10
-13.55005039483618
 20
1.0343283955317479
 30
0.0
 40
0.2458741456672728
 50
179.24669831635589
 51
212.73545721694211
  0
ARC
  5
F75
  8
0
 10
-18.822125161830009
 20
-0.3803795183945982
 30
0.0
 40
0.2631739217307081
 50
289.99921266244007
 51
350.32667974752729
  0
ARC
  5
F76
  8
0
 10
-24.2992715294689
 20
16.036695692277441
 30
0.0
 40
0.7579104675514599
 50
98.698372186032259
 51
173.3828230781175
  0
ARC
  5
F77
  8
0
 10
-16.741869847089109
 20
-75.866909332678802
 30
0.0
 40
92.969892622943703
 50
84.806930170117667
 51
94.733521129437335
  0
ARC
  5
F78
  8
0
 10
-8.5794254735200681
 20
16.033295825390191
 30
0.0
 40
0.7329308737264472
 50
7.1115257276541328
 51
69.851778995663921
  0
ARC
  5
F79
  8
0
 10
-7.8132443110734107
 20
14.96664420109345
 30
0.0
 40
0.825614517985382
 50
3.8681326752287988
 51
69.231903894500377
  0
ARC
  5
F7A
  8
0
 10
-7.988408830981232
 20
14.47780421131386
 30
0.0
 40
1.344836163411675
 50
69.638910129164969
 51
91.210050409060571
  0
ATTDEF
  5
FB7
  8
DEFPOINTS
 10
-36.04219508219154
 20
-1.7936529216391861
 30
0.0
 40
0.001
  1
K-3940
  3

  2
MODELNUMBER
 70
     0
1001
ACDBATTR
1070
     0
1070
     1
  0
ATTDEF
  5
FB8
  8
DEFPOINTS
 10
-36.04219508219154
 20
-1.7953195883058579
 30
0.0
 40
0.001
  1
KATHRYN
  3

  2
TRADENAME
 70
     0
1001
ACDBATTR
1070
     0
1070
     1
  0
ATTDEF
  5
FB9
  8
DEFPOINTS
 10
-36.04219508219154
 20
-1.7969862549725231
 30
0.0
 40
0.001
  1
TOILET
  3

  2
PRODUCT
 70
     0
1001
ACDBATTR
1070
     0
1070
     1
  0
ATTDEF
  5
FBA
  8
DEFPOINTS
 10
-36.04219508219154
 20
-1.798652921639188
 30
0.0
 40
0.001
  1
VITREOUS CHINA
  3

  2
MATERIAL
 70
     0
1001
ACDBATTR
1070
     0
1070
     1
  0
ENDSEC
  0
EOF
