  0
SECTION
  2
HEADER
  9
$ACADVER
  1
AC1009
  9
$INSBASE
 10
0.0
 20
0.0
 30
0.0
  9
$EXTMIN
 10
-4.4748123818585333
 20
-5.2628966960795474
 30
0.0
  9
$EXTMAX
 10
4.4748123819422201
 20
1.3125000000000011
 30
0.0038627409492925
  9
$LIMMIN
 10
0.0
 20
0.0
  9
$LIMMAX
 10
12.0
 20
9.0
  9
$ORTHOMODE
 70
     0
  9
$REGENMODE
 70
     1
  9
$FILLMODE
 70
     1
  9
$QTEXTMODE
 70
     0
  9
$MIRRTEXT
 70
     1
  9
$DRAGMODE
 70
     2
  9
$LTSCALE
 40
1.0
  9
$OSMODE
 70
    37
  9
$ATTMODE
 70
     1
  9
$TEXTSIZE
 40
0.001
  9
$TRACEWID
 40
0.05
  9
$TEXTSTYLE
  7
STANDARD
  9
$CLAYER
  8
0
  9
$CELTYPE
  6
BYLAYER
  9
$CECOLOR
 62
   256
  9
$DIMSCALE
 40
1.0
  9
$DIMASZ
 40
0.18
  9
$DIMEXO
 40
0.0625
  9
$DIMDLI
 40
0.38
  9
$DIMRND
 40
0.0
  9
$DIMDLE
 40
0.0
  9
$DIMEXE
 40
0.18
  9
$DIMTP
 40
0.0
  9
$DIMTM
 40
0.0
  9
$DIMTXT
 40
0.18
  9
$DIMCEN
 40
0.09
  9
$DIMTSZ
 40
0.0
  9
$DIMTOL
 70
     0
  9
$DIMLIM
 70
     0
  9
$DIMTIH
 70
     1
  9
$DIMTOH
 70
     1
  9
$DIMSE1
 70
     0
  9
$DIMSE2
 70
     0
  9
$DIMTAD
 70
     0
  9
$DIMZIN
 70
     0
  9
$DIMBLK
  1

  9
$DIMASO
 70
     1
  9
$DIMSHO
 70
     1
  9
$DIMPOST
  1

  9
$DIMAPOST
  1

  9
$DIMALT
 70
     0
  9
$DIMALTD
 70
     2
  9
$DIMALTF
 40
25.399999999999999
  9
$DIMLFAC
 40
1.0
  9
$DIMTOFL
 70
     0
  9
$DIMTVP
 40
0.0
  9
$DIMTIX
 70
     0
  9
$DIMSOXD
 70
     0
  9
$DIMSAH
 70
     0
  9
$DIMBLK1
  1

  9
$DIMBLK2
  1

  9
$DIMSTYLE
  2
STANDARD
  9
$DIMCLRD
 70
     0
  9
$DIMCLRE
 70
     0
  9
$DIMCLRT
 70
     0
  9
$DIMTFAC
 40
1.0
  9
$DIMGAP
 40
0.09
  9
$LUNITS
 70
     2
  9
$LUPREC
 70
     4
  9
$SKETCHINC
 40
0.1
  9
$FILLETRAD
 40
0.0
  9
$AUNITS
 70
     0
  9
$AUPREC
 70
     3
  9
$MENU
  1
.
  9
$ELEVATION
 40
0.0
  9
$PELEVATION
 40
0.0
  9
$THICKNESS
 40
0.0
  9
$LIMCHECK
 70
     0
  9
$BLIPMODE
 70
     0
  9
$CHAMFERA
 40
0.5
  9
$CHAMFERB
 40
0.5
  9
$SKPOLY
 70
     0
  9
$TDCREATE
 40
2451380.555432396
  9
$TDUPDATE
 40
2456700.5094235418
  9
$TDINDWG
 40
5.3784931480999996
  9
$TDUSRTIMER
 40
5.3784841088000004
  9
$USRTIMER
 70
     1
  9
$ANGBASE
 50
0.0
  9
$ANGDIR
 70
     0
  9
$PDMODE
 70
     0
  9
$PDSIZE
 40
0.0
  9
$PLINEWID
 40
0.0
  9
$COORDS
 70
     1
  9
$SPLFRAME
 70
     0
  9
$SPLINETYPE
 70
     6
  9
$SPLINESEGS
 70
     8
  9
$ATTDIA
 70
     0
  9
$ATTREQ
 70
     1
  9
$HANDLING
 70
     1
  9
$HANDSEED
  5
112D
  9
$SURFTAB1
 70
     6
  9
$SURFTAB2
 70
     6
  9
$SURFTYPE
 70
     6
  9
$SURFU
 70
     6
  9
$SURFV
 70
     6
  9
$UCSNAME
  2

  9
$UCSORG
 10
0.0
 20
0.0
 30
0.0
  9
$UCSXDIR
 10
1.0
 20
0.0
 30
0.0
  9
$UCSYDIR
 10
0.0
 20
1.0
 30
0.0
  9
$PUCSNAME
  2

  9
$PUCSORG
 10
0.0
 20
0.0
 30
0.0
  9
$PUCSXDIR
 10
1.0
 20
0.0
 30
0.0
  9
$PUCSYDIR
 10
0.0
 20
1.0
 30
0.0
  9
$USERI1
 70
     0
  9
$USERI2
 70
     0
  9
$USERI3
 70
     0
  9
$USERI4
 70
     0
  9
$USERI5
 70
     0
  9
$USERR1
 40
0.0
  9
$USERR2
 40
0.0
  9
$USERR3
 40
0.0
  9
$USERR4
 40
0.0
  9
$USERR5
 40
0.0
  9
$WORLDVIEW
 70
     1
  9
$SHADEDGE
 70
     3
  9
$SHADEDIF
 70
    70
  9
$TILEMODE
 70
     1
  9
$MAXACTVP
 70
    64
  9
$PLIMCHECK
 70
     0
  9
$PEXTMIN
 10
1.0000000000000000E+020
 20
1.0000000000000000E+020
 30
1.0000000000000000E+020
  9
$PEXTMAX
 10
-1.0000000000000000E+020
 20
-1.0000000000000000E+020
 30
-1.0000000000000000E+020
  9
$PLIMMIN
 10
0.0
 20
0.0
  9
$PLIMMAX
 10
12.0
 20
9.0
  9
$UNITMODE
 70
     0
  9
$VISRETAIN
 70
     1
  9
$PLINEGEN
 70
     0
  9
$PSLTSCALE
 70
     1
  0
ENDSEC
  0
SECTION
  2
TABLES
  0
TABLE
  2
VPORT
 70
     1
  0
VPORT
  2
*ACTIVE
 70
     0
 10
0.0
 20
0.0
 11
1.0
 21
1.0
 12
2.7364062653290029
 22
0.9582259370464036
 13
0.0
 23
0.0
 14
0.5
 24
0.5
 15
0.5
 25
0.5
 16
0.0
 26
0.0
 36
1.0
 17
0.0
 27
0.0
 37
0.0
 40
19.517724294348
 41
1.1829652996845419
 42
50.0
 43
0.0
 44
0.0
 50
0.0
 51
0.0
 71
     0
 72
  6000
 73
     1
 74
     1
 75
     0
 76
     0
 77
     0
 78
     0
  0
ENDTAB
  0
TABLE
  2
LTYPE
 70
     2
  0
LTYPE
  2
CONTINUOUS
 70
     0
  3
Solid line
 72
    65
 73
     0
 40
0.0
  0
LTYPE
  2
PHANTOM2
 70
     0
  3
Phantom (.5x) ___ _ _ ___ _ _ ___ _ _ ___ _ _
 72
    65
 73
     6
 40
1.25
 49
0.625
 49
-0.125
 49
0.125
 49
-0.125
 49
0.125
 49
-0.125
  0
ENDTAB
  0
TABLE
  2
LAYER
 70
     2
  0
LAYER
  2
0
 70
     0
 62
     7
  6
CONTINUOUS
  0
LAYER
  2
DEFPOINTS
 70
     0
 62
     7
  6
CONTINUOUS
  0
ENDTAB
  0
TABLE
  2
STYLE
 70
     1
  0
STYLE
  2
STANDARD
 70
     0
 40
0.0
 41
1.0
 50
0.0
 71
     0
 42
0.001
  3
txt
  4

  0
ENDTAB
  0
TABLE
  2
VIEW
 70
     0
  0
ENDTAB
  0
TABLE
  2
UCS
 70
     0
  0
ENDTAB
  0
TABLE
  2
APPID
 70
     5
  0
APPID
  2
ACAD
 70
     0
  0
APPID
  2
ACAD_PSEXT
 70
     0
  0
APPID
  2
ACAD_NAV_VCDISPLAY
 70
     0
  0
APPID
  2
AcDbAttr
 70
     0
  0
APPID
  2
ACAD_MLEADERVER
 70
     0
  0
ENDTAB
  0
TABLE
  2
DIMSTYLE
 70
     1
  0
DIMSTYLE
  2
STANDARD
 70
     0
  3

  4

  5

  6

  7

 40
1.0
 41
0.18
 42
0.0625
 43
0.38
 44
0.18
 45
0.0
 46
0.0
 47
0.0
 48
0.0
140
0.18
141
0.09
142
0.0
143
25.399999999999999
144
1.0
145
0.0
146
1.0
147
0.09
 71
     0
 72
     0
 73
     1
 74
     1
 75
     0
 76
     0
 77
     0
 78
     0
170
     0
171
     2
172
     0
173
     0
174
     0
175
     0
176
     0
177
     0
178
     0
  0
ENDTAB
  0
ENDSEC
  0
SECTION
  2
BLOCKS
  0
BLOCK
  8
0
  2
$MODEL_SPACE
 70
     2
 10
0.0
 20
0.0
 30
0.0
  3
$MODEL_SPACE
  1

  0
ENDBLK
  5
16
  8
0
  0
BLOCK
 67
     1
  8
0
  2
$PAPER_SPACE
 70
     0
 10
0.0
 20
0.0
 30
0.0
  3
$PAPER_SPACE
  1

  0
ENDBLK
  5
1E
 67
     1
  8
0
  0
ENDSEC
  0
SECTION
  2
ENTITIES
  0
ARC
  5
72
  8
0
 10
-2.0
 20
0.0
 30
0.0
 40
0.7873928040904517
 50
198.4354444015699
 51
161.56455559396059
  0
POLYLINE
  5
73
  8
0
 66
     1
 10
0.0
 20
0.0
 30
0.0038627409492925
  0
VERTEX
  5
DB
  8
0
 10
-2.5151039910938588
 20
0.3192840311688272
 30
0.0038627409492925
 42
0.0734660557950056
  0
VERTEX
  5
DC
  8
0
 10
-2.380457094669338
 20
0.2873625696301474
 30
0.0038627409492925
  0
VERTEX
  5
DD
  8
0
 10
-1.9999999999999849
 20
0.2873625696301509
 30
0.0038627409492925
 42
-1.0030029115272681
  0
VERTEX
  5
DE
  8
0
 10
-2.0017232659218531
 20
-0.2873628042936289
 30
0.0038627409492925
  0
SEQEND
  5
DF
  8
0
  0
POLYLINE
  5
74
  8
0
 66
     1
 10
0.0
 20
0.0
 30
0.0038627409492925
  0
VERTEX
  5
E0
  8
0
 10
-2.5151904072947029
 20
-0.3193187359459486
 30
0.0038627409492925
 42
-0.0735154499117666
  0
VERTEX
  5
E1
  8
0
 10
-2.380457094669338
 20
-0.2873628042936325
 30
0.0038627409492925
  0
VERTEX
  5
E2
  8
0
 10
-2.0
 20
-0.2873628042936325
 30
0.0038627409492925
  0
SEQEND
  5
E3
  8
0
  0
POLYLINE
  8
0
  5
155
  66
     1
 10
0.000000
 20
0.000000
 30
0.000000
  70
     8
  0
VERTEX
  8
0
  5
156
 10
-2.51510
 20
0.319284
 30
0.000000
  70
    32
  0
VERTEX
  8
0
  5
157
 10
-2.51510
 20
0.320326
 30
0.000000
  70
    32
  0
VERTEX
  8
0
  5
158
 10
-2.51510
 20
0.321222
 30
0.000000
  70
    32
  0
VERTEX
  8
0
  5
159
 10
-2.51510
 20
0.321968
 30
0.000000
  70
    32
  0
VERTEX
  8
0
  5
15A
 10
-2.51510
 20
0.322563
 30
0.000000
  70
    32
  0
VERTEX
  8
0
  5
15B
 10
-2.51510
 20
0.323005
 30
0.000000
  70
    32
  0
VERTEX
  8
0
  5
15C
 10
-2.51510
 20
0.323291
 30
0.000000
  70
    32
  0
VERTEX
  8
0
  5
15D
 10
-2.51510
 20
0.323421
 30
0.000000
  70
    32
  0
VERTEX
  8
0
  5
15E
 10
-2.51510
 20
0.323702
 30
0.000000
  70
    32
  0
VERTEX
  8
0
  5
15F
 10
-2.51511
 20
0.324099
 30
0.000000
  70
    32
  0
VERTEX
  8
0
  5
160
 10
-2.51511
 20
0.324495
 30
0.000000
  70
    32
  0
VERTEX
  8
0
  5
161
 10
-2.51513
 20
0.324890
 30
0.000000
  70
    32
  0
VERTEX
  8
0
  5
162
 10
-2.51514
 20
0.325284
 30
0.000000
  70
    32
  0
VERTEX
  8
0
  5
163
 10
-2.51516
 20
0.325677
 30
0.000000
  70
    32
  0
VERTEX
  8
0
  5
164
 10
-2.51519
 20
0.326069
 30
0.000000
  70
    32
  0
VERTEX
  8
0
  5
165
 10
-2.51521
 20
0.326459
 30
0.000000
  70
    32
  0
VERTEX
  8
0
  5
166
 10
-2.51525
 20
0.326849
 30
0.000000
  70
    32
  0
VERTEX
  8
0
  5
167
 10
-2.51528
 20
0.327237
 30
0.000000
  70
    32
  0
VERTEX
  8
0
  5
168
 10
-2.51532
 20
0.327625
 30
0.000000
  70
    32
  0
VERTEX
  8
0
  5
169
 10
-2.51537
 20
0.328011
 30
0.000000
  70
    32
  0
VERTEX
  8
0
  5
16A
 10
-2.51542
 20
0.328396
 30
0.000000
  70
    32
  0
VERTEX
  8
0
  5
16B
 10
-2.51547
 20
0.328779
 30
0.000000
  70
    32
  0
VERTEX
  8
0
  5
16C
 10
-2.51553
 20
0.329162
 30
0.000000
  70
    32
  0
VERTEX
  8
0
  5
16D
 10
-2.51559
 20
0.329543
 30
0.000000
  70
    32
  0
VERTEX
  8
0
  5
16E
 10
-2.51565
 20
0.329923
 30
0.000000
  70
    32
  0
VERTEX
  8
0
  5
16F
 10
-2.51572
 20
0.330302
 30
0.000000
  70
    32
  0
VERTEX
  8
0
  5
170
 10
-2.51579
 20
0.330679
 30
0.000000
  70
    32
  0
VERTEX
  8
0
  5
171
 10
-2.51587
 20
0.331055
 30
0.000000
  70
    32
  0
VERTEX
  8
0
  5
172
 10
-2.51595
 20
0.331430
 30
0.000000
  70
    32
  0
VERTEX
  8
0
  5
173
 10
-2.51604
 20
0.331803
 30
0.000000
  70
    32
  0
VERTEX
  8
0
  5
174
 10
-2.51612
 20
0.332175
 30
0.000000
  70
    32
  0
VERTEX
  8
0
  5
175
 10
-2.51622
 20
0.332545
 30
0.000000
  70
    32
  0
VERTEX
  8
0
  5
176
 10
-2.51631
 20
0.332914
 30
0.000000
  70
    32
  0
VERTEX
  8
0
  5
177
 10
-2.51641
 20
0.333282
 30
0.000000
  70
    32
  0
VERTEX
  8
0
  5
178
 10
-2.51651
 20
0.333648
 30
0.000000
  70
    32
  0
VERTEX
  8
0
  5
179
 10
-2.51662
 20
0.334012
 30
0.000000
  70
    32
  0
VERTEX
  8
0
  5
17A
 10
-2.51673
 20
0.334375
 30
0.000000
  70
    32
  0
VERTEX
  8
0
  5
17B
 10
-2.51685
 20
0.334737
 30
0.000000
  70
    32
  0
VERTEX
  8
0
  5
17C
 10
-2.51696
 20
0.335097
 30
0.000000
  70
    32
  0
VERTEX
  8
0
  5
17D
 10
-2.51708
 20
0.335455
 30
0.000000
  70
    32
  0
VERTEX
  8
0
  5
17E
 10
-2.51721
 20
0.335812
 30
0.000000
  70
    32
  0
VERTEX
  8
0
  5
17F
 10
-2.51734
 20
0.336167
 30
0.000000
  70
    32
  0
VERTEX
  8
0
  5
180
 10
-2.51747
 20
0.336520
 30
0.000000
  70
    32
  0
VERTEX
  8
0
  5
181
 10
-2.51761
 20
0.336872
 30
0.000000
  70
    32
  0
VERTEX
  8
0
  5
182
 10
-2.51775
 20
0.337222
 30
0.000000
  70
    32
  0
VERTEX
  8
0
  5
183
 10
-2.51789
 20
0.337570
 30
0.000000
  70
    32
  0
VERTEX
  8
0
  5
184
 10
-2.51804
 20
0.337917
 30
0.000000
  70
    32
  0
VERTEX
  8
0
  5
185
 10
-2.51819
 20
0.338262
 30
0.000000
  70
    32
  0
VERTEX
  8
0
  5
186
 10
-2.51834
 20
0.338605
 30
0.000000
  70
    32
  0
VERTEX
  8
0
  5
187
 10
-2.51850
 20
0.338946
 30
0.000000
  70
    32
  0
VERTEX
  8
0
  5
188
 10
-2.51866
 20
0.339286
 30
0.000000
  70
    32
  0
VERTEX
  8
0
  5
189
 10
-2.51882
 20
0.339623
 30
0.000000
  70
    32
  0
VERTEX
  8
0
  5
18A
 10
-2.51899
 20
0.339959
 30
0.000000
  70
    32
  0
VERTEX
  8
0
  5
18B
 10
-2.51916
 20
0.340293
 30
0.000000
  70
    32
  0
VERTEX
  8
0
  5
18C
 10
-2.51933
 20
0.340625
 30
0.000000
  70
    32
  0
VERTEX
  8
0
  5
18D
 10
-2.51951
 20
0.340955
 30
0.000000
  70
    32
  0
VERTEX
  8
0
  5
18E
 10
-2.51969
 20
0.341284
 30
0.000000
  70
    32
  0
VERTEX
  8
0
  5
18F
 10
-2.51987
 20
0.341610
 30
0.000000
  70
    32
  0
VERTEX
  8
0
  5
190
 10
-2.52006
 20
0.341934
 30
0.000000
  70
    32
  0
VERTEX
  8
0
  5
191
 10
-2.52025
 20
0.342257
 30
0.000000
  70
    32
  0
VERTEX
  8
0
  5
192
 10
-2.52044
 20
0.342577
 30
0.000000
  70
    32
  0
VERTEX
  8
0
  5
193
 10
-2.52064
 20
0.342895
 30
0.000000
  70
    32
  0
VERTEX
  8
0
  5
194
 10
-2.52084
 20
0.343211
 30
0.000000
  70
    32
  0
VERTEX
  8
0
  5
195
 10
-2.52104
 20
0.343525
 30
0.000000
  70
    32
  0
VERTEX
  8
0
  5
196
 10
-2.52125
 20
0.343838
 30
0.000000
  70
    32
  0
VERTEX
  8
0
  5
197
 10
-2.52146
 20
0.344147
 30
0.000000
  70
    32
  0
VERTEX
  8
0
  5
198
 10
-2.52167
 20
0.344455
 30
0.000000
  70
    32
  0
VERTEX
  8
0
  5
199
 10
-2.52188
 20
0.344761
 30
0.000000
  70
    32
  0
VERTEX
  8
0
  5
19A
 10
-2.52210
 20
0.345064
 30
0.000000
  70
    32
  0
VERTEX
  8
0
  5
19B
 10
-2.52232
 20
0.345366
 30
0.000000
  70
    32
  0
VERTEX
  8
0
  5
19C
 10
-2.52255
 20
0.345665
 30
0.000000
  70
    32
  0
VERTEX
  8
0
  5
19D
 10
-2.52277
 20
0.345962
 30
0.000000
  70
    32
  0
VERTEX
  8
0
  5
19E
 10
-2.52300
 20
0.346256
 30
0.000000
  70
    32
  0
VERTEX
  8
0
  5
19F
 10
-2.52324
 20
0.346548
 30
0.000000
  70
    32
  0
VERTEX
  8
0
  5
1A0
 10
-2.52347
 20
0.346838
 30
0.000000
  70
    32
  0
VERTEX
  8
0
  5
1A1
 10
-2.52371
 20
0.347126
 30
0.000000
  70
    32
  0
VERTEX
  8
0
  5
1A2
 10
-2.52395
 20
0.347411
 30
0.000000
  70
    32
  0
VERTEX
  8
0
  5
1A3
 10
-2.52420
 20
0.347694
 30
0.000000
  70
    32
  0
VERTEX
  8
0
  5
1A4
 10
-2.52445
 20
0.347975
 30
0.000000
  70
    32
  0
VERTEX
  8
0
  5
1A5
 10
-2.52470
 20
0.348253
 30
0.000000
  70
    32
  0
VERTEX
  8
0
  5
1A6
 10
-2.52495
 20
0.348529
 30
0.000000
  70
    32
  0
VERTEX
  8
0
  5
1A7
 10
-2.52520
 20
0.348802
 30
0.000000
  70
    32
  0
VERTEX
  8
0
  5
1A8
 10
-2.52546
 20
0.349073
 30
0.000000
  70
    32
  0
VERTEX
  8
0
  5
1A9
 10
-2.52572
 20
0.349342
 30
0.000000
  70
    32
  0
VERTEX
  8
0
  5
1AA
 10
-2.52599
 20
0.349607
 30
0.000000
  70
    32
  0
VERTEX
  8
0
  5
1AB
 10
-2.52626
 20
0.349871
 30
0.000000
  70
    32
  0
VERTEX
  8
0
  5
1AC
 10
-2.52652
 20
0.350132
 30
0.000000
  70
    32
  0
VERTEX
  8
0
  5
1AD
 10
-2.52680
 20
0.350390
 30
0.000000
  70
    32
  0
VERTEX
  8
0
  5
1AE
 10
-2.52707
 20
0.350646
 30
0.000000
  70
    32
  0
VERTEX
  8
0
  5
1AF
 10
-2.52735
 20
0.350899
 30
0.000000
  70
    32
  0
VERTEX
  8
0
  5
1B0
 10
-2.52763
 20
0.351149
 30
0.000000
  70
    32
  0
VERTEX
  8
0
  5
1B1
 10
-2.52791
 20
0.351397
 30
0.000000
  70
    32
  0
VERTEX
  8
0
  5
1B2
 10
-2.52819
 20
0.351642
 30
0.000000
  70
    32
  0
VERTEX
  8
0
  5
1B3
 10
-2.52848
 20
0.351885
 30
0.000000
  70
    32
  0
VERTEX
  8
0
  5
1B4
 10
-2.52877
 20
0.352124
 30
0.000000
  70
    32
  0
VERTEX
  8
0
  5
1B5
 10
-2.52906
 20
0.352361
 30
0.000000
  70
    32
  0
VERTEX
  8
0
  5
1B6
 10
-2.52936
 20
0.352596
 30
0.000000
  70
    32
  0
VERTEX
  8
0
  5
1B7
 10
-2.52966
 20
0.352827
 30
0.000000
  70
    32
  0
VERTEX
  8
0
  5
1B8
 10
-2.52996
 20
0.353056
 30
0.000000
  70
    32
  0
VERTEX
  8
0
  5
1B9
 10
-2.53026
 20
0.353282
 30
0.000000
  70
    32
  0
VERTEX
  8
0
  5
1BA
 10
-2.53056
 20
0.353505
 30
0.000000
  70
    32
  0
VERTEX
  8
0
  5
1BB
 10
-2.53087
 20
0.353725
 30
0.000000
  70
    32
  0
VERTEX
  8
0
  5
1BC
 10
-2.53118
 20
0.353943
 30
0.000000
  70
    32
  0
VERTEX
  8
0
  5
1BD
 10
-2.53149
 20
0.354157
 30
0.000000
  70
    32
  0
VERTEX
  8
0
  5
1BE
 10
-2.53180
 20
0.354369
 30
0.000000
  70
    32
  0
VERTEX
  8
0
  5
1BF
 10
-2.53212
 20
0.354577
 30
0.000000
  70
    32
  0
VERTEX
  8
0
  5
1C0
 10
-2.53244
 20
0.354783
 30
0.000000
  70
    32
  0
VERTEX
  8
0
  5
1C1
 10
-2.53276
 20
0.354986
 30
0.000000
  70
    32
  0
VERTEX
  8
0
  5
1C2
 10
-2.53308
 20
0.355186
 30
0.000000
  70
    32
  0
VERTEX
  8
0
  5
1C3
 10
-2.53341
 20
0.355382
 30
0.000000
  70
    32
  0
VERTEX
  8
0
  5
1C4
 10
-2.53373
 20
0.355576
 30
0.000000
  70
    32
  0
VERTEX
  8
0
  5
1C5
 10
-2.53406
 20
0.355767
 30
0.000000
  70
    32
  0
VERTEX
  8
0
  5
1C6
 10
-2.53439
 20
0.355954
 30
0.000000
  70
    32
  0
VERTEX
  8
0
  5
1C7
 10
-2.53473
 20
0.356139
 30
0.000000
  70
    32
  0
VERTEX
  8
0
  5
1C8
 10
-2.53506
 20
0.356320
 30
0.000000
  70
    32
  0
VERTEX
  8
0
  5
1C9
 10
-2.53540
 20
0.356499
 30
0.000000
  70
    32
  0
VERTEX
  8
0
  5
1CA
 10
-2.53574
 20
0.356674
 30
0.000000
  70
    32
  0
VERTEX
  8
0
  5
1CB
 10
-2.53608
 20
0.356846
 30
0.000000
  70
    32
  0
VERTEX
  8
0
  5
1CC
 10
-2.53642
 20
0.357014
 30
0.000000
  70
    32
  0
VERTEX
  8
0
  5
1CD
 10
-2.53677
 20
0.357180
 30
0.000000
  70
    32
  0
VERTEX
  8
0
  5
1CE
 10
-2.53712
 20
0.357342
 30
0.000000
  70
    32
  0
VERTEX
  8
0
  5
1CF
 10
-2.53747
 20
0.357501
 30
0.000000
  70
    32
  0
VERTEX
  8
0
  5
1D0
 10
-2.53782
 20
0.357657
 30
0.000000
  70
    32
  0
VERTEX
  8
0
  5
1D1
 10
-2.53817
 20
0.357810
 30
0.000000
  70
    32
  0
VERTEX
  8
0
  5
1D2
 10
-2.53853
 20
0.357959
 30
0.000000
  70
    32
  0
VERTEX
  8
0
  5
1D3
 10
-2.53888
 20
0.358105
 30
0.000000
  70
    32
  0
VERTEX
  8
0
  5
1D4
 10
-2.53924
 20
0.358247
 30
0.000000
  70
    32
  0
VERTEX
  8
0
  5
1D5
 10
-2.53960
 20
0.358386
 30
0.000000
  70
    32
  0
VERTEX
  8
0
  5
1D6
 10
-2.53996
 20
0.358522
 30
0.000000
  70
    32
  0
VERTEX
  8
0
  5
1D7
 10
-2.54033
 20
0.358654
 30
0.000000
  70
    32
  0
VERTEX
  8
0
  5
1D8
 10
-2.54069
 20
0.358783
 30
0.000000
  70
    32
  0
VERTEX
  8
0
  5
1D9
 10
-2.54106
 20
0.358908
 30
0.000000
  70
    32
  0
VERTEX
  8
0
  5
1DA
 10
-2.54143
 20
0.359030
 30
0.000000
  70
    32
  0
VERTEX
  8
0
  5
1DB
 10
-2.54180
 20
0.359149
 30
0.000000
  70
    32
  0
VERTEX
  8
0
  5
1DC
 10
-2.54217
 20
0.359264
 30
0.000000
  70
    32
  0
VERTEX
  8
0
  5
1DD
 10
-2.54255
 20
0.359375
 30
0.000000
  70
    32
  0
VERTEX
  8
0
  5
1DE
 10
-2.54292
 20
0.359483
 30
0.000000
  70
    32
  0
VERTEX
  8
0
  5
1DF
 10
-2.54330
 20
0.359587
 30
0.000000
  70
    32
  0
VERTEX
  8
0
  5
1E0
 10
-2.54368
 20
0.359687
 30
0.000000
  70
    32
  0
VERTEX
  8
0
  5
1E1
 10
-2.54406
 20
0.359784
 30
0.000000
  70
    32
  0
VERTEX
  8
0
  5
1E2
 10
-2.54444
 20
0.359878
 30
0.000000
  70
    32
  0
VERTEX
  8
0
  5
1E3
 10
-2.54483
 20
0.359968
 30
0.000000
  70
    32
  0
VERTEX
  8
0
  5
1E4
 10
-2.54521
 20
0.360054
 30
0.000000
  70
    32
  0
VERTEX
  8
0
  5
1E5
 10
-2.54560
 20
0.360136
 30
0.000000
  70
    32
  0
VERTEX
  8
0
  5
1E6
 10
-2.54599
 20
0.360214
 30
0.000000
  70
    32
  0
VERTEX
  8
0
  5
1E7
 10
-2.54638
 20
0.360289
 30
0.000000
  70
    32
  0
VERTEX
  8
0
  5
1E8
 10
-2.54677
 20
0.360360
 30
0.000000
  70
    32
  0
VERTEX
  8
0
  5
1E9
 10
-2.54716
 20
0.360428
 30
0.000000
  70
    32
  0
VERTEX
  8
0
  5
1EA
 10
-2.54755
 20
0.360491
 30
0.000000
  70
    32
  0
VERTEX
  8
0
  5
1EB
 10
-2.54795
 20
0.360551
 30
0.000000
  70
    32
  0
VERTEX
  8
0
  5
1EC
 10
-2.54835
 20
0.360607
 30
0.000000
  70
    32
  0
VERTEX
  8
0
  5
1ED
 10
-2.54874
 20
0.360659
 30
0.000000
  70
    32
  0
VERTEX
  8
0
  5
1EE
 10
-2.54914
 20
0.360707
 30
0.000000
  70
    32
  0
VERTEX
  8
0
  5
1EF
 10
-2.54954
 20
0.360751
 30
0.000000
  70
    32
  0
VERTEX
  8
0
  5
1F0
 10
-2.54994
 20
0.360791
 30
0.000000
  70
    32
  0
VERTEX
  8
0
  5
1F1
 10
-2.55035
 20
0.360827
 30
0.000000
  70
    32
  0
VERTEX
  8
0
  5
1F2
 10
-2.55075
 20
0.360860
 30
0.000000
  70
    32
  0
VERTEX
  8
0
  5
1F3
 10
-2.55116
 20
0.360888
 30
0.000000
  70
    32
  0
VERTEX
  8
0
  5
1F4
 10
-2.55156
 20
0.360912
 30
0.000000
  70
    32
  0
VERTEX
  8
0
  5
1F5
 10
-2.55197
 20
0.360933
 30
0.000000
  70
    32
  0
VERTEX
  8
0
  5
1F6
 10
-2.55238
 20
0.360949
 30
0.000000
  70
    32
  0
VERTEX
  8
0
  5
1F7
 10
-2.55279
 20
0.360961
 30
0.000000
  70
    32
  0
VERTEX
  8
0
  5
1F8
 10
-2.55320
 20
0.360969
 30
0.000000
  70
    32
  0
VERTEX
  8
0
  5
1F9
 10
-2.55361
 20
0.360973
 30
0.000000
  70
    32
  0
VERTEX
  8
0
  5
1FA
 10
-2.55391
 20
0.360972
 30
0.000000
  70
    32
  0
VERTEX
  8
0
  5
1FB
 10
-2.55420
 20
0.360969
 30
0.000000
  70
    32
  0
VERTEX
  8
0
  5
1FC
 10
-2.55448
 20
0.360964
 30
0.000000
  70
    32
  0
VERTEX
  8
0
  5
1FD
 10
-2.55476
 20
0.360957
 30
0.000000
  70
    32
  0
VERTEX
  8
0
  5
1FE
 10
-2.55504
 20
0.360948
 30
0.000000
  70
    32
  0
VERTEX
  8
0
  5
1FF
 10
-2.55532
 20
0.360937
 30
0.000000
  70
    32
  0
VERTEX
  8
0
  5
200
 10
-2.55560
 20
0.360924
 30
0.000000
  70
    32
  0
VERTEX
  8
0
  5
201
 10
-2.55587
 20
0.360909
 30
0.000000
  70
    32
  0
VERTEX
  8
0
  5
202
 10
-2.55615
 20
0.360892
 30
0.000000
  70
    32
  0
VERTEX
  8
0
  5
203
 10
-2.55643
 20
0.360874
 30
0.000000
  70
    32
  0
VERTEX
  8
0
  5
204
 10
-2.55671
 20
0.360853
 30
0.000000
  70
    32
  0
VERTEX
  8
0
  5
205
 10
-2.55698
 20
0.360831
 30
0.000000
  70
    32
  0
VERTEX
  8
0
  5
206
 10
-2.55726
 20
0.360806
 30
0.000000
  70
    32
  0
VERTEX
  8
0
  5
207
 10
-2.55753
 20
0.360780
 30
0.000000
  70
    32
  0
VERTEX
  8
0
  5
208
 10
-2.55781
 20
0.360752
 30
0.000000
  70
    32
  0
VERTEX
  8
0
  5
209
 10
-2.55808
 20
0.360722
 30
0.000000
  70
    32
  0
VERTEX
  8
0
  5
20A
 10
-2.55836
 20
0.360690
 30
0.000000
  70
    32
  0
VERTEX
  8
0
  5
20B
 10
-2.55863
 20
0.360656
 30
0.000000
  70
    32
  0
VERTEX
  8
0
  5
20C
 10
-2.55890
 20
0.360621
 30
0.000000
  70
    32
  0
VERTEX
  8
0
  5
20D
 10
-2.55917
 20
0.360583
 30
0.000000
  70
    32
  0
VERTEX
  8
0
  5
20E
 10
-2.55945
 20
0.360544
 30
0.000000
  70
    32
  0
VERTEX
  8
0
  5
20F
 10
-2.55972
 20
0.360503
 30
0.000000
  70
    32
  0
VERTEX
  8
0
  5
210
 10
-2.55999
 20
0.360460
 30
0.000000
  70
    32
  0
VERTEX
  8
0
  5
211
 10
-2.56026
 20
0.360415
 30
0.000000
  70
    32
  0
VERTEX
  8
0
  5
212
 10
-2.56052
 20
0.360369
 30
0.000000
  70
    32
  0
VERTEX
  8
0
  5
213
 10
-2.56079
 20
0.360321
 30
0.000000
  70
    32
  0
VERTEX
  8
0
  5
214
 10
-2.56106
 20
0.360271
 30
0.000000
  70
    32
  0
VERTEX
  8
0
  5
215
 10
-2.56133
 20
0.360219
 30
0.000000
  70
    32
  0
VERTEX
  8
0
  5
216
 10
-2.56159
 20
0.360165
 30
0.000000
  70
    32
  0
VERTEX
  8
0
  5
217
 10
-2.56186
 20
0.360110
 30
0.000000
  70
    32
  0
VERTEX
  8
0
  5
218
 10
-2.56212
 20
0.360052
 30
0.000000
  70
    32
  0
VERTEX
  8
0
  5
219
 10
-2.56239
 20
0.359993
 30
0.000000
  70
    32
  0
VERTEX
  8
0
  5
21A
 10
-2.56265
 20
0.359933
 30
0.000000
  70
    32
  0
VERTEX
  8
0
  5
21B
 10
-2.56291
 20
0.359870
 30
0.000000
  70
    32
  0
VERTEX
  8
0
  5
21C
 10
-2.56318
 20
0.359806
 30
0.000000
  70
    32
  0
VERTEX
  8
0
  5
21D
 10
-2.56344
 20
0.359740
 30
0.000000
  70
    32
  0
VERTEX
  8
0
  5
21E
 10
-2.56370
 20
0.359672
 30
0.000000
  70
    32
  0
VERTEX
  8
0
  5
21F
 10
-2.56396
 20
0.359603
 30
0.000000
  70
    32
  0
VERTEX
  8
0
  5
220
 10
-2.56422
 20
0.359532
 30
0.000000
  70
    32
  0
VERTEX
  8
0
  5
221
 10
-2.56447
 20
0.359459
 30
0.000000
  70
    32
  0
VERTEX
  8
0
  5
222
 10
-2.56473
 20
0.359384
 30
0.000000
  70
    32
  0
VERTEX
  8
0
  5
223
 10
-2.56499
 20
0.359308
 30
0.000000
  70
    32
  0
VERTEX
  8
0
  5
224
 10
-2.56524
 20
0.359230
 30
0.000000
  70
    32
  0
VERTEX
  8
0
  5
225
 10
-2.56550
 20
0.359151
 30
0.000000
  70
    32
  0
VERTEX
  8
0
  5
226
 10
-2.56575
 20
0.359070
 30
0.000000
  70
    32
  0
VERTEX
  8
0
  5
227
 10
-2.56601
 20
0.358987
 30
0.000000
  70
    32
  0
VERTEX
  8
0
  5
228
 10
-2.56626
 20
0.358902
 30
0.000000
  70
    32
  0
VERTEX
  8
0
  5
229
 10
-2.56651
 20
0.358816
 30
0.000000
  70
    32
  0
VERTEX
  8
0
  5
22A
 10
-2.56676
 20
0.358728
 30
0.000000
  70
    32
  0
VERTEX
  8
0
  5
22B
 10
-2.56701
 20
0.358638
 30
0.000000
  70
    32
  0
VERTEX
  8
0
  5
22C
 10
-2.56726
 20
0.358547
 30
0.000000
  70
    32
  0
VERTEX
  8
0
  5
22D
 10
-2.56751
 20
0.358454
 30
0.000000
  70
    32
  0
VERTEX
  8
0
  5
22E
 10
-2.56776
 20
0.358360
 30
0.000000
  70
    32
  0
VERTEX
  8
0
  5
22F
 10
-2.56801
 20
0.358264
 30
0.000000
  70
    32
  0
VERTEX
  8
0
  5
230
 10
-2.56826
 20
0.358166
 30
0.000000
  70
    32
  0
VERTEX
  8
0
  5
231
 10
-2.56850
 20
0.358067
 30
0.000000
  70
    32
  0
VERTEX
  8
0
  5
232
 10
-2.56875
 20
0.357966
 30
0.000000
  70
    32
  0
VERTEX
  8
0
  5
233
 10
-2.56899
 20
0.357864
 30
0.000000
  70
    32
  0
VERTEX
  8
0
  5
234
 10
-2.56923
 20
0.357760
 30
0.000000
  70
    32
  0
VERTEX
  8
0
  5
235
 10
-2.56947
 20
0.357655
 30
0.000000
  70
    32
  0
VERTEX
  8
0
  5
236
 10
-2.56971
 20
0.357548
 30
0.000000
  70
    32
  0
VERTEX
  8
0
  5
237
 10
-2.56995
 20
0.357439
 30
0.000000
  70
    32
  0
VERTEX
  8
0
  5
238
 10
-2.57019
 20
0.357329
 30
0.000000
  70
    32
  0
VERTEX
  8
0
  5
239
 10
-2.57043
 20
0.357217
 30
0.000000
  70
    32
  0
VERTEX
  8
0
  5
23A
 10
-2.57067
 20
0.357104
 30
0.000000
  70
    32
  0
VERTEX
  8
0
  5
23B
 10
-2.57091
 20
0.356989
 30
0.000000
  70
    32
  0
VERTEX
  8
0
  5
23C
 10
-2.57114
 20
0.356872
 30
0.000000
  70
    32
  0
VERTEX
  8
0
  5
23D
 10
-2.57138
 20
0.356755
 30
0.000000
  70
    32
  0
VERTEX
  8
0
  5
23E
 10
-2.57161
 20
0.356635
 30
0.000000
  70
    32
  0
VERTEX
  8
0
  5
23F
 10
-2.57184
 20
0.356514
 30
0.000000
  70
    32
  0
VERTEX
  8
0
  5
240
 10
-2.57207
 20
0.356392
 30
0.000000
  70
    32
  0
VERTEX
  8
0
  5
241
 10
-2.57231
 20
0.356268
 30
0.000000
  70
    32
  0
VERTEX
  8
0
  5
242
 10
-2.57254
 20
0.356143
 30
0.000000
  70
    32
  0
VERTEX
  8
0
  5
243
 10
-2.57276
 20
0.356016
 30
0.000000
  70
    32
  0
VERTEX
  8
0
  5
244
 10
-2.57299
 20
0.355888
 30
0.000000
  70
    32
  0
VERTEX
  8
0
  5
245
 10
-2.57322
 20
0.355758
 30
0.000000
  70
    32
  0
VERTEX
  8
0
  5
246
 10
-2.57344
 20
0.355627
 30
0.000000
  70
    32
  0
VERTEX
  8
0
  5
247
 10
-2.57367
 20
0.355494
 30
0.000000
  70
    32
  0
VERTEX
  8
0
  5
248
 10
-2.57389
 20
0.355360
 30
0.000000
  70
    32
  0
VERTEX
  8
0
  5
249
 10
-2.57412
 20
0.355224
 30
0.000000
  70
    32
  0
VERTEX
  8
0
  5
24A
 10
-2.57434
 20
0.355087
 30
0.000000
  70
    32
  0
VERTEX
  8
0
  5
24B
 10
-2.57456
 20
0.354949
 30
0.000000
  70
    32
  0
VERTEX
  8
0
  5
24C
 10
-2.57478
 20
0.354809
 30
0.000000
  70
    32
  0
VERTEX
  8
0
  5
24D
 10
-2.57500
 20
0.354668
 30
0.000000
  70
    32
  0
VERTEX
  8
0
  5
24E
 10
-2.57521
 20
0.354525
 30
0.000000
  70
    32
  0
VERTEX
  8
0
  5
24F
 10
-2.57543
 20
0.354381
 30
0.000000
  70
    32
  0
VERTEX
  8
0
  5
250
 10
-2.57565
 20
0.354236
 30
0.000000
  70
    32
  0
VERTEX
  8
0
  5
251
 10
-2.57586
 20
0.354089
 30
0.000000
  70
    32
  0
VERTEX
  8
0
  5
252
 10
-2.57607
 20
0.353941
 30
0.000000
  70
    32
  0
VERTEX
  8
0
  5
253
 10
-2.57629
 20
0.353791
 30
0.000000
  70
    32
  0
VERTEX
  8
0
  5
254
 10
-2.57650
 20
0.353641
 30
0.000000
  70
    32
  0
VERTEX
  8
0
  5
255
 10
-2.57671
 20
0.353488
 30
0.000000
  70
    32
  0
VERTEX
  8
0
  5
256
 10
-2.57692
 20
0.353335
 30
0.000000
  70
    32
  0
VERTEX
  8
0
  5
257
 10
-2.57712
 20
0.353180
 30
0.000000
  70
    32
  0
VERTEX
  8
0
  5
258
 10
-2.57733
 20
0.353024
 30
0.000000
  70
    32
  0
VERTEX
  8
0
  5
259
 10
-2.57753
 20
0.352866
 30
0.000000
  70
    32
  0
VERTEX
  8
0
  5
25A
 10
-2.57774
 20
0.352707
 30
0.000000
  70
    32
  0
VERTEX
  8
0
  5
25B
 10
-2.57794
 20
0.352547
 30
0.000000
  70
    32
  0
VERTEX
  8
0
  5
25C
 10
-2.57814
 20
0.352385
 30
0.000000
  70
    32
  0
VERTEX
  8
0
  5
25D
 10
-2.57834
 20
0.352222
 30
0.000000
  70
    32
  0
VERTEX
  8
0
  5
25E
 10
-2.57854
 20
0.352058
 30
0.000000
  70
    32
  0
VERTEX
  8
0
  5
25F
 10
-2.57874
 20
0.351893
 30
0.000000
  70
    32
  0
VERTEX
  8
0
  5
260
 10
-2.57894
 20
0.351726
 30
0.000000
  70
    32
  0
VERTEX
  8
0
  5
261
 10
-2.57914
 20
0.351558
 30
0.000000
  70
    32
  0
VERTEX
  8
0
  5
262
 10
-2.57933
 20
0.351389
 30
0.000000
  70
    32
  0
VERTEX
  8
0
  5
263
 10
-2.57952
 20
0.351218
 30
0.000000
  70
    32
  0
VERTEX
  8
0
  5
264
 10
-2.57972
 20
0.351047
 30
0.000000
  70
    32
  0
VERTEX
  8
0
  5
265
 10
-2.57991
 20
0.350874
 30
0.000000
  70
    32
  0
VERTEX
  8
0
  5
266
 10
-2.58010
 20
0.350699
 30
0.000000
  70
    32
  0
VERTEX
  8
0
  5
267
 10
-2.58029
 20
0.350524
 30
0.000000
  70
    32
  0
VERTEX
  8
0
  5
268
 10
-2.58047
 20
0.350347
 30
0.000000
  70
    32
  0
VERTEX
  8
0
  5
269
 10
-2.58066
 20
0.350169
 30
0.000000
  70
    32
  0
VERTEX
  8
0
  5
26A
 10
-2.58084
 20
0.349990
 30
0.000000
  70
    32
  0
VERTEX
  8
0
  5
26B
 10
-2.58103
 20
0.349810
 30
0.000000
  70
    32
  0
VERTEX
  8
0
  5
26C
 10
-2.58121
 20
0.349628
 30
0.000000
  70
    32
  0
VERTEX
  8
0
  5
26D
 10
-2.58139
 20
0.349446
 30
0.000000
  70
    32
  0
VERTEX
  8
0
  5
26E
 10
-2.58157
 20
0.349262
 30
0.000000
  70
    32
  0
VERTEX
  8
0
  5
26F
 10
-2.58175
 20
0.349077
 30
0.000000
  70
    32
  0
VERTEX
  8
0
  5
270
 10
-2.58193
 20
0.348890
 30
0.000000
  70
    32
  0
VERTEX
  8
0
  5
271
 10
-2.58210
 20
0.348703
 30
0.000000
  70
    32
  0
VERTEX
  8
0
  5
272
 10
-2.58228
 20
0.348514
 30
0.000000
  70
    32
  0
VERTEX
  8
0
  5
273
 10
-2.58245
 20
0.348325
 30
0.000000
  70
    32
  0
VERTEX
  8
0
  5
274
 10
-2.58262
 20
0.348134
 30
0.000000
  70
    32
  0
VERTEX
  8
0
  5
275
 10
-2.58279
 20
0.347942
 30
0.000000
  70
    32
  0
VERTEX
  8
0
  5
276
 10
-2.58296
 20
0.347748
 30
0.000000
  70
    32
  0
VERTEX
  8
0
  5
277
 10
-2.58313
 20
0.347554
 30
0.000000
  70
    32
  0
VERTEX
  8
0
  5
278
 10
-2.58329
 20
0.347359
 30
0.000000
  70
    32
  0
VERTEX
  8
0
  5
279
 10
-2.58346
 20
0.347162
 30
0.000000
  70
    32
  0
VERTEX
  8
0
  5
27A
 10
-2.58362
 20
0.346965
 30
0.000000
  70
    32
  0
VERTEX
  8
0
  5
27B
 10
-2.58379
 20
0.346766
 30
0.000000
  70
    32
  0
VERTEX
  8
0
  5
27C
 10
-2.58395
 20
0.346566
 30
0.000000
  70
    32
  0
VERTEX
  8
0
  5
27D
 10
-2.58411
 20
0.346365
 30
0.000000
  70
    32
  0
VERTEX
  8
0
  5
27E
 10
-2.58426
 20
0.346163
 30
0.000000
  70
    32
  0
VERTEX
  8
0
  5
27F
 10
-2.58442
 20
0.345960
 30
0.000000
  70
    32
  0
VERTEX
  8
0
  5
280
 10
-2.58458
 20
0.345756
 30
0.000000
  70
    32
  0
VERTEX
  8
0
  5
281
 10
-2.58473
 20
0.345551
 30
0.000000
  70
    32
  0
VERTEX
  8
0
  5
282
 10
-2.58488
 20
0.345345
 30
0.000000
  70
    32
  0
VERTEX
  8
0
  5
283
 10
-2.58503
 20
0.345137
 30
0.000000
  70
    32
  0
VERTEX
  8
0
  5
284
 10
-2.58518
 20
0.344929
 30
0.000000
  70
    32
  0
VERTEX
  8
0
  5
285
 10
-2.58533
 20
0.344720
 30
0.000000
  70
    32
  0
VERTEX
  8
0
  5
286
 10
-2.58548
 20
0.344509
 30
0.000000
  70
    32
  0
VERTEX
  8
0
  5
287
 10
-2.58562
 20
0.344298
 30
0.000000
  70
    32
  0
VERTEX
  8
0
  5
288
 10
-2.58577
 20
0.344086
 30
0.000000
  70
    32
  0
VERTEX
  8
0
  5
289
 10
-2.58591
 20
0.343872
 30
0.000000
  70
    32
  0
VERTEX
  8
0
  5
28A
 10
-2.58605
 20
0.343658
 30
0.000000
  70
    32
  0
VERTEX
  8
0
  5
28B
 10
-2.58619
 20
0.343443
 30
0.000000
  70
    32
  0
VERTEX
  8
0
  5
28C
 10
-2.58633
 20
0.343226
 30
0.000000
  70
    32
  0
VERTEX
  8
0
  5
28D
 10
-2.58646
 20
0.343009
 30
0.000000
  70
    32
  0
VERTEX
  8
0
  5
28E
 10
-2.58660
 20
0.342791
 30
0.000000
  70
    32
  0
VERTEX
  8
0
  5
28F
 10
-2.58673
 20
0.342571
 30
0.000000
  70
    32
  0
VERTEX
  8
0
  5
290
 10
-2.58686
 20
0.342351
 30
0.000000
  70
    32
  0
VERTEX
  8
0
  5
291
 10
-2.58699
 20
0.342130
 30
0.000000
  70
    32
  0
VERTEX
  8
0
  5
292
 10
-2.58712
 20
0.341908
 30
0.000000
  70
    32
  0
VERTEX
  8
0
  5
293
 10
-2.58725
 20
0.341685
 30
0.000000
  70
    32
  0
VERTEX
  8
0
  5
294
 10
-2.58737
 20
0.341461
 30
0.000000
  70
    32
  0
VERTEX
  8
0
  5
295
 10
-2.58750
 20
0.341236
 30
0.000000
  70
    32
  0
SEQEND
  8
0
  5
296
  0
POLYLINE
  8
0
  5
297
  66
     1
 10
0.000000
 20
0.000000
 30
0.000000
  70
     8
  0
VERTEX
  8
0
  5
298
 10
-4.34083
 20
-0.269922
 30
0.000000
  70
    32
  0
VERTEX
  8
0
  5
299
 10
-4.34063
 20
-0.270149
 30
0.000000
  70
    32
  0
VERTEX
  8
0
  5
29A
 10
-4.34042
 20
-0.270375
 30
0.000000
  70
    32
  0
VERTEX
  8
0
  5
29B
 10
-4.34021
 20
-0.270599
 30
0.000000
  70
    32
  0
VERTEX
  8
0
  5
29C
 10
-4.34000
 20
-0.270821
 30
0.000000
  70
    32
  0
VERTEX
  8
0
  5
29D
 10
-4.33979
 20
-0.271042
 30
0.000000
  70
    32
  0
VERTEX
  8
0
  5
29E
 10
-4.33957
 20
-0.271261
 30
0.000000
  70
    32
  0
VERTEX
  8
0
  5
29F
 10
-4.33935
 20
-0.271478
 30
0.000000
  70
    32
  0
VERTEX
  8
0
  5
2A0
 10
-4.33913
 20
-0.271694
 30
0.000000
  70
    32
  0
VERTEX
  8
0
  5
2A1
 10
-4.33890
 20
-0.271908
 30
0.000000
  70
    32
  0
VERTEX
  8
0
  5
2A2
 10
-4.33868
 20
-0.272121
 30
0.000000
  70
    32
  0
VERTEX
  8
0
  5
2A3
 10
-4.33845
 20
-0.272332
 30
0.000000
  70
    32
  0
VERTEX
  8
0
  5
2A4
 10
-4.33822
 20
-0.272541
 30
0.000000
  70
    32
  0
VERTEX
  8
0
  5
2A5
 10
-4.33798
 20
-0.272749
 30
0.000000
  70
    32
  0
VERTEX
  8
0
  5
2A6
 10
-4.33775
 20
-0.272955
 30
0.000000
  70
    32
  0
VERTEX
  8
0
  5
2A7
 10
-4.33751
 20
-0.273159
 30
0.000000
  70
    32
  0
VERTEX
  8
0
  5
2A8
 10
-4.33727
 20
-0.273362
 30
0.000000
  70
    32
  0
VERTEX
  8
0
  5
2A9
 10
-4.33702
 20
-0.273563
 30
0.000000
  70
    32
  0
VERTEX
  8
0
  5
2AA
 10
-4.33678
 20
-0.273762
 30
0.000000
  70
    32
  0
VERTEX
  8
0
  5
2AB
 10
-4.33653
 20
-0.273959
 30
0.000000
  70
    32
  0
VERTEX
  8
0
  5
2AC
 10
-4.33628
 20
-0.274154
 30
0.000000
  70
    32
  0
VERTEX
  8
0
  5
2AD
 10
-4.33603
 20
-0.274348
 30
0.000000
  70
    32
  0
VERTEX
  8
0
  5
2AE
 10
-4.33577
 20
-0.274540
 30
0.000000
  70
    32
  0
VERTEX
  8
0
  5
2AF
 10
-4.33552
 20
-0.274730
 30
0.000000
  70
    32
  0
VERTEX
  8
0
  5
2B0
 10
-4.33526
 20
-0.274918
 30
0.000000
  70
    32
  0
VERTEX
  8
0
  5
2B1
 10
-4.33500
 20
-0.275105
 30
0.000000
  70
    32
  0
VERTEX
  8
0
  5
2B2
 10
-4.33473
 20
-0.275289
 30
0.000000
  70
    32
  0
VERTEX
  8
0
  5
2B3
 10
-4.33447
 20
-0.275472
 30
0.000000
  70
    32
  0
VERTEX
  8
0
  5
2B4
 10
-4.33420
 20
-0.275653
 30
0.000000
  70
    32
  0
VERTEX
  8
0
  5
2B5
 10
-4.33393
 20
-0.275832
 30
0.000000
  70
    32
  0
VERTEX
  8
0
  5
2B6
 10
-4.33366
 20
-0.276009
 30
0.000000
  70
    32
  0
VERTEX
  8
0
  5
2B7
 10
-4.33339
 20
-0.276184
 30
0.000000
  70
    32
  0
VERTEX
  8
0
  5
2B8
 10
-4.33311
 20
-0.276357
 30
0.000000
  70
    32
  0
VERTEX
  8
0
  5
2B9
 10
-4.33283
 20
-0.276528
 30
0.000000
  70
    32
  0
VERTEX
  8
0
  5
2BA
 10
-4.33255
 20
-0.276697
 30
0.000000
  70
    32
  0
VERTEX
  8
0
  5
2BB
 10
-4.33227
 20
-0.276864
 30
0.000000
  70
    32
  0
VERTEX
  8
0
  5
2BC
 10
-4.33199
 20
-0.277030
 30
0.000000
  70
    32
  0
VERTEX
  8
0
  5
2BD
 10
-4.33170
 20
-0.277193
 30
0.000000
  70
    32
  0
VERTEX
  8
0
  5
2BE
 10
-4.33141
 20
-0.277354
 30
0.000000
  70
    32
  0
VERTEX
  8
0
  5
2BF
 10
-4.33112
 20
-0.277513
 30
0.000000
  70
    32
  0
VERTEX
  8
0
  5
2C0
 10
-4.33083
 20
-0.277670
 30
0.000000
  70
    32
  0
VERTEX
  8
0
  5
2C1
 10
-4.33054
 20
-0.277825
 30
0.000000
  70
    32
  0
VERTEX
  8
0
  5
2C2
 10
-4.33024
 20
-0.277978
 30
0.000000
  70
    32
  0
VERTEX
  8
0
  5
2C3
 10
-4.32994
 20
-0.278129
 30
0.000000
  70
    32
  0
VERTEX
  8
0
  5
2C4
 10
-4.32965
 20
-0.278278
 30
0.000000
  70
    32
  0
VERTEX
  8
0
  5
2C5
 10
-4.32934
 20
-0.278424
 30
0.000000
  70
    32
  0
VERTEX
  8
0
  5
2C6
 10
-4.32904
 20
-0.278569
 30
0.000000
  70
    32
  0
VERTEX
  8
0
  5
2C7
 10
-4.32874
 20
-0.278711
 30
0.000000
  70
    32
  0
VERTEX
  8
0
  5
2C8
 10
-4.32843
 20
-0.278852
 30
0.000000
  70
    32
  0
VERTEX
  8
0
  5
2C9
 10
-4.32812
 20
-0.278990
 30
0.000000
  70
    32
  0
VERTEX
  8
0
  5
2CA
 10
-4.32781
 20
-0.279125
 30
0.000000
  70
    32
  0
VERTEX
  8
0
  5
2CB
 10
-4.32750
 20
-0.279259
 30
0.000000
  70
    32
  0
VERTEX
  8
0
  5
2CC
 10
-4.32719
 20
-0.279391
 30
0.000000
  70
    32
  0
VERTEX
  8
0
  5
2CD
 10
-4.32687
 20
-0.279520
 30
0.000000
  70
    32
  0
VERTEX
  8
0
  5
2CE
 10
-4.32655
 20
-0.279647
 30
0.000000
  70
    32
  0
VERTEX
  8
0
  5
2CF
 10
-4.32624
 20
-0.279772
 30
0.000000
  70
    32
  0
VERTEX
  8
0
  5
2D0
 10
-4.32592
 20
-0.279894
 30
0.000000
  70
    32
  0
VERTEX
  8
0
  5
2D1
 10
-4.32559
 20
-0.280014
 30
0.000000
  70
    32
  0
VERTEX
  8
0
  5
2D2
 10
-4.32527
 20
-0.280132
 30
0.000000
  70
    32
  0
VERTEX
  8
0
  5
2D3
 10
-4.32494
 20
-0.280248
 30
0.000000
  70
    32
  0
VERTEX
  8
0
  5
2D4
 10
-4.32462
 20
-0.280361
 30
0.000000
  70
    32
  0
VERTEX
  8
0
  5
2D5
 10
-4.32429
 20
-0.280472
 30
0.000000
  70
    32
  0
VERTEX
  8
0
  5
2D6
 10
-4.32396
 20
-0.280580
 30
0.000000
  70
    32
  0
VERTEX
  8
0
  5
2D7
 10
-4.32363
 20
-0.280687
 30
0.000000
  70
    32
  0
VERTEX
  8
0
  5
2D8
 10
-4.32330
 20
-0.280790
 30
0.000000
  70
    32
  0
VERTEX
  8
0
  5
2D9
 10
-4.32296
 20
-0.280892
 30
0.000000
  70
    32
  0
VERTEX
  8
0
  5
2DA
 10
-4.32263
 20
-0.280991
 30
0.000000
  70
    32
  0
VERTEX
  8
0
  5
2DB
 10
-4.32229
 20
-0.281087
 30
0.000000
  70
    32
  0
VERTEX
  8
0
  5
2DC
 10
-4.32195
 20
-0.281182
 30
0.000000
  70
    32
  0
VERTEX
  8
0
  5
2DD
 10
-4.32161
 20
-0.281273
 30
0.000000
  70
    32
  0
VERTEX
  8
0
  5
2DE
 10
-4.32127
 20
-0.281363
 30
0.000000
  70
    32
  0
VERTEX
  8
0
  5
2DF
 10
-4.32092
 20
-0.281450
 30
0.000000
  70
    32
  0
VERTEX
  8
0
  5
2E0
 10
-4.32058
 20
-0.281534
 30
0.000000
  70
    32
  0
VERTEX
  8
0
  5
2E1
 10
-4.32023
 20
-0.281616
 30
0.000000
  70
    32
  0
VERTEX
  8
0
  5
2E2
 10
-4.31989
 20
-0.281695
 30
0.000000
  70
    32
  0
VERTEX
  8
0
  5
2E3
 10
-4.31954
 20
-0.281772
 30
0.000000
  70
    32
  0
VERTEX
  8
0
  5
2E4
 10
-4.31919
 20
-0.281846
 30
0.000000
  70
    32
  0
VERTEX
  8
0
  5
2E5
 10
-4.31884
 20
-0.281918
 30
0.000000
  70
    32
  0
VERTEX
  8
0
  5
2E6
 10
-4.31848
 20
-0.281987
 30
0.000000
  70
    32
  0
VERTEX
  8
0
  5
2E7
 10
-4.31813
 20
-0.282053
 30
0.000000
  70
    32
  0
VERTEX
  8
0
  5
2E8
 10
-4.31778
 20
-0.282117
 30
0.000000
  70
    32
  0
VERTEX
  8
0
  5
2E9
 10
-4.31742
 20
-0.282179
 30
0.000000
  70
    32
  0
VERTEX
  8
0
  5
2EA
 10
-4.31706
 20
-0.282238
 30
0.000000
  70
    32
  0
VERTEX
  8
0
  5
2EB
 10
-4.31670
 20
-0.282294
 30
0.000000
  70
    32
  0
VERTEX
  8
0
  5
2EC
 10
-4.31634
 20
-0.282347
 30
0.000000
  70
    32
  0
VERTEX
  8
0
  5
2ED
 10
-4.31598
 20
-0.282398
 30
0.000000
  70
    32
  0
VERTEX
  8
0
  5
2EE
 10
-4.31562
 20
-0.282446
 30
0.000000
  70
    32
  0
VERTEX
  8
0
  5
2EF
 10
-4.31526
 20
-0.282491
 30
0.000000
  70
    32
  0
VERTEX
  8
0
  5
2F0
 10
-4.31489
 20
-0.282534
 30
0.000000
  70
    32
  0
VERTEX
  8
0
  5
2F1
 10
-4.31453
 20
-0.282574
 30
0.000000
  70
    32
  0
VERTEX
  8
0
  5
2F2
 10
-4.31416
 20
-0.282611
 30
0.000000
  70
    32
  0
VERTEX
  8
0
  5
2F3
 10
-4.31379
 20
-0.282646
 30
0.000000
  70
    32
  0
VERTEX
  8
0
  5
2F4
 10
-4.31342
 20
-0.282678
 30
0.000000
  70
    32
  0
VERTEX
  8
0
  5
2F5
 10
-4.31305
 20
-0.282707
 30
0.000000
  70
    32
  0
VERTEX
  8
0
  5
2F6
 10
-4.31268
 20
-0.282733
 30
0.000000
  70
    32
  0
VERTEX
  8
0
  5
2F7
 10
-4.31231
 20
-0.282756
 30
0.000000
  70
    32
  0
VERTEX
  8
0
  5
2F8
 10
-4.31194
 20
-0.282777
 30
0.000000
  70
    32
  0
VERTEX
  8
0
  5
2F9
 10
-4.31156
 20
-0.282795
 30
0.000000
  70
    32
  0
VERTEX
  8
0
  5
2FA
 10
-4.31119
 20
-0.282810
 30
0.000000
  70
    32
  0
VERTEX
  8
0
  5
2FB
 10
-4.31081
 20
-0.282822
 30
0.000000
  70
    32
  0
VERTEX
  8
0
  5
2FC
 10
-4.31044
 20
-0.282831
 30
0.000000
  70
    32
  0
VERTEX
  8
0
  5
2FD
 10
-4.31006
 20
-0.282838
 30
0.000000
  70
    32
  0
VERTEX
  8
0
  5
2FE
 10
-4.30968
 20
-0.282841
 30
0.000000
  70
    32
  0
VERTEX
  8
0
  5
2FF
 10
-4.30911
 20
-0.282838
 30
0.000000
  70
    32
  0
VERTEX
  8
0
  5
300
 10
-4.30849
 20
-0.282826
 30
0.000000
  70
    32
  0
VERTEX
  8
0
  5
301
 10
-4.30788
 20
-0.282807
 30
0.000000
  70
    32
  0
VERTEX
  8
0
  5
302
 10
-4.30726
 20
-0.282780
 30
0.000000
  70
    32
  0
VERTEX
  8
0
  5
303
 10
-4.30665
 20
-0.282745
 30
0.000000
  70
    32
  0
VERTEX
  8
0
  5
304
 10
-4.30604
 20
-0.282702
 30
0.000000
  70
    32
  0
VERTEX
  8
0
  5
305
 10
-4.30544
 20
-0.282652
 30
0.000000
  70
    32
  0
VERTEX
  8
0
  5
306
 10
-4.30483
 20
-0.282594
 30
0.000000
  70
    32
  0
VERTEX
  8
0
  5
307
 10
-4.30423
 20
-0.282529
 30
0.000000
  70
    32
  0
VERTEX
  8
0
  5
308
 10
-4.30364
 20
-0.282456
 30
0.000000
  70
    32
  0
VERTEX
  8
0
  5
309
 10
-4.30304
 20
-0.282376
 30
0.000000
  70
    32
  0
VERTEX
  8
0
  5
30A
 10
-4.30245
 20
-0.282289
 30
0.000000
  70
    32
  0
VERTEX
  8
0
  5
30B
 10
-4.30186
 20
-0.282194
 30
0.000000
  70
    32
  0
VERTEX
  8
0
  5
30C
 10
-4.30128
 20
-0.282092
 30
0.000000
  70
    32
  0
VERTEX
  8
0
  5
30D
 10
-4.30069
 20
-0.281983
 30
0.000000
  70
    32
  0
VERTEX
  8
0
  5
30E
 10
-4.30012
 20
-0.281867
 30
0.000000
  70
    32
  0
VERTEX
  8
0
  5
30F
 10
-4.29954
 20
-0.281744
 30
0.000000
  70
    32
  0
VERTEX
  8
0
  5
310
 10
-4.29897
 20
-0.281614
 30
0.000000
  70
    32
  0
VERTEX
  8
0
  5
311
 10
-4.29840
 20
-0.281476
 30
0.000000
  70
    32
  0
VERTEX
  8
0
  5
312
 10
-4.29784
 20
-0.281332
 30
0.000000
  70
    32
  0
VERTEX
  8
0
  5
313
 10
-4.29728
 20
-0.281182
 30
0.000000
  70
    32
  0
VERTEX
  8
0
  5
314
 10
-4.29672
 20
-0.281024
 30
0.000000
  70
    32
  0
VERTEX
  8
0
  5
315
 10
-4.29617
 20
-0.280860
 30
0.000000
  70
    32
  0
VERTEX
  8
0
  5
316
 10
-4.29562
 20
-0.280689
 30
0.000000
  70
    32
  0
VERTEX
  8
0
  5
317
 10
-4.29507
 20
-0.280512
 30
0.000000
  70
    32
  0
VERTEX
  8
0
  5
318
 10
-4.29453
 20
-0.280328
 30
0.000000
  70
    32
  0
VERTEX
  8
0
  5
319
 10
-4.29399
 20
-0.280137
 30
0.000000
  70
    32
  0
VERTEX
  8
0
  5
31A
 10
-4.29346
 20
-0.279941
 30
0.000000
  70
    32
  0
VERTEX
  8
0
  5
31B
 10
-4.29293
 20
-0.279737
 30
0.000000
  70
    32
  0
VERTEX
  8
0
  5
31C
 10
-4.29241
 20
-0.279528
 30
0.000000
  70
    32
  0
VERTEX
  8
0
  5
31D
 10
-4.29189
 20
-0.279312
 30
0.000000
  70
    32
  0
VERTEX
  8
0
  5
31E
 10
-4.29137
 20
-0.279091
 30
0.000000
  70
    32
  0
VERTEX
  8
0
  5
31F
 10
-4.29086
 20
-0.278863
 30
0.000000
  70
    32
  0
VERTEX
  8
0
  5
320
 10
-4.29036
 20
-0.278629
 30
0.000000
  70
    32
  0
VERTEX
  8
0
  5
321
 10
-4.28986
 20
-0.278389
 30
0.000000
  70
    32
  0
VERTEX
  8
0
  5
322
 10
-4.28936
 20
-0.278143
 30
0.000000
  70
    32
  0
VERTEX
  8
0
  5
323
 10
-4.28887
 20
-0.277891
 30
0.000000
  70
    32
  0
VERTEX
  8
0
  5
324
 10
-4.28838
 20
-0.277634
 30
0.000000
  70
    32
  0
VERTEX
  8
0
  5
325
 10
-4.28790
 20
-0.277371
 30
0.000000
  70
    32
  0
VERTEX
  8
0
  5
326
 10
-4.28743
 20
-0.277102
 30
0.000000
  70
    32
  0
VERTEX
  8
0
  5
327
 10
-4.28696
 20
-0.276827
 30
0.000000
  70
    32
  0
VERTEX
  8
0
  5
328
 10
-4.28649
 20
-0.276547
 30
0.000000
  70
    32
  0
VERTEX
  8
0
  5
329
 10
-4.28603
 20
-0.276261
 30
0.000000
  70
    32
  0
VERTEX
  8
0
  5
32A
 10
-4.28558
 20
-0.275970
 30
0.000000
  70
    32
  0
VERTEX
  8
0
  5
32B
 10
-4.28513
 20
-0.275674
 30
0.000000
  70
    32
  0
VERTEX
  8
0
  5
32C
 10
-4.28468
 20
-0.275372
 30
0.000000
  70
    32
  0
VERTEX
  8
0
  5
32D
 10
-4.28425
 20
-0.275065
 30
0.000000
  70
    32
  0
VERTEX
  8
0
  5
32E
 10
-4.28381
 20
-0.274752
 30
0.000000
  70
    32
  0
VERTEX
  8
0
  5
32F
 10
-4.28339
 20
-0.274435
 30
0.000000
  70
    32
  0
VERTEX
  8
0
  5
330
 10
-4.28297
 20
-0.274112
 30
0.000000
  70
    32
  0
VERTEX
  8
0
  5
331
 10
-4.28255
 20
-0.273784
 30
0.000000
  70
    32
  0
VERTEX
  8
0
  5
332
 10
-4.28214
 20
-0.273451
 30
0.000000
  70
    32
  0
VERTEX
  8
0
  5
333
 10
-4.28174
 20
-0.273114
 30
0.000000
  70
    32
  0
VERTEX
  8
0
  5
334
 10
-4.28135
 20
-0.272771
 30
0.000000
  70
    32
  0
VERTEX
  8
0
  5
335
 10
-4.28096
 20
-0.272424
 30
0.000000
  70
    32
  0
VERTEX
  8
0
  5
336
 10
-4.28057
 20
-0.272072
 30
0.000000
  70
    32
  0
VERTEX
  8
0
  5
337
 10
-4.28020
 20
-0.271715
 30
0.000000
  70
    32
  0
VERTEX
  8
0
  5
338
 10
-4.27983
 20
-0.271354
 30
0.000000
  70
    32
  0
VERTEX
  8
0
  5
339
 10
-4.27946
 20
-0.270988
 30
0.000000
  70
    32
  0
VERTEX
  8
0
  5
33A
 10
-4.27911
 20
-0.270617
 30
0.000000
  70
    32
  0
VERTEX
  8
0
  5
33B
 10
-4.27876
 20
-0.270242
 30
0.000000
  70
    32
  0
VERTEX
  8
0
  5
33C
 10
-4.27841
 20
-0.269863
 30
0.000000
  70
    32
  0
VERTEX
  8
0
  5
33D
 10
-4.27808
 20
-0.269479
 30
0.000000
  70
    32
  0
VERTEX
  8
0
  5
33E
 10
-4.27775
 20
-0.269091
 30
0.000000
  70
    32
  0
VERTEX
  8
0
  5
33F
 10
-4.27742
 20
-0.268699
 30
0.000000
  70
    32
  0
VERTEX
  8
0
  5
340
 10
-4.27711
 20
-0.268302
 30
0.000000
  70
    32
  0
VERTEX
  8
0
  5
341
 10
-4.27680
 20
-0.267902
 30
0.000000
  70
    32
  0
VERTEX
  8
0
  5
342
 10
-4.27650
 20
-0.267497
 30
0.000000
  70
    32
  0
VERTEX
  8
0
  5
343
 10
-4.27621
 20
-0.267088
 30
0.000000
  70
    32
  0
VERTEX
  8
0
  5
344
 10
-4.27592
 20
-0.266676
 30
0.000000
  70
    32
  0
VERTEX
  8
0
  5
345
 10
-4.27564
 20
-0.266259
 30
0.000000
  70
    32
  0
VERTEX
  8
0
  5
346
 10
-4.27537
 20
-0.265839
 30
0.000000
  70
    32
  0
VERTEX
  8
0
  5
347
 10
-4.27511
 20
-0.265415
 30
0.000000
  70
    32
  0
VERTEX
  8
0
  5
348
 10
-4.27485
 20
-0.264987
 30
0.000000
  70
    32
  0
VERTEX
  8
0
  5
349
 10
-4.27460
 20
-0.264556
 30
0.000000
  70
    32
  0
VERTEX
  8
0
  5
34A
 10
-4.27436
 20
-0.264121
 30
0.000000
  70
    32
  0
VERTEX
  8
0
  5
34B
 10
-4.27413
 20
-0.263683
 30
0.000000
  70
    32
  0
VERTEX
  8
0
  5
34C
 10
-4.27391
 20
-0.263241
 30
0.000000
  70
    32
  0
VERTEX
  8
0
  5
34D
 10
-4.27369
 20
-0.262795
 30
0.000000
  70
    32
  0
VERTEX
  8
0
  5
34E
 10
-4.27348
 20
-0.262347
 30
0.000000
  70
    32
  0
VERTEX
  8
0
  5
34F
 10
-4.27328
 20
-0.261894
 30
0.000000
  70
    32
  0
VERTEX
  8
0
  5
350
 10
-4.27309
 20
-0.261439
 30
0.000000
  70
    32
  0
VERTEX
  8
0
  5
351
 10
-4.27291
 20
-0.260981
 30
0.000000
  70
    32
  0
VERTEX
  8
0
  5
352
 10
-4.27274
 20
-0.260519
 30
0.000000
  70
    32
  0
VERTEX
  8
0
  5
353
 10
-4.27257
 20
-0.260055
 30
0.000000
  70
    32
  0
VERTEX
  8
0
  5
354
 10
-4.27241
 20
-0.259587
 30
0.000000
  70
    32
  0
VERTEX
  8
0
  5
355
 10
-4.27227
 20
-0.259116
 30
0.000000
  70
    32
  0
VERTEX
  8
0
  5
356
 10
-4.27213
 20
-0.258643
 30
0.000000
  70
    32
  0
VERTEX
  8
0
  5
357
 10
-4.27200
 20
-0.258167
 30
0.000000
  70
    32
  0
VERTEX
  8
0
  5
358
 10
-4.27187
 20
-0.257688
 30
0.000000
  70
    32
  0
VERTEX
  8
0
  5
359
 10
-4.27176
 20
-0.257206
 30
0.000000
  70
    32
  0
VERTEX
  8
0
  5
35A
 10
-4.27166
 20
-0.256721
 30
0.000000
  70
    32
  0
VERTEX
  8
0
  5
35B
 10
-4.27156
 20
-0.256234
 30
0.000000
  70
    32
  0
VERTEX
  8
0
  5
35C
 10
-4.27148
 20
-0.255745
 30
0.000000
  70
    32
  0
VERTEX
  8
0
  5
35D
 10
-4.27140
 20
-0.255253
 30
0.000000
  70
    32
  0
VERTEX
  8
0
  5
35E
 10
-4.27134
 20
-0.254758
 30
0.000000
  70
    32
  0
VERTEX
  8
0
  5
35F
 10
-4.27128
 20
-0.254262
 30
0.000000
  70
    32
  0
VERTEX
  8
0
  5
360
 10
-4.27123
 20
-0.253763
 30
0.000000
  70
    32
  0
VERTEX
  8
0
  5
361
 10
-4.27120
 20
-0.253261
 30
0.000000
  70
    32
  0
VERTEX
  8
0
  5
362
 10
-4.27117
 20
-0.252758
 30
0.000000
  70
    32
  0
VERTEX
  8
0
  5
363
 10
-4.27115
 20
-0.252252
 30
0.000000
  70
    32
  0
VERTEX
  8
0
  5
364
 10
-4.27114
 20
-0.251744
 30
0.000000
  70
    32
  0
VERTEX
  8
0
  5
365
 10
-4.27114
 20
-0.251485
 30
0.000000
  70
    32
  0
VERTEX
  8
0
  5
366
 10
-4.27114
 20
-0.251146
 30
0.000000
  70
    32
  0
VERTEX
  8
0
  5
367
 10
-4.27114
 20
-0.250506
 30
0.000000
  70
    32
  0
VERTEX
  8
0
  5
368
 10
-4.27114
 20
-0.249571
 30
0.000000
  70
    32
  0
VERTEX
  8
0
  5
369
 10
-4.27114
 20
-0.248346
 30
0.000000
  70
    32
  0
VERTEX
  8
0
  5
36A
 10
-4.27114
 20
-0.246838
 30
0.000000
  70
    32
  0
VERTEX
  8
0
  5
36B
 10
-4.27114
 20
-0.245053
 30
0.000000
  70
    32
  0
VERTEX
  8
0
  5
36C
 10
-4.27114
 20
-0.242997
 30
0.000000
  70
    32
  0
VERTEX
  8
0
  5
36D
 10
-4.27114
 20
-0.240676
 30
0.000000
  70
    32
  0
VERTEX
  8
0
  5
36E
 10
-4.27114
 20
-0.238096
 30
0.000000
  70
    32
  0
VERTEX
  8
0
  5
36F
 10
-4.27114
 20
-0.235263
 30
0.000000
  70
    32
  0
VERTEX
  8
0
  5
370
 10
-4.27114
 20
-0.232183
 30
0.000000
  70
    32
  0
VERTEX
  8
0
  5
371
 10
-4.27114
 20
-0.228863
 30
0.000000
  70
    32
  0
VERTEX
  8
0
  5
372
 10
-4.27114
 20
-0.225308
 30
0.000000
  70
    32
  0
VERTEX
  8
0
  5
373
 10
-4.27114
 20
-0.221525
 30
0.000000
  70
    32
  0
VERTEX
  8
0
  5
374
 10
-4.27114
 20
-0.217519
 30
0.000000
  70
    32
  0
VERTEX
  8
0
  5
375
 10
-4.27114
 20
-0.213298
 30
0.000000
  70
    32
  0
VERTEX
  8
0
  5
376
 10
-4.27114
 20
-0.208866
 30
0.000000
  70
    32
  0
VERTEX
  8
0
  5
377
 10
-4.27114
 20
-0.204230
 30
0.000000
  70
    32
  0
VERTEX
  8
0
  5
378
 10
-4.27114
 20
-0.199396
 30
0.000000
  70
    32
  0
VERTEX
  8
0
  5
379
 10
-4.27114
 20
-0.194370
 30
0.000000
  70
    32
  0
VERTEX
  8
0
  5
37A
 10
-4.27114
 20
-0.189159
 30
0.000000
  70
    32
  0
VERTEX
  8
0
  5
37B
 10
-4.27114
 20
-0.183767
 30
0.000000
  70
    32
  0
VERTEX
  8
0
  5
37C
 10
-4.27114
 20
-0.178202
 30
0.000000
  70
    32
  0
VERTEX
  8
0
  5
37D
 10
-4.27114
 20
-0.172470
 30
0.000000
  70
    32
  0
VERTEX
  8
0
  5
37E
 10
-4.27114
 20
-0.166576
 30
0.000000
  70
    32
  0
VERTEX
  8
0
  5
37F
 10
-4.27114
 20
-0.160527
 30
0.000000
  70
    32
  0
VERTEX
  8
0
  5
380
 10
-4.27114
 20
-0.154329
 30
0.000000
  70
    32
  0
VERTEX
  8
0
  5
381
 10
-4.27114
 20
-0.147987
 30
0.000000
  70
    32
  0
VERTEX
  8
0
  5
382
 10
-4.27114
 20
-0.141508
 30
0.000000
  70
    32
  0
VERTEX
  8
0
  5
383
 10
-4.27114
 20
-0.134899
 30
0.000000
  70
    32
  0
VERTEX
  8
0
  5
384
 10
-4.27114
 20
-0.128164
 30
0.000000
  70
    32
  0
VERTEX
  8
0
  5
385
 10
-4.27114
 20
-0.121311
 30
0.000000
  70
    32
  0
VERTEX
  8
0
  5
386
 10
-4.27114
 20
-0.114345
 30
0.000000
  70
    32
  0
VERTEX
  8
0
  5
387
 10
-4.27114
 20
-0.107273
 30
0.000000
  70
    32
  0
VERTEX
  8
0
  5
388
 10
-4.27114
 20
-0.100100
 30
0.000000
  70
    32
  0
VERTEX
  8
0
  5
389
 10
-4.27114
 20
-0.0928324
 30
0.000000
  70
    32
  0
VERTEX
  8
0
  5
38A
 10
-4.27114
 20
-0.0854766
 30
0.000000
  70
    32
  0
VERTEX
  8
0
  5
38B
 10
-4.27114
 20
-0.0780386
 30
0.000000
  70
    32
  0
VERTEX
  8
0
  5
38C
 10
-4.27114
 20
-0.0705245
 30
0.000000
  70
    32
  0
VERTEX
  8
0
  5
38D
 10
-4.27114
 20
-0.0629403
 30
0.000000
  70
    32
  0
VERTEX
  8
0
  5
38E
 10
-4.27114
 20
-0.0552921
 30
0.000000
  70
    32
  0
VERTEX
  8
0
  5
38F
 10
-4.27114
 20
-0.0475861
 30
0.000000
  70
    32
  0
VERTEX
  8
0
  5
390
 10
-4.27114
 20
-0.0398283
 30
0.000000
  70
    32
  0
VERTEX
  8
0
  5
391
 10
-4.27114
 20
-0.0320248
 30
0.000000
  70
    32
  0
VERTEX
  8
0
  5
392
 10
-4.27114
 20
-0.0241817
 30
0.000000
  70
    32
  0
VERTEX
  8
0
  5
393
 10
-4.27114
 20
-0.0163051
 30
0.000000
  70
    32
  0
VERTEX
  8
0
  5
394
 10
-4.27114
 20
-0.00840116
 30
0.000000
  70
    32
  0
VERTEX
  8
0
  5
395
 10
-4.27114
 20
-0.000475844
 30
0.000000
  70
    32
  0
VERTEX
  8
0
  5
396
 10
-4.27114
 20
0.00746470
 30
0.000000
  70
    32
  0
VERTEX
  8
0
  5
397
 10
-4.27114
 20
0.0154144
 30
0.000000
  70
    32
  0
VERTEX
  8
0
  5
398
 10
-4.27114
 20
0.0233671
 30
0.000000
  70
    32
  0
VERTEX
  8
0
  5
399
 10
-4.27114
 20
0.0313168
 30
0.000000
  70
    32
  0
VERTEX
  8
0
  5
39A
 10
-4.27114
 20
0.0392573
 30
0.000000
  70
    32
  0
VERTEX
  8
0
  5
39B
 10
-4.27114
 20
0.0471826
 30
0.000000
  70
    32
  0
VERTEX
  8
0
  5
39C
 10
-4.27114
 20
0.0550866
 30
0.000000
  70
    32
  0
VERTEX
  8
0
  5
39D
 10
-4.27114
 20
0.0629632
 30
0.000000
  70
    32
  0
VERTEX
  8
0
  5
39E
 10
-4.27114
 20
0.0708063
 30
0.000000
  70
    32
  0
VERTEX
  8
0
  5
39F
 10
-4.27114
 20
0.0786098
 30
0.000000
  70
    32
  0
VERTEX
  8
0
  5
3A0
 10
-4.27114
 20
0.0863676
 30
0.000000
  70
    32
  0
VERTEX
  8
0
  5
3A1
 10
-4.27114
 20
0.0940736
 30
0.000000
  70
    32
  0
VERTEX
  8
0
  5
3A2
 10
-4.27114
 20
0.101722
 30
0.000000
  70
    32
  0
VERTEX
  8
0
  5
3A3
 10
-4.27114
 20
0.109306
 30
0.000000
  70
    32
  0
VERTEX
  8
0
  5
3A4
 10
-4.27114
 20
0.116820
 30
0.000000
  70
    32
  0
VERTEX
  8
0
  5
3A5
 10
-4.27114
 20
0.124258
 30
0.000000
  70
    32
  0
VERTEX
  8
0
  5
3A6
 10
-4.27114
 20
0.131614
 30
0.000000
  70
    32
  0
VERTEX
  8
0
  5
3A7
 10
-4.27114
 20
0.138881
 30
0.000000
  70
    32
  0
VERTEX
  8
0
  5
3A8
 10
-4.27114
 20
0.146054
 30
0.000000
  70
    32
  0
VERTEX
  8
0
  5
3A9
 10
-4.27114
 20
0.153127
 30
0.000000
  70
    32
  0
VERTEX
  8
0
  5
3AA
 10
-4.27114
 20
0.160093
 30
0.000000
  70
    32
  0
VERTEX
  8
0
  5
3AB
 10
-4.27114
 20
0.166946
 30
0.000000
  70
    32
  0
VERTEX
  8
0
  5
3AC
 10
-4.27114
 20
0.173680
 30
0.000000
  70
    32
  0
VERTEX
  8
0
  5
3AD
 10
-4.27114
 20
0.180290
 30
0.000000
  70
    32
  0
VERTEX
  8
0
  5
3AE
 10
-4.27114
 20
0.186769
 30
0.000000
  70
    32
  0
VERTEX
  8
0
  5
3AF
 10
-4.27114
 20
0.193110
 30
0.000000
  70
    32
  0
VERTEX
  8
0
  5
3B0
 10
-4.27114
 20
0.199309
 30
0.000000
  70
    32
  0
VERTEX
  8
0
  5
3B1
 10
-4.27114
 20
0.205358
 30
0.000000
  70
    32
  0
VERTEX
  8
0
  5
3B2
 10
-4.27114
 20
0.211251
 30
0.000000
  70
    32
  0
VERTEX
  8
0
  5
3B3
 10
-4.27114
 20
0.216984
 30
0.000000
  70
    32
  0
VERTEX
  8
0
  5
3B4
 10
-4.27114
 20
0.222549
 30
0.000000
  70
    32
  0
VERTEX
  8
0
  5
3B5
 10
-4.27114
 20
0.227940
 30
0.000000
  70
    32
  0
VERTEX
  8
0
  5
3B6
 10
-4.27114
 20
0.233152
 30
0.000000
  70
    32
  0
VERTEX
  8
0
  5
3B7
 10
-4.27114
 20
0.238177
 30
0.000000
  70
    32
  0
VERTEX
  8
0
  5
3B8
 10
-4.27114
 20
0.243011
 30
0.000000
  70
    32
  0
VERTEX
  8
0
  5
3B9
 10
-4.27114
 20
0.247647
 30
0.000000
  70
    32
  0
VERTEX
  8
0
  5
3BA
 10
-4.27114
 20
0.252079
 30
0.000000
  70
    32
  0
VERTEX
  8
0
  5
3BB
 10
-4.27114
 20
0.256301
 30
0.000000
  70
    32
  0
VERTEX
  8
0
  5
3BC
 10
-4.27114
 20
0.260306
 30
0.000000
  70
    32
  0
VERTEX
  8
0
  5
3BD
 10
-4.27114
 20
0.264090
 30
0.000000
  70
    32
  0
VERTEX
  8
0
  5
3BE
 10
-4.27114
 20
0.267644
 30
0.000000
  70
    32
  0
VERTEX
  8
0
  5
3BF
 10
-4.27114
 20
0.270965
 30
0.000000
  70
    32
  0
VERTEX
  8
0
  5
3C0
 10
-4.27114
 20
0.274044
 30
0.000000
  70
    32
  0
VERTEX
  8
0
  5
3C1
 10
-4.27114
 20
0.276877
 30
0.000000
  70
    32
  0
VERTEX
  8
0
  5
3C2
 10
-4.27114
 20
0.279457
 30
0.000000
  70
    32
  0
VERTEX
  8
0
  5
3C3
 10
-4.27114
 20
0.281778
 30
0.000000
  70
    32
  0
VERTEX
  8
0
  5
3C4
 10
-4.27114
 20
0.283835
 30
0.000000
  70
    32
  0
VERTEX
  8
0
  5
3C5
 10
-4.27114
 20
0.285620
 30
0.000000
  70
    32
  0
VERTEX
  8
0
  5
3C6
 10
-4.27114
 20
0.287128
 30
0.000000
  70
    32
  0
VERTEX
  8
0
  5
3C7
 10
-4.27114
 20
0.288352
 30
0.000000
  70
    32
  0
VERTEX
  8
0
  5
3C8
 10
-4.27114
 20
0.289288
 30
0.000000
  70
    32
  0
VERTEX
  8
0
  5
3C9
 10
-4.27114
 20
0.289928
 30
0.000000
  70
    32
  0
VERTEX
  8
0
  5
3CA
 10
-4.27114
 20
0.290266
 30
0.000000
  70
    32
  0
VERTEX
  8
0
  5
3CB
 10
-4.27114
 20
0.290526
 30
0.000000
  70
    32
  0
VERTEX
  8
0
  5
3CC
 10
-4.27115
 20
0.291034
 30
0.000000
  70
    32
  0
VERTEX
  8
0
  5
3CD
 10
-4.27117
 20
0.291539
 30
0.000000
  70
    32
  0
VERTEX
  8
0
  5
3CE
 10
-4.27120
 20
0.292043
 30
0.000000
  70
    32
  0
VERTEX
  8
0
  5
3CF
 10
-4.27124
 20
0.292545
 30
0.000000
  70
    32
  0
VERTEX
  8
0
  5
3D0
 10
-4.27128
 20
0.293045
 30
0.000000
  70
    32
  0
VERTEX
  8
0
  5
3D1
 10
-4.27134
 20
0.293542
 30
0.000000
  70
    32
  0
VERTEX
  8
0
  5
3D2
 10
-4.27141
 20
0.294037
 30
0.000000
  70
    32
  0
VERTEX
  8
0
  5
3D3
 10
-4.27148
 20
0.294530
 30
0.000000
  70
    32
  0
VERTEX
  8
0
  5
3D4
 10
-4.27157
 20
0.295020
 30
0.000000
  70
    32
  0
VERTEX
  8
0
  5
3D5
 10
-4.27166
 20
0.295508
 30
0.000000
  70
    32
  0
VERTEX
  8
0
  5
3D6
 10
-4.27177
 20
0.295993
 30
0.000000
  70
    32
  0
VERTEX
  8
0
  5
3D7
 10
-4.27188
 20
0.296476
 30
0.000000
  70
    32
  0
VERTEX
  8
0
  5
3D8
 10
-4.27200
 20
0.296956
 30
0.000000
  70
    32
  0
VERTEX
  8
0
  5
3D9
 10
-4.27213
 20
0.297433
 30
0.000000
  70
    32
  0
VERTEX
  8
0
  5
3DA
 10
-4.27227
 20
0.297908
 30
0.000000
  70
    32
  0
VERTEX
  8
0
  5
3DB
 10
-4.27242
 20
0.298380
 30
0.000000
  70
    32
  0
VERTEX
  8
0
  5
3DC
 10
-4.27257
 20
0.298849
 30
0.000000
  70
    32
  0
VERTEX
  8
0
  5
3DD
 10
-4.27274
 20
0.299315
 30
0.000000
  70
    32
  0
VERTEX
  8
0
  5
3DE
 10
-4.27291
 20
0.299778
 30
0.000000
  70
    32
  0
VERTEX
  8
0
  5
3DF
 10
-4.27309
 20
0.300238
 30
0.000000
  70
    32
  0
VERTEX
  8
0
  5
3E0
 10
-4.27328
 20
0.300694
 30
0.000000
  70
    32
  0
VERTEX
  8
0
  5
3E1
 10
-4.27348
 20
0.301148
 30
0.000000
  70
    32
  0
VERTEX
  8
0
  5
3E2
 10
-4.27368
 20
0.301598
 30
0.000000
  70
    32
  0
VERTEX
  8
0
  5
3E3
 10
-4.27390
 20
0.302045
 30
0.000000
  70
    32
  0
VERTEX
  8
0
  5
3E4
 10
-4.27412
 20
0.302489
 30
0.000000
  70
    32
  0
VERTEX
  8
0
  5
3E5
 10
-4.27435
 20
0.302929
 30
0.000000
  70
    32
  0
VERTEX
  8
0
  5
3E6
 10
-4.27459
 20
0.303365
 30
0.000000
  70
    32
  0
VERTEX
  8
0
  5
3E7
 10
-4.27484
 20
0.303799
 30
0.000000
  70
    32
  0
VERTEX
  8
0
  5
3E8
 10
-4.27509
 20
0.304228
 30
0.000000
  70
    32
  0
VERTEX
  8
0
  5
3E9
 10
-4.27535
 20
0.304654
 30
0.000000
  70
    32
  0
VERTEX
  8
0
  5
3EA
 10
-4.27562
 20
0.305076
 30
0.000000
  70
    32
  0
VERTEX
  8
0
  5
3EB
 10
-4.27590
 20
0.305494
 30
0.000000
  70
    32
  0
VERTEX
  8
0
  5
3EC
 10
-4.27618
 20
0.305908
 30
0.000000
  70
    32
  0
VERTEX
  8
0
  5
3ED
 10
-4.27647
 20
0.306319
 30
0.000000
  70
    32
  0
VERTEX
  8
0
  5
3EE
 10
-4.27677
 20
0.306725
 30
0.000000
  70
    32
  0
VERTEX
  8
0
  5
3EF
 10
-4.27708
 20
0.307127
 30
0.000000
  70
    32
  0
VERTEX
  8
0
  5
3F0
 10
-4.27739
 20
0.307526
 30
0.000000
  70
    32
  0
VERTEX
  8
0
  5
3F1
 10
-4.27771
 20
0.307920
 30
0.000000
  70
    32
  0
VERTEX
  8
0
  5
3F2
 10
-4.27804
 20
0.308309
 30
0.000000
  70
    32
  0
VERTEX
  8
0
  5
3F3
 10
-4.27837
 20
0.308695
 30
0.000000
  70
    32
  0
VERTEX
  8
0
  5
3F4
 10
-4.27871
 20
0.309076
 30
0.000000
  70
    32
  0
VERTEX
  8
0
  5
3F5
 10
-4.27906
 20
0.309453
 30
0.000000
  70
    32
  0
VERTEX
  8
0
  5
3F6
 10
-4.27941
 20
0.309825
 30
0.000000
  70
    32
  0
VERTEX
  8
0
  5
3F7
 10
-4.27977
 20
0.310193
 30
0.000000
  70
    32
  0
VERTEX
  8
0
  5
3F8
 10
-4.28014
 20
0.310556
 30
0.000000
  70
    32
  0
VERTEX
  8
0
  5
3F9
 10
-4.28052
 20
0.310914
 30
0.000000
  70
    32
  0
VERTEX
  8
0
  5
3FA
 10
-4.28090
 20
0.311268
 30
0.000000
  70
    32
  0
VERTEX
  8
0
  5
3FB
 10
-4.28128
 20
0.311617
 30
0.000000
  70
    32
  0
VERTEX
  8
0
  5
3FC
 10
-4.28168
 20
0.311961
 30
0.000000
  70
    32
  0
VERTEX
  8
0
  5
3FD
 10
-4.28208
 20
0.312300
 30
0.000000
  70
    32
  0
VERTEX
  8
0
  5
3FE
 10
-4.28248
 20
0.312634
 30
0.000000
  70
    32
  0
VERTEX
  8
0
  5
3FF
 10
-4.28290
 20
0.312963
 30
0.000000
  70
    32
  0
VERTEX
  8
0
  5
400
 10
-4.28331
 20
0.313287
 30
0.000000
  70
    32
  0
VERTEX
  8
0
  5
401
 10
-4.28374
 20
0.313606
 30
0.000000
  70
    32
  0
VERTEX
  8
0
  5
402
 10
-4.28417
 20
0.313919
 30
0.000000
  70
    32
  0
VERTEX
  8
0
  5
403
 10
-4.28460
 20
0.314228
 30
0.000000
  70
    32
  0
VERTEX
  8
0
  5
404
 10
-4.28504
 20
0.314531
 30
0.000000
  70
    32
  0
VERTEX
  8
0
  5
405
 10
-4.28549
 20
0.314828
 30
0.000000
  70
    32
  0
VERTEX
  8
0
  5
406
 10
-4.28594
 20
0.315120
 30
0.000000
  70
    32
  0
VERTEX
  8
0
  5
407
 10
-4.28640
 20
0.315407
 30
0.000000
  70
    32
  0
VERTEX
  8
0
  5
408
 10
-4.28686
 20
0.315688
 30
0.000000
  70
    32
  0
VERTEX
  8
0
  5
409
 10
-4.28733
 20
0.315963
 30
0.000000
  70
    32
  0
VERTEX
  8
0
  5
40A
 10
-4.28781
 20
0.316233
 30
0.000000
  70
    32
  0
VERTEX
  8
0
  5
40B
 10
-4.28829
 20
0.316497
 30
0.000000
  70
    32
  0
VERTEX
  8
0
  5
40C
 10
-4.28877
 20
0.316755
 30
0.000000
  70
    32
  0
VERTEX
  8
0
  5
40D
 10
-4.28926
 20
0.317007
 30
0.000000
  70
    32
  0
VERTEX
  8
0
  5
40E
 10
-4.28976
 20
0.317253
 30
0.000000
  70
    32
  0
VERTEX
  8
0
  5
40F
 10
-4.29026
 20
0.317493
 30
0.000000
  70
    32
  0
VERTEX
  8
0
  5
410
 10
-4.29076
 20
0.317727
 30
0.000000
  70
    32
  0
VERTEX
  8
0
  5
411
 10
-4.29127
 20
0.317955
 30
0.000000
  70
    32
  0
VERTEX
  8
0
  5
412
 10
-4.29178
 20
0.318177
 30
0.000000
  70
    32
  0
VERTEX
  8
0
  5
413
 10
-4.29230
 20
0.318393
 30
0.000000
  70
    32
  0
VERTEX
  8
0
  5
414
 10
-4.29282
 20
0.318602
 30
0.000000
  70
    32
  0
VERTEX
  8
0
  5
415
 10
-4.29335
 20
0.318804
 30
0.000000
  70
    32
  0
VERTEX
  8
0
  5
416
 10
-4.29388
 20
0.319001
 30
0.000000
  70
    32
  0
VERTEX
  8
0
  5
417
 10
-4.29442
 20
0.319191
 30
0.000000
  70
    32
  0
VERTEX
  8
0
  5
418
 10
-4.29496
 20
0.319374
 30
0.000000
  70
    32
  0
VERTEX
  8
0
  5
419
 10
-4.29550
 20
0.319550
 30
0.000000
  70
    32
  0
VERTEX
  8
0
  5
41A
 10
-4.29605
 20
0.319720
 30
0.000000
  70
    32
  0
VERTEX
  8
0
  5
41B
 10
-4.29661
 20
0.319883
 30
0.000000
  70
    32
  0
VERTEX
  8
0
  5
41C
 10
-4.29716
 20
0.320040
 30
0.000000
  70
    32
  0
VERTEX
  8
0
  5
41D
 10
-4.29772
 20
0.320189
 30
0.000000
  70
    32
  0
VERTEX
  8
0
  5
41E
 10
-4.29829
 20
0.320332
 30
0.000000
  70
    32
  0
VERTEX
  8
0
  5
41F
 10
-4.29886
 20
0.320467
 30
0.000000
  70
    32
  0
VERTEX
  8
0
  5
420
 10
-4.29943
 20
0.320596
 30
0.000000
  70
    32
  0
VERTEX
  8
0
  5
421
 10
-4.30001
 20
0.320717
 30
0.000000
  70
    32
  0
VERTEX
  8
0
  5
422
 10
-4.30059
 20
0.320831
 30
0.000000
  70
    32
  0
VERTEX
  8
0
  5
423
 10
-4.30117
 20
0.320938
 30
0.000000
  70
    32
  0
VERTEX
  8
0
  5
424
 10
-4.30175
 20
0.321038
 30
0.000000
  70
    32
  0
VERTEX
  8
0
  5
425
 10
-4.30234
 20
0.321130
 30
0.000000
  70
    32
  0
VERTEX
  8
0
  5
426
 10
-4.30294
 20
0.321215
 30
0.000000
  70
    32
  0
VERTEX
  8
0
  5
427
 10
-4.30353
 20
0.321292
 30
0.000000
  70
    32
  0
VERTEX
  8
0
  5
428
 10
-4.30413
 20
0.321362
 30
0.000000
  70
    32
  0
VERTEX
  8
0
  5
429
 10
-4.30473
 20
0.321424
 30
0.000000
  70
    32
  0
VERTEX
  8
0
  5
42A
 10
-4.30534
 20
0.321478
 30
0.000000
  70
    32
  0
VERTEX
  8
0
  5
42B
 10
-4.30595
 20
0.321525
 30
0.000000
  70
    32
  0
VERTEX
  8
0
  5
42C
 10
-4.30656
 20
0.321564
 30
0.000000
  70
    32
  0
VERTEX
  8
0
  5
42D
 10
-4.30717
 20
0.321595
 30
0.000000
  70
    32
  0
VERTEX
  8
0
  5
42E
 10
-4.30779
 20
0.321618
 30
0.000000
  70
    32
  0
VERTEX
  8
0
  5
42F
 10
-4.30841
 20
0.321633
 30
0.000000
  70
    32
  0
VERTEX
  8
0
  5
430
 10
-4.30903
 20
0.321641
 30
0.000000
  70
    32
  0
VERTEX
  8
0
  5
431
 10
-4.30959
 20
0.321640
 30
0.000000
  70
    32
  0
VERTEX
  8
0
  5
432
 10
-4.30988
 20
0.321638
 30
0.000000
  70
    32
  0
VERTEX
  8
0
  5
433
 10
-4.31017
 20
0.321634
 30
0.000000
  70
    32
  0
VERTEX
  8
0
  5
434
 10
-4.31046
 20
0.321629
 30
0.000000
  70
    32
  0
VERTEX
  8
0
  5
435
 10
-4.31075
 20
0.321622
 30
0.000000
  70
    32
  0
VERTEX
  8
0
  5
436
 10
-4.31103
 20
0.321613
 30
0.000000
  70
    32
  0
VERTEX
  8
0
  5
437
 10
-4.31132
 20
0.321602
 30
0.000000
  70
    32
  0
VERTEX
  8
0
  5
438
 10
-4.31161
 20
0.321590
 30
0.000000
  70
    32
  0
VERTEX
  8
0
  5
439
 10
-4.31189
 20
0.321576
 30
0.000000
  70
    32
  0
VERTEX
  8
0
  5
43A
 10
-4.31218
 20
0.321561
 30
0.000000
  70
    32
  0
VERTEX
  8
0
  5
43B
 10
-4.31246
 20
0.321544
 30
0.000000
  70
    32
  0
VERTEX
  8
0
  5
43C
 10
-4.31275
 20
0.321525
 30
0.000000
  70
    32
  0
VERTEX
  8
0
  5
43D
 10
-4.31303
 20
0.321504
 30
0.000000
  70
    32
  0
VERTEX
  8
0
  5
43E
 10
-4.31332
 20
0.321482
 30
0.000000
  70
    32
  0
VERTEX
  8
0
  5
43F
 10
-4.31360
 20
0.321459
 30
0.000000
  70
    32
  0
VERTEX
  8
0
  5
440
 10
-4.31388
 20
0.321433
 30
0.000000
  70
    32
  0
VERTEX
  8
0
  5
441
 10
-4.31416
 20
0.321406
 30
0.000000
  70
    32
  0
VERTEX
  8
0
  5
442
 10
-4.31444
 20
0.321378
 30
0.000000
  70
    32
  0
VERTEX
  8
0
  5
443
 10
-4.31472
 20
0.321348
 30
0.000000
  70
    32
  0
VERTEX
  8
0
  5
444
 10
-4.31500
 20
0.321316
 30
0.000000
  70
    32
  0
VERTEX
  8
0
  5
445
 10
-4.31528
 20
0.321283
 30
0.000000
  70
    32
  0
VERTEX
  8
0
  5
446
 10
-4.31556
 20
0.321248
 30
0.000000
  70
    32
  0
VERTEX
  8
0
  5
447
 10
-4.31583
 20
0.321212
 30
0.000000
  70
    32
  0
VERTEX
  8
0
  5
448
 10
-4.31611
 20
0.321174
 30
0.000000
  70
    32
  0
VERTEX
  8
0
  5
449
 10
-4.31639
 20
0.321134
 30
0.000000
  70
    32
  0
VERTEX
  8
0
  5
44A
 10
-4.31666
 20
0.321093
 30
0.000000
  70
    32
  0
VERTEX
  8
0
  5
44B
 10
-4.31693
 20
0.321051
 30
0.000000
  70
    32
  0
VERTEX
  8
0
  5
44C
 10
-4.31721
 20
0.321006
 30
0.000000
  70
    32
  0
VERTEX
  8
0
  5
44D
 10
-4.31748
 20
0.320961
 30
0.000000
  70
    32
  0
VERTEX
  8
0
  5
44E
 10
-4.31775
 20
0.320914
 30
0.000000
  70
    32
  0
VERTEX
  8
0
  5
44F
 10
-4.31802
 20
0.320865
 30
0.000000
  70
    32
  0
VERTEX
  8
0
  5
450
 10
-4.31829
 20
0.320815
 30
0.000000
  70
    32
  0
VERTEX
  8
0
  5
451
 10
-4.31856
 20
0.320763
 30
0.000000
  70
    32
  0
VERTEX
  8
0
  5
452
 10
-4.31883
 20
0.320710
 30
0.000000
  70
    32
  0
VERTEX
  8
0
  5
453
 10
-4.31910
 20
0.320655
 30
0.000000
  70
    32
  0
VERTEX
  8
0
  5
454
 10
-4.31937
 20
0.320599
 30
0.000000
  70
    32
  0
VERTEX
  8
0
  5
455
 10
-4.31963
 20
0.320541
 30
0.000000
  70
    32
  0
VERTEX
  8
0
  5
456
 10
-4.31990
 20
0.320482
 30
0.000000
  70
    32
  0
VERTEX
  8
0
  5
457
 10
-4.32017
 20
0.320422
 30
0.000000
  70
    32
  0
VERTEX
  8
0
  5
458
 10
-4.32043
 20
0.320360
 30
0.000000
  70
    32
  0
VERTEX
  8
0
  5
459
 10
-4.32069
 20
0.320296
 30
0.000000
  70
    32
  0
VERTEX
  8
0
  5
45A
 10
-4.32096
 20
0.320231
 30
0.000000
  70
    32
  0
VERTEX
  8
0
  5
45B
 10
-4.32122
 20
0.320165
 30
0.000000
  70
    32
  0
VERTEX
  8
0
  5
45C
 10
-4.32148
 20
0.320097
 30
0.000000
  70
    32
  0
VERTEX
  8
0
  5
45D
 10
-4.32174
 20
0.320028
 30
0.000000
  70
    32
  0
VERTEX
  8
0
  5
45E
 10
-4.32200
 20
0.319958
 30
0.000000
  70
    32
  0
VERTEX
  8
0
  5
45F
 10
-4.32226
 20
0.319886
 30
0.000000
  70
    32
  0
VERTEX
  8
0
  5
460
 10
-4.32251
 20
0.319812
 30
0.000000
  70
    32
  0
VERTEX
  8
0
  5
461
 10
-4.32277
 20
0.319737
 30
0.000000
  70
    32
  0
VERTEX
  8
0
  5
462
 10
-4.32303
 20
0.319661
 30
0.000000
  70
    32
  0
VERTEX
  8
0
  5
463
 10
-4.32328
 20
0.319584
 30
0.000000
  70
    32
  0
VERTEX
  8
0
  5
464
 10
-4.32354
 20
0.319505
 30
0.000000
  70
    32
  0
VERTEX
  8
0
  5
465
 10
-4.32379
 20
0.319424
 30
0.000000
  70
    32
  0
VERTEX
  8
0
  5
466
 10
-4.32404
 20
0.319343
 30
0.000000
  70
    32
  0
VERTEX
  8
0
  5
467
 10
-4.32430
 20
0.319260
 30
0.000000
  70
    32
  0
VERTEX
  8
0
  5
468
 10
-4.32455
 20
0.319175
 30
0.000000
  70
    32
  0
VERTEX
  8
0
  5
469
 10
-4.32480
 20
0.319090
 30
0.000000
  70
    32
  0
VERTEX
  8
0
  5
46A
 10
-4.32505
 20
0.319003
 30
0.000000
  70
    32
  0
VERTEX
  8
0
  5
46B
 10
-4.32529
 20
0.318914
 30
0.000000
  70
    32
  0
VERTEX
  8
0
  5
46C
 10
-4.32554
 20
0.318825
 30
0.000000
  70
    32
  0
VERTEX
  8
0
  5
46D
 10
-4.32579
 20
0.318734
 30
0.000000
  70
    32
  0
VERTEX
  8
0
  5
46E
 10
-4.32603
 20
0.318641
 30
0.000000
  70
    32
  0
VERTEX
  8
0
  5
46F
 10
-4.32628
 20
0.318548
 30
0.000000
  70
    32
  0
VERTEX
  8
0
  5
470
 10
-4.32652
 20
0.318453
 30
0.000000
  70
    32
  0
VERTEX
  8
0
  5
471
 10
-4.32676
 20
0.318357
 30
0.000000
  70
    32
  0
VERTEX
  8
0
  5
472
 10
-4.32701
 20
0.318259
 30
0.000000
  70
    32
  0
VERTEX
  8
0
  5
473
 10
-4.32725
 20
0.318161
 30
0.000000
  70
    32
  0
VERTEX
  8
0
  5
474
 10
-4.32749
 20
0.318061
 30
0.000000
  70
    32
  0
VERTEX
  8
0
  5
475
 10
-4.32773
 20
0.317959
 30
0.000000
  70
    32
  0
VERTEX
  8
0
  5
476
 10
-4.32796
 20
0.317857
 30
0.000000
  70
    32
  0
VERTEX
  8
0
  5
477
 10
-4.32820
 20
0.317753
 30
0.000000
  70
    32
  0
VERTEX
  8
0
  5
478
 10
-4.32844
 20
0.317648
 30
0.000000
  70
    32
  0
VERTEX
  8
0
  5
479
 10
-4.32867
 20
0.317542
 30
0.000000
  70
    32
  0
VERTEX
  8
0
  5
47A
 10
-4.32891
 20
0.317434
 30
0.000000
  70
    32
  0
VERTEX
  8
0
  5
47B
 10
-4.32914
 20
0.317326
 30
0.000000
  70
    32
  0
VERTEX
  8
0
  5
47C
 10
-4.32937
 20
0.317216
 30
0.000000
  70
    32
  0
VERTEX
  8
0
  5
47D
 10
-4.32960
 20
0.317105
 30
0.000000
  70
    32
  0
VERTEX
  8
0
  5
47E
 10
-4.32983
 20
0.316992
 30
0.000000
  70
    32
  0
VERTEX
  8
0
  5
47F
 10
-4.33006
 20
0.316879
 30
0.000000
  70
    32
  0
VERTEX
  8
0
  5
480
 10
-4.33029
 20
0.316764
 30
0.000000
  70
    32
  0
VERTEX
  8
0
  5
481
 10
-4.33052
 20
0.316648
 30
0.000000
  70
    32
  0
VERTEX
  8
0
  5
482
 10
-4.33074
 20
0.316531
 30
0.000000
  70
    32
  0
VERTEX
  8
0
  5
483
 10
-4.33097
 20
0.316413
 30
0.000000
  70
    32
  0
VERTEX
  8
0
  5
484
 10
-4.33119
 20
0.316294
 30
0.000000
  70
    32
  0
VERTEX
  8
0
  5
485
 10
-4.33142
 20
0.316173
 30
0.000000
  70
    32
  0
VERTEX
  8
0
  5
486
 10
-4.33164
 20
0.316051
 30
0.000000
  70
    32
  0
VERTEX
  8
0
  5
487
 10
-4.33186
 20
0.315929
 30
0.000000
  70
    32
  0
VERTEX
  8
0
  5
488
 10
-4.33208
 20
0.315805
 30
0.000000
  70
    32
  0
VERTEX
  8
0
  5
489
 10
-4.33230
 20
0.315680
 30
0.000000
  70
    32
  0
VERTEX
  8
0
  5
48A
 10
-4.33252
 20
0.315553
 30
0.000000
  70
    32
  0
VERTEX
  8
0
  5
48B
 10
-4.33273
 20
0.315426
 30
0.000000
  70
    32
  0
VERTEX
  8
0
  5
48C
 10
-4.33295
 20
0.315298
 30
0.000000
  70
    32
  0
VERTEX
  8
0
  5
48D
 10
-4.33317
 20
0.315168
 30
0.000000
  70
    32
  0
VERTEX
  8
0
  5
48E
 10
-4.33338
 20
0.315037
 30
0.000000
  70
    32
  0
VERTEX
  8
0
  5
48F
 10
-4.33359
 20
0.314906
 30
0.000000
  70
    32
  0
VERTEX
  8
0
  5
490
 10
-4.33380
 20
0.314773
 30
0.000000
  70
    32
  0
VERTEX
  8
0
  5
491
 10
-4.33401
 20
0.314639
 30
0.000000
  70
    32
  0
VERTEX
  8
0
  5
492
 10
-4.33422
 20
0.314504
 30
0.000000
  70
    32
  0
VERTEX
  8
0
  5
493
 10
-4.33443
 20
0.314368
 30
0.000000
  70
    32
  0
VERTEX
  8
0
  5
494
 10
-4.33464
 20
0.314231
 30
0.000000
  70
    32
  0
VERTEX
  8
0
  5
495
 10
-4.33484
 20
0.314093
 30
0.000000
  70
    32
  0
VERTEX
  8
0
  5
496
 10
-4.33505
 20
0.313954
 30
0.000000
  70
    32
  0
VERTEX
  8
0
  5
497
 10
-4.33525
 20
0.313814
 30
0.000000
  70
    32
  0
SEQEND
  8
0
  5
498
  0
POLYLINE
  8
0
  5
499
  66
     1
 10
0.000000
 20
0.000000
 30
0.000000
  70
     8
  0
VERTEX
  8
0
  5
49A
 10
-2.58604
 20
0.343306
 30
0.000000
  70
    32
  0
VERTEX
  8
0
  5
49B
 10
-2.58709
 20
0.341870
 30
0.000000
  70
    32
  0
VERTEX
  8
0
  5
49C
 10
-2.58818
 20
0.340432
 30
0.000000
  70
    32
  0
VERTEX
  8
0
  5
49D
 10
-2.58930
 20
0.338992
 30
0.000000
  70
    32
  0
VERTEX
  8
0
  5
49E
 10
-2.59045
 20
0.337551
 30
0.000000
  70
    32
  0
VERTEX
  8
0
  5
49F
 10
-2.59164
 20
0.336109
 30
0.000000
  70
    32
  0
VERTEX
  8
0
  5
4A0
 10
-2.59286
 20
0.334666
 30
0.000000
  70
    32
  0
VERTEX
  8
0
  5
4A1
 10
-2.59411
 20
0.333223
 30
0.000000
  70
    32
  0
VERTEX
  8
0
  5
4A2
 10
-2.59539
 20
0.331779
 30
0.000000
  70
    32
  0
VERTEX
  8
0
  5
4A3
 10
-2.59671
 20
0.330334
 30
0.000000
  70
    32
  0
VERTEX
  8
0
  5
4A4
 10
-2.59806
 20
0.328890
 30
0.000000
  70
    32
  0
VERTEX
  8
0
  5
4A5
 10
-2.59944
 20
0.327447
 30
0.000000
  70
    32
  0
VERTEX
  8
0
  5
4A6
 10
-2.60086
 20
0.326003
 30
0.000000
  70
    32
  0
VERTEX
  8
0
  5
4A7
 10
-2.60231
 20
0.324561
 30
0.000000
  70
    32
  0
VERTEX
  8
0
  5
4A8
 10
-2.60379
 20
0.323120
 30
0.000000
  70
    32
  0
VERTEX
  8
0
  5
4A9
 10
-2.60530
 20
0.321681
 30
0.000000
  70
    32
  0
VERTEX
  8
0
  5
4AA
 10
-2.60685
 20
0.320243
 30
0.000000
  70
    32
  0
VERTEX
  8
0
  5
4AB
 10
-2.60842
 20
0.318806
 30
0.000000
  70
    32
  0
VERTEX
  8
0
  5
4AC
 10
-2.61003
 20
0.317372
 30
0.000000
  70
    32
  0
VERTEX
  8
0
  5
4AD
 10
-2.61168
 20
0.315941
 30
0.000000
  70
    32
  0
VERTEX
  8
0
  5
4AE
 10
-2.61335
 20
0.314512
 30
0.000000
  70
    32
  0
VERTEX
  8
0
  5
4AF
 10
-2.61505
 20
0.313086
 30
0.000000
  70
    32
  0
VERTEX
  8
0
  5
4B0
 10
-2.61679
 20
0.311664
 30
0.000000
  70
    32
  0
VERTEX
  8
0
  5
4B1
 10
-2.61856
 20
0.310244
 30
0.000000
  70
    32
  0
VERTEX
  8
0
  5
4B2
 10
-2.62036
 20
0.308829
 30
0.000000
  70
    32
  0
VERTEX
  8
0
  5
4B3
 10
-2.62219
 20
0.307417
 30
0.000000
  70
    32
  0
VERTEX
  8
0
  5
4B4
 10
-2.62406
 20
0.306010
 30
0.000000
  70
    32
  0
VERTEX
  8
0
  5
4B5
 10
-2.62595
 20
0.304607
 30
0.000000
  70
    32
  0
VERTEX
  8
0
  5
4B6
 10
-2.62788
 20
0.303208
 30
0.000000
  70
    32
  0
VERTEX
  8
0
  5
4B7
 10
-2.62984
 20
0.301815
 30
0.000000
  70
    32
  0
VERTEX
  8
0
  5
4B8
 10
-2.63183
 20
0.300427
 30
0.000000
  70
    32
  0
VERTEX
  8
0
  5
4B9
 10
-2.63385
 20
0.299045
 30
0.000000
  70
    32
  0
VERTEX
  8
0
  5
4BA
 10
-2.63590
 20
0.297668
 30
0.000000
  70
    32
  0
VERTEX
  8
0
  5
4BB
 10
-2.63798
 20
0.296297
 30
0.000000
  70
    32
  0
VERTEX
  8
0
  5
4BC
 10
-2.64009
 20
0.294933
 30
0.000000
  70
    32
  0
VERTEX
  8
0
  5
4BD
 10
-2.64224
 20
0.293575
 30
0.000000
  70
    32
  0
VERTEX
  8
0
  5
4BE
 10
-2.64441
 20
0.292223
 30
0.000000
  70
    32
  0
VERTEX
  8
0
  5
4BF
 10
-2.64662
 20
0.290879
 30
0.000000
  70
    32
  0
VERTEX
  8
0
  5
4C0
 10
-2.64886
 20
0.289542
 30
0.000000
  70
    32
  0
VERTEX
  8
0
  5
4C1
 10
-2.65112
 20
0.288213
 30
0.000000
  70
    32
  0
VERTEX
  8
0
  5
4C2
 10
-2.65342
 20
0.286891
 30
0.000000
  70
    32
  0
VERTEX
  8
0
  5
4C3
 10
-2.65575
 20
0.285578
 30
0.000000
  70
    32
  0
VERTEX
  8
0
  5
4C4
 10
-2.65811
 20
0.284272
 30
0.000000
  70
    32
  0
VERTEX
  8
0
  5
4C5
 10
-2.66049
 20
0.282975
 30
0.000000
  70
    32
  0
VERTEX
  8
0
  5
4C6
 10
-2.66291
 20
0.281688
 30
0.000000
  70
    32
  0
VERTEX
  8
0
  5
4C7
 10
-2.66536
 20
0.280409
 30
0.000000
  70
    32
  0
VERTEX
  8
0
  5
4C8
 10
-2.66784
 20
0.279139
 30
0.000000
  70
    32
  0
VERTEX
  8
0
  5
4C9
 10
-2.67035
 20
0.277879
 30
0.000000
  70
    32
  0
VERTEX
  8
0
  5
4CA
 10
-2.67289
 20
0.276629
 30
0.000000
  70
    32
  0
VERTEX
  8
0
  5
4CB
 10
-2.67545
 20
0.275389
 30
0.000000
  70
    32
  0
VERTEX
  8
0
  5
4CC
 10
-2.67805
 20
0.274160
 30
0.000000
  70
    32
  0
VERTEX
  8
0
  5
4CD
 10
-2.68068
 20
0.272940
 30
0.000000
  70
    32
  0
VERTEX
  8
0
  5
4CE
 10
-2.68334
 20
0.271732
 30
0.000000
  70
    32
  0
VERTEX
  8
0
  5
4CF
 10
-2.68602
 20
0.270535
 30
0.000000
  70
    32
  0
VERTEX
  8
0
  5
4D0
 10
-2.68874
 20
0.269349
 30
0.000000
  70
    32
  0
VERTEX
  8
0
  5
4D1
 10
-2.69149
 20
0.268175
 30
0.000000
  70
    32
  0
VERTEX
  8
0
  5
4D2
 10
-2.69426
 20
0.267013
 30
0.000000
  70
    32
  0
VERTEX
  8
0
  5
4D3
 10
-2.69706
 20
0.265863
 30
0.000000
  70
    32
  0
VERTEX
  8
0
  5
4D4
 10
-2.69990
 20
0.264725
 30
0.000000
  70
    32
  0
VERTEX
  8
0
  5
4D5
 10
-2.70276
 20
0.263600
 30
0.000000
  70
    32
  0
VERTEX
  8
0
  5
4D6
 10
-2.70565
 20
0.262488
 30
0.000000
  70
    32
  0
VERTEX
  8
0
  5
4D7
 10
-2.70857
 20
0.261389
 30
0.000000
  70
    32
  0
VERTEX
  8
0
  5
4D8
 10
-2.71152
 20
0.260304
 30
0.000000
  70
    32
  0
VERTEX
  8
0
  5
4D9
 10
-2.71450
 20
0.259232
 30
0.000000
  70
    32
  0
VERTEX
  8
0
  5
4DA
 10
-2.71750
 20
0.258174
 30
0.000000
  70
    32
  0
VERTEX
  8
0
  5
4DB
 10
-2.72054
 20
0.257130
 30
0.000000
  70
    32
  0
VERTEX
  8
0
  5
4DC
 10
-2.72360
 20
0.256101
 30
0.000000
  70
    32
  0
VERTEX
  8
0
  5
4DD
 10
-2.72669
 20
0.255086
 30
0.000000
  70
    32
  0
VERTEX
  8
0
  5
4DE
 10
-2.72981
 20
0.254086
 30
0.000000
  70
    32
  0
VERTEX
  8
0
  5
4DF
 10
-2.73296
 20
0.253102
 30
0.000000
  70
    32
  0
VERTEX
  8
0
  5
4E0
 10
-2.73614
 20
0.252133
 30
0.000000
  70
    32
  0
VERTEX
  8
0
  5
4E1
 10
-2.73934
 20
0.251179
 30
0.000000
  70
    32
  0
VERTEX
  8
0
  5
4E2
 10
-2.74257
 20
0.250242
 30
0.000000
  70
    32
  0
VERTEX
  8
0
  5
4E3
 10
-2.74584
 20
0.249321
 30
0.000000
  70
    32
  0
VERTEX
  8
0
  5
4E4
 10
-2.74912
 20
0.248416
 30
0.000000
  70
    32
  0
VERTEX
  8
0
  5
4E5
 10
-2.75244
 20
0.247528
 30
0.000000
  70
    32
  0
VERTEX
  8
0
  5
4E6
 10
-2.75578
 20
0.246657
 30
0.000000
  70
    32
  0
VERTEX
  8
0
  5
4E7
 10
-2.75916
 20
0.245804
 30
0.000000
  70
    32
  0
VERTEX
  8
0
  5
4E8
 10
-2.76256
 20
0.244968
 30
0.000000
  70
    32
  0
VERTEX
  8
0
  5
4E9
 10
-2.76598
 20
0.244149
 30
0.000000
  70
    32
  0
VERTEX
  8
0
  5
4EA
 10
-2.76944
 20
0.243349
 30
0.000000
  70
    32
  0
VERTEX
  8
0
  5
4EB
 10
-2.77292
 20
0.242567
 30
0.000000
  70
    32
  0
VERTEX
  8
0
  5
4EC
 10
-2.77643
 20
0.241803
 30
0.000000
  70
    32
  0
VERTEX
  8
0
  5
4ED
 10
-2.77997
 20
0.241058
 30
0.000000
  70
    32
  0
VERTEX
  8
0
  5
4EE
 10
-2.78353
 20
0.240332
 30
0.000000
  70
    32
  0
VERTEX
  8
0
  5
4EF
 10
-2.78712
 20
0.239626
 30
0.000000
  70
    32
  0
VERTEX
  8
0
  5
4F0
 10
-2.79074
 20
0.238939
 30
0.000000
  70
    32
  0
VERTEX
  8
0
  5
4F1
 10
-2.79438
 20
0.238272
 30
0.000000
  70
    32
  0
VERTEX
  8
0
  5
4F2
 10
-2.79805
 20
0.237625
 30
0.000000
  70
    32
  0
VERTEX
  8
0
  5
4F3
 10
-2.80175
 20
0.236998
 30
0.000000
  70
    32
  0
VERTEX
  8
0
  5
4F4
 10
-2.80548
 20
0.236392
 30
0.000000
  70
    32
  0
VERTEX
  8
0
  5
4F5
 10
-2.80923
 20
0.235807
 30
0.000000
  70
    32
  0
VERTEX
  8
0
  5
4F6
 10
-2.81301
 20
0.235242
 30
0.000000
  70
    32
  0
VERTEX
  8
0
  5
4F7
 10
-2.81681
 20
0.234700
 30
0.000000
  70
    32
  0
VERTEX
  8
0
  5
4F8
 10
-2.82064
 20
0.234178
 30
0.000000
  70
    32
  0
VERTEX
  8
0
  5
4F9
 10
-2.82450
 20
0.233679
 30
0.000000
  70
    32
  0
VERTEX
  8
0
  5
4FA
 10
-2.82838
 20
0.233202
 30
0.000000
  70
    32
  0
VERTEX
  8
0
  5
4FB
 10
-2.83229
 20
0.232747
 30
0.000000
  70
    32
  0
VERTEX
  8
0
  5
4FC
 10
-2.83623
 20
0.232314
 30
0.000000
  70
    32
  0
VERTEX
  8
0
  5
4FD
 10
-2.84019
 20
0.231905
 30
0.000000
  70
    32
  0
VERTEX
  8
0
  5
4FE
 10
-2.84418
 20
0.231518
 30
0.000000
  70
    32
  0
VERTEX
  8
0
  5
4FF
 10
-2.84819
 20
0.231155
 30
0.000000
  70
    32
  0
VERTEX
  8
0
  5
500
 10
-2.85223
 20
0.230816
 30
0.000000
  70
    32
  0
VERTEX
  8
0
  5
501
 10
-2.85630
 20
0.230501
 30
0.000000
  70
    32
  0
VERTEX
  8
0
  5
502
 10
-2.86039
 20
0.230209
 30
0.000000
  70
    32
  0
VERTEX
  8
0
  5
503
 10
-2.86451
 20
0.229942
 30
0.000000
  70
    32
  0
VERTEX
  8
0
  5
504
 10
-2.86865
 20
0.229700
 30
0.000000
  70
    32
  0
VERTEX
  8
0
  5
505
 10
-2.87800
 20
0.229213
 30
0.000000
  70
    32
  0
VERTEX
  8
0
  5
506
 10
-2.88989
 20
0.228653
 30
0.000000
  70
    32
  0
VERTEX
  8
0
  5
507
 10
-2.90169
 20
0.228162
 30
0.000000
  70
    32
  0
VERTEX
  8
0
  5
508
 10
-2.91342
 20
0.227737
 30
0.000000
  70
    32
  0
VERTEX
  8
0
  5
509
 10
-2.92507
 20
0.227378
 30
0.000000
  70
    32
  0
VERTEX
  8
0
  5
50A
 10
-2.93664
 20
0.227084
 30
0.000000
  70
    32
  0
VERTEX
  8
0
  5
50B
 10
-2.94813
 20
0.226853
 30
0.000000
  70
    32
  0
VERTEX
  8
0
  5
50C
 10
-2.95955
 20
0.226685
 30
0.000000
  70
    32
  0
VERTEX
  8
0
  5
50D
 10
-2.97090
 20
0.226578
 30
0.000000
  70
    32
  0
VERTEX
  8
0
  5
50E
 10
-2.98217
 20
0.226532
 30
0.000000
  70
    32
  0
VERTEX
  8
0
  5
50F
 10
-2.99337
 20
0.226544
 30
0.000000
  70
    32
  0
VERTEX
  8
0
  5
510
 10
-3.00450
 20
0.226614
 30
0.000000
  70
    32
  0
VERTEX
  8
0
  5
511
 10
-3.01555
 20
0.226741
 30
0.000000
  70
    32
  0
VERTEX
  8
0
  5
512
 10
-3.02654
 20
0.226923
 30
0.000000
  70
    32
  0
VERTEX
  8
0
  5
513
 10
-3.03746
 20
0.227160
 30
0.000000
  70
    32
  0
VERTEX
  8
0
  5
514
 10
-3.04830
 20
0.227450
 30
0.000000
  70
    32
  0
VERTEX
  8
0
  5
515
 10
-3.05909
 20
0.227792
 30
0.000000
  70
    32
  0
VERTEX
  8
0
  5
516
 10
-3.06980
 20
0.228185
 30
0.000000
  70
    32
  0
VERTEX
  8
0
  5
517
 10
-3.08045
 20
0.228628
 30
0.000000
  70
    32
  0
VERTEX
  8
0
  5
518
 10
-3.09103
 20
0.229120
 30
0.000000
  70
    32
  0
VERTEX
  8
0
  5
519
 10
-3.10155
 20
0.229659
 30
0.000000
  70
    32
  0
VERTEX
  8
0
  5
51A
 10
-3.11201
 20
0.230245
 30
0.000000
  70
    32
  0
VERTEX
  8
0
  5
51B
 10
-3.12241
 20
0.230875
 30
0.000000
  70
    32
  0
VERTEX
  8
0
  5
51C
 10
-3.13274
 20
0.231550
 30
0.000000
  70
    32
  0
VERTEX
  8
0
  5
51D
 10
-3.14301
 20
0.232268
 30
0.000000
  70
    32
  0
VERTEX
  8
0
  5
51E
 10
-3.15322
 20
0.233027
 30
0.000000
  70
    32
  0
VERTEX
  8
0
  5
51F
 10
-3.16338
 20
0.233828
 30
0.000000
  70
    32
  0
VERTEX
  8
0
  5
520
 10
-3.17347
 20
0.234667
 30
0.000000
  70
    32
  0
VERTEX
  8
0
  5
521
 10
-3.18351
 20
0.235545
 30
0.000000
  70
    32
  0
VERTEX
  8
0
  5
522
 10
-3.19350
 20
0.236461
 30
0.000000
  70
    32
  0
VERTEX
  8
0
  5
523
 10
-3.20342
 20
0.237412
 30
0.000000
  70
    32
  0
VERTEX
  8
0
  5
524
 10
-3.21330
 20
0.238398
 30
0.000000
  70
    32
  0
VERTEX
  8
0
  5
525
 10
-3.22311
 20
0.239418
 30
0.000000
  70
    32
  0
VERTEX
  8
0
  5
526
 10
-3.23288
 20
0.240471
 30
0.000000
  70
    32
  0
VERTEX
  8
0
  5
527
 10
-3.24260
 20
0.241555
 30
0.000000
  70
    32
  0
VERTEX
  8
0
  5
528
 10
-3.25226
 20
0.242669
 30
0.000000
  70
    32
  0
VERTEX
  8
0
  5
529
 10
-3.26187
 20
0.243812
 30
0.000000
  70
    32
  0
VERTEX
  8
0
  5
52A
 10
-3.27144
 20
0.244984
 30
0.000000
  70
    32
  0
VERTEX
  8
0
  5
52B
 10
-3.28095
 20
0.246182
 30
0.000000
  70
    32
  0
VERTEX
  8
0
  5
52C
 10
-3.29042
 20
0.247407
 30
0.000000
  70
    32
  0
VERTEX
  8
0
  5
52D
 10
-3.29984
 20
0.248655
 30
0.000000
  70
    32
  0
VERTEX
  8
0
  5
52E
 10
-3.30921
 20
0.249927
 30
0.000000
  70
    32
  0
VERTEX
  8
0
  5
52F
 10
-3.31854
 20
0.251222
 30
0.000000
  70
    32
  0
VERTEX
  8
0
  5
530
 10
-3.32783
 20
0.252537
 30
0.000000
  70
    32
  0
VERTEX
  8
0
  5
531
 10
-3.33707
 20
0.253873
 30
0.000000
  70
    32
  0
VERTEX
  8
0
  5
532
 10
-3.34627
 20
0.255228
 30
0.000000
  70
    32
  0
VERTEX
  8
0
  5
533
 10
-3.35543
 20
0.256600
 30
0.000000
  70
    32
  0
VERTEX
  8
0
  5
534
 10
-3.36455
 20
0.257988
 30
0.000000
  70
    32
  0
VERTEX
  8
0
  5
535
 10
-3.37363
 20
0.259392
 30
0.000000
  70
    32
  0
VERTEX
  8
0
  5
536
 10
-3.38266
 20
0.260811
 30
0.000000
  70
    32
  0
VERTEX
  8
0
  5
537
 10
-3.39167
 20
0.262242
 30
0.000000
  70
    32
  0
VERTEX
  8
0
  5
538
 10
-3.40063
 20
0.263686
 30
0.000000
  70
    32
  0
VERTEX
  8
0
  5
539
 10
-3.40956
 20
0.265140
 30
0.000000
  70
    32
  0
VERTEX
  8
0
  5
53A
 10
-3.41845
 20
0.266604
 30
0.000000
  70
    32
  0
VERTEX
  8
0
  5
53B
 10
-3.42730
 20
0.268076
 30
0.000000
  70
    32
  0
VERTEX
  8
0
  5
53C
 10
-3.43613
 20
0.269556
 30
0.000000
  70
    32
  0
VERTEX
  8
0
  5
53D
 10
-3.44492
 20
0.271042
 30
0.000000
  70
    32
  0
VERTEX
  8
0
  5
53E
 10
-3.45368
 20
0.272534
 30
0.000000
  70
    32
  0
VERTEX
  8
0
  5
53F
 10
-3.46240
 20
0.274029
 30
0.000000
  70
    32
  0
VERTEX
  8
0
  5
540
 10
-3.47110
 20
0.275527
 30
0.000000
  70
    32
  0
VERTEX
  8
0
  5
541
 10
-3.47977
 20
0.277026
 30
0.000000
  70
    32
  0
VERTEX
  8
0
  5
542
 10
-3.48840
 20
0.278526
 30
0.000000
  70
    32
  0
VERTEX
  8
0
  5
543
 10
-3.49702
 20
0.280026
 30
0.000000
  70
    32
  0
VERTEX
  8
0
  5
544
 10
-3.50560
 20
0.281523
 30
0.000000
  70
    32
  0
VERTEX
  8
0
  5
545
 10
-3.51416
 20
0.283018
 30
0.000000
  70
    32
  0
VERTEX
  8
0
  5
546
 10
-3.52269
 20
0.284508
 30
0.000000
  70
    32
  0
VERTEX
  8
0
  5
547
 10
-3.53120
 20
0.285994
 30
0.000000
  70
    32
  0
VERTEX
  8
0
  5
548
 10
-3.53968
 20
0.287473
 30
0.000000
  70
    32
  0
VERTEX
  8
0
  5
549
 10
-3.54815
 20
0.288944
 30
0.000000
  70
    32
  0
VERTEX
  8
0
  5
54A
 10
-3.55659
 20
0.290407
 30
0.000000
  70
    32
  0
VERTEX
  8
0
  5
54B
 10
-3.56501
 20
0.291860
 30
0.000000
  70
    32
  0
VERTEX
  8
0
  5
54C
 10
-3.57341
 20
0.293302
 30
0.000000
  70
    32
  0
VERTEX
  8
0
  5
54D
 10
-3.58179
 20
0.294731
 30
0.000000
  70
    32
  0
VERTEX
  8
0
  5
54E
 10
-3.59015
 20
0.296148
 30
0.000000
  70
    32
  0
VERTEX
  8
0
  5
54F
 10
-3.59849
 20
0.297550
 30
0.000000
  70
    32
  0
VERTEX
  8
0
  5
550
 10
-3.60682
 20
0.298937
 30
0.000000
  70
    32
  0
VERTEX
  8
0
  5
551
 10
-3.61514
 20
0.300306
 30
0.000000
  70
    32
  0
VERTEX
  8
0
  5
552
 10
-3.62343
 20
0.301658
 30
0.000000
  70
    32
  0
VERTEX
  8
0
  5
553
 10
-3.63172
 20
0.302991
 30
0.000000
  70
    32
  0
VERTEX
  8
0
  5
554
 10
-3.63999
 20
0.304304
 30
0.000000
  70
    32
  0
VERTEX
  8
0
  5
555
 10
-3.64825
 20
0.305596
 30
0.000000
  70
    32
  0
VERTEX
  8
0
  5
556
 10
-3.65650
 20
0.306865
 30
0.000000
  70
    32
  0
VERTEX
  8
0
  5
557
 10
-3.66473
 20
0.308111
 30
0.000000
  70
    32
  0
VERTEX
  8
0
  5
558
 10
-3.67296
 20
0.309331
 30
0.000000
  70
    32
  0
VERTEX
  8
0
  5
559
 10
-3.68118
 20
0.310526
 30
0.000000
  70
    32
  0
VERTEX
  8
0
  5
55A
 10
-3.68939
 20
0.311694
 30
0.000000
  70
    32
  0
VERTEX
  8
0
  5
55B
 10
-3.69759
 20
0.312834
 30
0.000000
  70
    32
  0
VERTEX
  8
0
  5
55C
 10
-3.70579
 20
0.313944
 30
0.000000
  70
    32
  0
VERTEX
  8
0
  5
55D
 10
-3.71398
 20
0.315024
 30
0.000000
  70
    32
  0
VERTEX
  8
0
  5
55E
 10
-3.72217
 20
0.316072
 30
0.000000
  70
    32
  0
VERTEX
  8
0
  5
55F
 10
-3.73036
 20
0.317088
 30
0.000000
  70
    32
  0
VERTEX
  8
0
  5
560
 10
-3.73854
 20
0.318070
 30
0.000000
  70
    32
  0
VERTEX
  8
0
  5
561
 10
-3.74672
 20
0.319016
 30
0.000000
  70
    32
  0
VERTEX
  8
0
  5
562
 10
-3.75490
 20
0.319926
 30
0.000000
  70
    32
  0
VERTEX
  8
0
  5
563
 10
-3.76307
 20
0.320799
 30
0.000000
  70
    32
  0
VERTEX
  8
0
  5
564
 10
-3.77125
 20
0.321634
 30
0.000000
  70
    32
  0
VERTEX
  8
0
  5
565
 10
-3.77944
 20
0.322429
 30
0.000000
  70
    32
  0
VERTEX
  8
0
  5
566
 10
-3.78762
 20
0.323183
 30
0.000000
  70
    32
  0
VERTEX
  8
0
  5
567
 10
-3.79581
 20
0.323895
 30
0.000000
  70
    32
  0
VERTEX
  8
0
  5
568
 10
-3.80400
 20
0.324564
 30
0.000000
  70
    32
  0
VERTEX
  8
0
  5
569
 10
-3.81219
 20
0.325189
 30
0.000000
  70
    32
  0
VERTEX
  8
0
  5
56A
 10
-3.82040
 20
0.325768
 30
0.000000
  70
    32
  0
VERTEX
  8
0
  5
56B
 10
-3.82860
 20
0.326301
 30
0.000000
  70
    32
  0
VERTEX
  8
0
  5
56C
 10
-3.83682
 20
0.326786
 30
0.000000
  70
    32
  0
VERTEX
  8
0
  5
56D
 10
-3.84505
 20
0.327223
 30
0.000000
  70
    32
  0
VERTEX
  8
0
  5
56E
 10
-3.85328
 20
0.327609
 30
0.000000
  70
    32
  0
VERTEX
  8
0
  5
56F
 10
-3.86181
 20
0.327956
 30
0.000000
  70
    32
  0
VERTEX
  8
0
  5
570
 10
-3.87083
 20
0.328284
 30
0.000000
  70
    32
  0
VERTEX
  8
0
  5
571
 10
-3.87971
 20
0.328574
 30
0.000000
  70
    32
  0
VERTEX
  8
0
  5
572
 10
-3.88848
 20
0.328828
 30
0.000000
  70
    32
  0
VERTEX
  8
0
  5
573
 10
-3.89711
 20
0.329045
 30
0.000000
  70
    32
  0
VERTEX
  8
0
  5
574
 10
-3.90563
 20
0.329227
 30
0.000000
  70
    32
  0
VERTEX
  8
0
  5
575
 10
-3.91402
 20
0.329373
 30
0.000000
  70
    32
  0
VERTEX
  8
0
  5
576
 10
-3.92228
 20
0.329486
 30
0.000000
  70
    32
  0
VERTEX
  8
0
  5
577
 10
-3.93043
 20
0.329565
 30
0.000000
  70
    32
  0
VERTEX
  8
0
  5
578
 10
-3.93845
 20
0.329611
 30
0.000000
  70
    32
  0
VERTEX
  8
0
  5
579
 10
-3.94635
 20
0.329625
 30
0.000000
  70
    32
  0
VERTEX
  8
0
  5
57A
 10
-3.95413
 20
0.329607
 30
0.000000
  70
    32
  0
VERTEX
  8
0
  5
57B
 10
-3.96180
 20
0.329558
 30
0.000000
  70
    32
  0
VERTEX
  8
0
  5
57C
 10
-3.96934
 20
0.329479
 30
0.000000
  70
    32
  0
VERTEX
  8
0
  5
57D
 10
-3.97677
 20
0.329370
 30
0.000000
  70
    32
  0
VERTEX
  8
0
  5
57E
 10
-3.98408
 20
0.329233
 30
0.000000
  70
    32
  0
VERTEX
  8
0
  5
57F
 10
-3.99128
 20
0.329067
 30
0.000000
  70
    32
  0
VERTEX
  8
0
  5
580
 10
-3.99835
 20
0.328873
 30
0.000000
  70
    32
  0
VERTEX
  8
0
  5
581
 10
-4.00532
 20
0.328652
 30
0.000000
  70
    32
  0
VERTEX
  8
0
  5
582
 10
-4.01217
 20
0.328405
 30
0.000000
  70
    32
  0
VERTEX
  8
0
  5
583
 10
-4.01891
 20
0.328133
 30
0.000000
  70
    32
  0
VERTEX
  8
0
  5
584
 10
-4.02554
 20
0.327835
 30
0.000000
  70
    32
  0
VERTEX
  8
0
  5
585
 10
-4.03206
 20
0.327513
 30
0.000000
  70
    32
  0
VERTEX
  8
0
  5
586
 10
-4.03846
 20
0.327167
 30
0.000000
  70
    32
  0
VERTEX
  8
0
  5
587
 10
-4.04476
 20
0.326799
 30
0.000000
  70
    32
  0
VERTEX
  8
0
  5
588
 10
-4.05095
 20
0.326408
 30
0.000000
  70
    32
  0
VERTEX
  8
0
  5
589
 10
-4.05703
 20
0.325995
 30
0.000000
  70
    32
  0
VERTEX
  8
0
  5
58A
 10
-4.06300
 20
0.325561
 30
0.000000
  70
    32
  0
VERTEX
  8
0
  5
58B
 10
-4.06887
 20
0.325107
 30
0.000000
  70
    32
  0
VERTEX
  8
0
  5
58C
 10
-4.07463
 20
0.324633
 30
0.000000
  70
    32
  0
VERTEX
  8
0
  5
58D
 10
-4.08029
 20
0.324139
 30
0.000000
  70
    32
  0
VERTEX
  8
0
  5
58E
 10
-4.08584
 20
0.323628
 30
0.000000
  70
    32
  0
VERTEX
  8
0
  5
58F
 10
-4.09129
 20
0.323098
 30
0.000000
  70
    32
  0
VERTEX
  8
0
  5
590
 10
-4.09664
 20
0.322552
 30
0.000000
  70
    32
  0
VERTEX
  8
0
  5
591
 10
-4.10188
 20
0.321989
 30
0.000000
  70
    32
  0
VERTEX
  8
0
  5
592
 10
-4.10703
 20
0.321410
 30
0.000000
  70
    32
  0
VERTEX
  8
0
  5
593
 10
-4.11207
 20
0.320817
 30
0.000000
  70
    32
  0
VERTEX
  8
0
  5
594
 10
-4.11702
 20
0.320208
 30
0.000000
  70
    32
  0
VERTEX
  8
0
  5
595
 10
-4.12186
 20
0.319586
 30
0.000000
  70
    32
  0
VERTEX
  8
0
  5
596
 10
-4.12661
 20
0.318951
 30
0.000000
  70
    32
  0
VERTEX
  8
0
  5
597
 10
-4.13127
 20
0.318303
 30
0.000000
  70
    32
  0
VERTEX
  8
0
  5
598
 10
-4.13582
 20
0.317644
 30
0.000000
  70
    32
  0
VERTEX
  8
0
  5
599
 10
-4.14029
 20
0.316973
 30
0.000000
  70
    32
  0
VERTEX
  8
0
  5
59A
 10
-4.14465
 20
0.316292
 30
0.000000
  70
    32
  0
VERTEX
  8
0
  5
59B
 10
-4.14893
 20
0.315600
 30
0.000000
  70
    32
  0
VERTEX
  8
0
  5
59C
 10
-4.15311
 20
0.314900
 30
0.000000
  70
    32
  0
VERTEX
  8
0
  5
59D
 10
-4.15720
 20
0.314191
 30
0.000000
  70
    32
  0
VERTEX
  8
0
  5
59E
 10
-4.16119
 20
0.313474
 30
0.000000
  70
    32
  0
VERTEX
  8
0
  5
59F
 10
-4.16510
 20
0.312750
 30
0.000000
  70
    32
  0
VERTEX
  8
0
  5
5A0
 10
-4.16892
 20
0.312020
 30
0.000000
  70
    32
  0
VERTEX
  8
0
  5
5A1
 10
-4.17265
 20
0.311283
 30
0.000000
  70
    32
  0
VERTEX
  8
0
  5
5A2
 10
-4.17629
 20
0.310542
 30
0.000000
  70
    32
  0
VERTEX
  8
0
  5
5A3
 10
-4.17984
 20
0.309795
 30
0.000000
  70
    32
  0
VERTEX
  8
0
  5
5A4
 10
-4.18331
 20
0.309045
 30
0.000000
  70
    32
  0
VERTEX
  8
0
  5
5A5
 10
-4.18669
 20
0.308292
 30
0.000000
  70
    32
  0
VERTEX
  8
0
  5
5A6
 10
-4.18999
 20
0.307535
 30
0.000000
  70
    32
  0
VERTEX
  8
0
  5
5A7
 10
-4.19320
 20
0.306777
 30
0.000000
  70
    32
  0
VERTEX
  8
0
  5
5A8
 10
-4.19633
 20
0.306018
 30
0.000000
  70
    32
  0
VERTEX
  8
0
  5
5A9
 10
-4.19938
 20
0.305258
 30
0.000000
  70
    32
  0
VERTEX
  8
0
  5
5AA
 10
-4.20234
 20
0.304498
 30
0.000000
  70
    32
  0
VERTEX
  8
0
  5
5AB
 10
-4.20523
 20
0.303739
 30
0.000000
  70
    32
  0
VERTEX
  8
0
  5
5AC
 10
-4.20803
 20
0.302981
 30
0.000000
  70
    32
  0
VERTEX
  8
0
  5
5AD
 10
-4.21076
 20
0.302225
 30
0.000000
  70
    32
  0
VERTEX
  8
0
  5
5AE
 10
-4.21340
 20
0.301471
 30
0.000000
  70
    32
  0
VERTEX
  8
0
  5
5AF
 10
-4.21597
 20
0.300721
 30
0.000000
  70
    32
  0
VERTEX
  8
0
  5
5B0
 10
-4.21846
 20
0.299975
 30
0.000000
  70
    32
  0
VERTEX
  8
0
  5
5B1
 10
-4.22088
 20
0.299234
 30
0.000000
  70
    32
  0
VERTEX
  8
0
  5
5B2
 10
-4.22322
 20
0.298498
 30
0.000000
  70
    32
  0
VERTEX
  8
0
  5
5B3
 10
-4.22548
 20
0.297768
 30
0.000000
  70
    32
  0
VERTEX
  8
0
  5
5B4
 10
-4.22768
 20
0.297044
 30
0.000000
  70
    32
  0
VERTEX
  8
0
  5
5B5
 10
-4.22979
 20
0.296328
 30
0.000000
  70
    32
  0
VERTEX
  8
0
  5
5B6
 10
-4.23184
 20
0.295619
 30
0.000000
  70
    32
  0
VERTEX
  8
0
  5
5B7
 10
-4.23382
 20
0.294920
 30
0.000000
  70
    32
  0
VERTEX
  8
0
  5
5B8
 10
-4.23572
 20
0.294229
 30
0.000000
  70
    32
  0
VERTEX
  8
0
  5
5B9
 10
-4.23756
 20
0.293549
 30
0.000000
  70
    32
  0
VERTEX
  8
0
  5
5BA
 10
-4.23932
 20
0.292879
 30
0.000000
  70
    32
  0
VERTEX
  8
0
  5
5BB
 10
-4.24102
 20
0.292220
 30
0.000000
  70
    32
  0
VERTEX
  8
0
  5
5BC
 10
-4.24265
 20
0.291573
 30
0.000000
  70
    32
  0
VERTEX
  8
0
  5
5BD
 10
-4.24422
 20
0.290938
 30
0.000000
  70
    32
  0
VERTEX
  8
0
  5
5BE
 10
-4.24571
 20
0.290317
 30
0.000000
  70
    32
  0
VERTEX
  8
0
  5
5BF
 10
-4.24715
 20
0.289710
 30
0.000000
  70
    32
  0
VERTEX
  8
0
  5
5C0
 10
-4.24852
 20
0.289117
 30
0.000000
  70
    32
  0
VERTEX
  8
0
  5
5C1
 10
-4.24982
 20
0.288540
 30
0.000000
  70
    32
  0
VERTEX
  8
0
  5
5C2
 10
-4.25106
 20
0.287978
 30
0.000000
  70
    32
  0
VERTEX
  8
0
  5
5C3
 10
-4.25225
 20
0.287432
 30
0.000000
  70
    32
  0
VERTEX
  8
0
  5
5C4
 10
-4.25337
 20
0.286904
 30
0.000000
  70
    32
  0
VERTEX
  8
0
  5
5C5
 10
-4.25443
 20
0.286394
 30
0.000000
  70
    32
  0
VERTEX
  8
0
  5
5C6
 10
-4.25543
 20
0.285902
 30
0.000000
  70
    32
  0
VERTEX
  8
0
  5
5C7
 10
-4.25637
 20
0.285429
 30
0.000000
  70
    32
  0
VERTEX
  8
0
  5
5C8
 10
-4.25725
 20
0.284976
 30
0.000000
  70
    32
  0
VERTEX
  8
0
  5
5C9
 10
-4.25808
 20
0.284544
 30
0.000000
  70
    32
  0
VERTEX
  8
0
  5
5CA
 10
-4.25885
 20
0.284133
 30
0.000000
  70
    32
  0
VERTEX
  8
0
  5
5CB
 10
-4.25956
 20
0.283743
 30
0.000000
  70
    32
  0
VERTEX
  8
0
  5
5CC
 10
-4.26022
 20
0.283376
 30
0.000000
  70
    32
  0
VERTEX
  8
0
  5
5CD
 10
-4.26083
 20
0.283032
 30
0.000000
  70
    32
  0
VERTEX
  8
0
  5
5CE
 10
-4.26138
 20
0.282711
 30
0.000000
  70
    32
  0
VERTEX
  8
0
  5
5CF
 10
-4.26189
 20
0.282415
 30
0.000000
  70
    32
  0
VERTEX
  8
0
  5
5D0
 10
-4.26234
 20
0.282144
 30
0.000000
  70
    32
  0
VERTEX
  8
0
  5
5D1
 10
-4.26273
 20
0.281899
 30
0.000000
  70
    32
  0
VERTEX
  8
0
  5
5D2
 10
-4.26308
 20
0.281680
 30
0.000000
  70
    32
  0
VERTEX
  8
0
  5
5D3
 10
-4.26338
 20
0.281489
 30
0.000000
  70
    32
  0
VERTEX
  8
0
  5
5D4
 10
-4.26364
 20
0.281325
 30
0.000000
  70
    32
  0
VERTEX
  8
0
  5
5D5
 10
-4.26384
 20
0.281189
 30
0.000000
  70
    32
  0
VERTEX
  8
0
  5
5D6
 10
-4.26400
 20
0.281082
 30
0.000000
  70
    32
  0
VERTEX
  8
0
  5
5D7
 10
-4.26411
 20
0.281005
 30
0.000000
  70
    32
  0
VERTEX
  8
0
  5
5D8
 10
-4.26417
 20
0.280958
 30
0.000000
  70
    32
  0
VERTEX
  8
0
  5
5D9
 10
-4.26420
 20
0.280943
 30
0.000000
  70
    32
  0
SEQEND
  8
0
  5
5DA
  0
POLYLINE
  8
0
  5
5DB
  66
     1
 10
0.000000
 20
0.000000
 30
0.000000
  70
     8
  0
VERTEX
  8
0
  5
5DC
 10
-4.33181
 20
0.314616
 30
0.000000
  70
    32
  0
VERTEX
  8
0
  5
5DD
 10
-4.33347
 20
0.314193
 30
0.000000
  70
    32
  0
VERTEX
  8
0
  5
5DE
 10
-4.33515
 20
0.313745
 30
0.000000
  70
    32
  0
VERTEX
  8
0
  5
5DF
 10
-4.33683
 20
0.313272
 30
0.000000
  70
    32
  0
VERTEX
  8
0
  5
5E0
 10
-4.33852
 20
0.312773
 30
0.000000
  70
    32
  0
VERTEX
  8
0
  5
5E1
 10
-4.34022
 20
0.312248
 30
0.000000
  70
    32
  0
VERTEX
  8
0
  5
5E2
 10
-4.34193
 20
0.311698
 30
0.000000
  70
    32
  0
VERTEX
  8
0
  5
5E3
 10
-4.34364
 20
0.311120
 30
0.000000
  70
    32
  0
VERTEX
  8
0
  5
5E4
 10
-4.34536
 20
0.310516
 30
0.000000
  70
    32
  0
VERTEX
  8
0
  5
5E5
 10
-4.34709
 20
0.309884
 30
0.000000
  70
    32
  0
VERTEX
  8
0
  5
5E6
 10
-4.34882
 20
0.309225
 30
0.000000
  70
    32
  0
VERTEX
  8
0
  5
5E7
 10
-4.35056
 20
0.308539
 30
0.000000
  70
    32
  0
VERTEX
  8
0
  5
5E8
 10
-4.35230
 20
0.307824
 30
0.000000
  70
    32
  0
VERTEX
  8
0
  5
5E9
 10
-4.35405
 20
0.307080
 30
0.000000
  70
    32
  0
VERTEX
  8
0
  5
5EA
 10
-4.35580
 20
0.306308
 30
0.000000
  70
    32
  0
VERTEX
  8
0
  5
5EB
 10
-4.35755
 20
0.305507
 30
0.000000
  70
    32
  0
VERTEX
  8
0
  5
5EC
 10
-4.35931
 20
0.304676
 30
0.000000
  70
    32
  0
VERTEX
  8
0
  5
5ED
 10
-4.36107
 20
0.303816
 30
0.000000
  70
    32
  0
VERTEX
  8
0
  5
5EE
 10
-4.36283
 20
0.302925
 30
0.000000
  70
    32
  0
VERTEX
  8
0
  5
5EF
 10
-4.36459
 20
0.302004
 30
0.000000
  70
    32
  0
VERTEX
  8
0
  5
5F0
 10
-4.36636
 20
0.301053
 30
0.000000
  70
    32
  0
VERTEX
  8
0
  5
5F1
 10
-4.36812
 20
0.300070
 30
0.000000
  70
    32
  0
VERTEX
  8
0
  5
5F2
 10
-4.36989
 20
0.299056
 30
0.000000
  70
    32
  0
VERTEX
  8
0
  5
5F3
 10
-4.37165
 20
0.298011
 30
0.000000
  70
    32
  0
VERTEX
  8
0
  5
5F4
 10
-4.37342
 20
0.296933
 30
0.000000
  70
    32
  0
VERTEX
  8
0
  5
5F5
 10
-4.37518
 20
0.295823
 30
0.000000
  70
    32
  0
VERTEX
  8
0
  5
5F6
 10
-4.37695
 20
0.294681
 30
0.000000
  70
    32
  0
VERTEX
  8
0
  5
5F7
 10
-4.37871
 20
0.293506
 30
0.000000
  70
    32
  0
VERTEX
  8
0
  5
5F8
 10
-4.38046
 20
0.292297
 30
0.000000
  70
    32
  0
VERTEX
  8
0
  5
5F9
 10
-4.38222
 20
0.291055
 30
0.000000
  70
    32
  0
VERTEX
  8
0
  5
5FA
 10
-4.38397
 20
0.289779
 30
0.000000
  70
    32
  0
VERTEX
  8
0
  5
5FB
 10
-4.38572
 20
0.288469
 30
0.000000
  70
    32
  0
VERTEX
  8
0
  5
5FC
 10
-4.38747
 20
0.287124
 30
0.000000
  70
    32
  0
VERTEX
  8
0
  5
5FD
 10
-4.38921
 20
0.285744
 30
0.000000
  70
    32
  0
VERTEX
  8
0
  5
5FE
 10
-4.39094
 20
0.284330
 30
0.000000
  70
    32
  0
VERTEX
  8
0
  5
5FF
 10
-4.39267
 20
0.282880
 30
0.000000
  70
    32
  0
VERTEX
  8
0
  5
600
 10
-4.39440
 20
0.281394
 30
0.000000
  70
    32
  0
VERTEX
  8
0
  5
601
 10
-4.39611
 20
0.279871
 30
0.000000
  70
    32
  0
VERTEX
  8
0
  5
602
 10
-4.39783
 20
0.278313
 30
0.000000
  70
    32
  0
VERTEX
  8
0
  5
603
 10
-4.39953
 20
0.276718
 30
0.000000
  70
    32
  0
VERTEX
  8
0
  5
604
 10
-4.40123
 20
0.275085
 30
0.000000
  70
    32
  0
VERTEX
  8
0
  5
605
 10
-4.40291
 20
0.273416
 30
0.000000
  70
    32
  0
VERTEX
  8
0
  5
606
 10
-4.40459
 20
0.271708
 30
0.000000
  70
    32
  0
VERTEX
  8
0
  5
607
 10
-4.40627
 20
0.269963
 30
0.000000
  70
    32
  0
VERTEX
  8
0
  5
608
 10
-4.40793
 20
0.268179
 30
0.000000
  70
    32
  0
VERTEX
  8
0
  5
609
 10
-4.40958
 20
0.266356
 30
0.000000
  70
    32
  0
VERTEX
  8
0
  5
60A
 10
-4.41122
 20
0.264495
 30
0.000000
  70
    32
  0
VERTEX
  8
0
  5
60B
 10
-4.41285
 20
0.262594
 30
0.000000
  70
    32
  0
VERTEX
  8
0
  5
60C
 10
-4.41447
 20
0.260654
 30
0.000000
  70
    32
  0
VERTEX
  8
0
  5
60D
 10
-4.41608
 20
0.258674
 30
0.000000
  70
    32
  0
VERTEX
  8
0
  5
60E
 10
-4.41768
 20
0.256653
 30
0.000000
  70
    32
  0
VERTEX
  8
0
  5
60F
 10
-4.41926
 20
0.254592
 30
0.000000
  70
    32
  0
VERTEX
  8
0
  5
610
 10
-4.42083
 20
0.252490
 30
0.000000
  70
    32
  0
VERTEX
  8
0
  5
611
 10
-4.42239
 20
0.250347
 30
0.000000
  70
    32
  0
VERTEX
  8
0
  5
612
 10
-4.42393
 20
0.248162
 30
0.000000
  70
    32
  0
VERTEX
  8
0
  5
613
 10
-4.42546
 20
0.245936
 30
0.000000
  70
    32
  0
VERTEX
  8
0
  5
614
 10
-4.42698
 20
0.243667
 30
0.000000
  70
    32
  0
VERTEX
  8
0
  5
615
 10
-4.42848
 20
0.241356
 30
0.000000
  70
    32
  0
VERTEX
  8
0
  5
616
 10
-4.42996
 20
0.239001
 30
0.000000
  70
    32
  0
VERTEX
  8
0
  5
617
 10
-4.43143
 20
0.236604
 30
0.000000
  70
    32
  0
VERTEX
  8
0
  5
618
 10
-4.43288
 20
0.234164
 30
0.000000
  70
    32
  0
VERTEX
  8
0
  5
619
 10
-4.43432
 20
0.231679
 30
0.000000
  70
    32
  0
VERTEX
  8
0
  5
61A
 10
-4.43573
 20
0.229151
 30
0.000000
  70
    32
  0
VERTEX
  8
0
  5
61B
 10
-4.43713
 20
0.226578
 30
0.000000
  70
    32
  0
VERTEX
  8
0
  5
61C
 10
-4.43852
 20
0.223960
 30
0.000000
  70
    32
  0
VERTEX
  8
0
  5
61D
 10
-4.43988
 20
0.221298
 30
0.000000
  70
    32
  0
VERTEX
  8
0
  5
61E
 10
-4.44122
 20
0.218590
 30
0.000000
  70
    32
  0
VERTEX
  8
0
  5
61F
 10
-4.44255
 20
0.215836
 30
0.000000
  70
    32
  0
VERTEX
  8
0
  5
620
 10
-4.44385
 20
0.213037
 30
0.000000
  70
    32
  0
VERTEX
  8
0
  5
621
 10
-4.44514
 20
0.210191
 30
0.000000
  70
    32
  0
VERTEX
  8
0
  5
622
 10
-4.44640
 20
0.207298
 30
0.000000
  70
    32
  0
VERTEX
  8
0
  5
623
 10
-4.44764
 20
0.204359
 30
0.000000
  70
    32
  0
VERTEX
  8
0
  5
624
 10
-4.44886
 20
0.201372
 30
0.000000
  70
    32
  0
VERTEX
  8
0
  5
625
 10
-4.45006
 20
0.198337
 30
0.000000
  70
    32
  0
VERTEX
  8
0
  5
626
 10
-4.45124
 20
0.195255
 30
0.000000
  70
    32
  0
VERTEX
  8
0
  5
627
 10
-4.45239
 20
0.192125
 30
0.000000
  70
    32
  0
VERTEX
  8
0
  5
628
 10
-4.45352
 20
0.188946
 30
0.000000
  70
    32
  0
VERTEX
  8
0
  5
629
 10
-4.45462
 20
0.185718
 30
0.000000
  70
    32
  0
VERTEX
  8
0
  5
62A
 10
-4.45570
 20
0.182441
 30
0.000000
  70
    32
  0
VERTEX
  8
0
  5
62B
 10
-4.45676
 20
0.179114
 30
0.000000
  70
    32
  0
VERTEX
  8
0
  5
62C
 10
-4.45779
 20
0.175738
 30
0.000000
  70
    32
  0
VERTEX
  8
0
  5
62D
 10
-4.45880
 20
0.172311
 30
0.000000
  70
    32
  0
VERTEX
  8
0
  5
62E
 10
-4.45978
 20
0.168834
 30
0.000000
  70
    32
  0
VERTEX
  8
0
  5
62F
 10
-4.46073
 20
0.165307
 30
0.000000
  70
    32
  0
VERTEX
  8
0
  5
630
 10
-4.46165
 20
0.161728
 30
0.000000
  70
    32
  0
VERTEX
  8
0
  5
631
 10
-4.46255
 20
0.158097
 30
0.000000
  70
    32
  0
VERTEX
  8
0
  5
632
 10
-4.46342
 20
0.154415
 30
0.000000
  70
    32
  0
VERTEX
  8
0
  5
633
 10
-4.46426
 20
0.150681
 30
0.000000
  70
    32
  0
VERTEX
  8
0
  5
634
 10
-4.46508
 20
0.146895
 30
0.000000
  70
    32
  0
VERTEX
  8
0
  5
635
 10
-4.46586
 20
0.143056
 30
0.000000
  70
    32
  0
VERTEX
  8
0
  5
636
 10
-4.46661
 20
0.139164
 30
0.000000
  70
    32
  0
VERTEX
  8
0
  5
637
 10
-4.46734
 20
0.135218
 30
0.000000
  70
    32
  0
VERTEX
  8
0
  5
638
 10
-4.46803
 20
0.131219
 30
0.000000
  70
    32
  0
VERTEX
  8
0
  5
639
 10
-4.46869
 20
0.127166
 30
0.000000
  70
    32
  0
VERTEX
  8
0
  5
63A
 10
-4.46932
 20
0.123059
 30
0.000000
  70
    32
  0
VERTEX
  8
0
  5
63B
 10
-4.46992
 20
0.118897
 30
0.000000
  70
    32
  0
VERTEX
  8
0
  5
63C
 10
-4.47049
 20
0.114680
 30
0.000000
  70
    32
  0
VERTEX
  8
0
  5
63D
 10
-4.47102
 20
0.110408
 30
0.000000
  70
    32
  0
VERTEX
  8
0
  5
63E
 10
-4.47152
 20
0.106081
 30
0.000000
  70
    32
  0
VERTEX
  8
0
  5
63F
 10
-4.47199
 20
0.101697
 30
0.000000
  70
    32
  0
VERTEX
  8
0
  5
640
 10
-4.47242
 20
0.0972576
 30
0.000000
  70
    32
  0
VERTEX
  8
0
  5
641
 10
-4.47282
 20
0.0927615
 30
0.000000
  70
    32
  0
VERTEX
  8
0
  5
642
 10
-4.47319
 20
0.0882085
 30
0.000000
  70
    32
  0
VERTEX
  8
0
  5
643
 10
-4.47351
 20
0.0835983
 30
0.000000
  70
    32
  0
VERTEX
  8
0
  5
644
 10
-4.47381
 20
0.0789307
 30
0.000000
  70
    32
  0
VERTEX
  8
0
  5
645
 10
-4.47406
 20
0.0742053
 30
0.000000
  70
    32
  0
VERTEX
  8
0
  5
646
 10
-4.47428
 20
0.0694218
 30
0.000000
  70
    32
  0
VERTEX
  8
0
  5
647
 10
-4.47446
 20
0.0645799
 30
0.000000
  70
    32
  0
VERTEX
  8
0
  5
648
 10
-4.47461
 20
0.0596792
 30
0.000000
  70
    32
  0
VERTEX
  8
0
  5
649
 10
-4.47472
 20
0.0547195
 30
0.000000
  70
    32
  0
VERTEX
  8
0
  5
64A
 10
-4.47478
 20
0.0497004
 30
0.000000
  70
    32
  0
VERTEX
  8
0
  5
64B
 10
-4.47481
 20
0.0446215
 30
0.000000
  70
    32
  0
VERTEX
  8
0
  5
64C
 10
-4.47480
 20
0.0394966
 30
0.000000
  70
    32
  0
VERTEX
  8
0
  5
64D
 10
-4.47477
 20
0.0344094
 30
0.000000
  70
    32
  0
VERTEX
  8
0
  5
64E
 10
-4.47470
 20
0.0293737
 30
0.000000
  70
    32
  0
VERTEX
  8
0
  5
64F
 10
-4.47459
 20
0.0243893
 30
0.000000
  70
    32
  0
VERTEX
  8
0
  5
650
 10
-4.47446
 20
0.0194560
 30
0.000000
  70
    32
  0
VERTEX
  8
0
  5
651
 10
-4.47430
 20
0.0145734
 30
0.000000
  70
    32
  0
VERTEX
  8
0
  5
652
 10
-4.47411
 20
0.00974130
 30
0.000000
  70
    32
  0
VERTEX
  8
0
  5
653
 10
-4.47388
 20
0.00495936
 30
0.000000
  70
    32
  0
VERTEX
  8
0
  5
654
 10
-4.47363
 20
0.000227323
 30
0.000000
  70
    32
  0
VERTEX
  8
0
  5
655
 10
-4.47334
 20
-0.00445509
 30
0.000000
  70
    32
  0
VERTEX
  8
0
  5
656
 10
-4.47303
 20
-0.00908816
 30
0.000000
  70
    32
  0
VERTEX
  8
0
  5
657
 10
-4.47269
 20
-0.0136722
 30
0.000000
  70
    32
  0
VERTEX
  8
0
  5
658
 10
-4.47232
 20
-0.0182074
 30
0.000000
  70
    32
  0
VERTEX
  8
0
  5
659
 10
-4.47192
 20
-0.0226941
 30
0.000000
  70
    32
  0
VERTEX
  8
0
  5
65A
 10
-4.47149
 20
-0.0271326
 30
0.000000
  70
    32
  0
VERTEX
  8
0
  5
65B
 10
-4.47103
 20
-0.0315232
 30
0.000000
  70
    32
  0
VERTEX
  8
0
  5
65C
 10
-4.47055
 20
-0.0358661
 30
0.000000
  70
    32
  0
VERTEX
  8
0
  5
65D
 10
-4.47004
 20
-0.0401616
 30
0.000000
  70
    32
  0
VERTEX
  8
0
  5
65E
 10
-4.46950
 20
-0.0444100
 30
0.000000
  70
    32
  0
VERTEX
  8
0
  5
65F
 10
-4.46893
 20
-0.0486116
 30
0.000000
  70
    32
  0
VERTEX
  8
0
  5
660
 10
-4.46834
 20
-0.0527667
 30
0.000000
  70
    32
  0
VERTEX
  8
0
  5
661
 10
-4.46772
 20
-0.0568755
 30
0.000000
  70
    32
  0
VERTEX
  8
0
  5
662
 10
-4.46707
 20
-0.0609383
 30
0.000000
  70
    32
  0
VERTEX
  8
0
  5
663
 10
-4.46640
 20
-0.0649554
 30
0.000000
  70
    32
  0
VERTEX
  8
0
  5
664
 10
-4.46570
 20
-0.0689271
 30
0.000000
  70
    32
  0
VERTEX
  8
0
  5
665
 10
-4.46498
 20
-0.0728537
 30
0.000000
  70
    32
  0
VERTEX
  8
0
  5
666
 10
-4.46423
 20
-0.0767354
 30
0.000000
  70
    32
  0
VERTEX
  8
0
  5
667
 10
-4.46346
 20
-0.0805725
 30
0.000000
  70
    32
  0
VERTEX
  8
0
  5
668
 10
-4.46266
 20
-0.0843654
 30
0.000000
  70
    32
  0
VERTEX
  8
0
  5
669
 10
-4.46184
 20
-0.0881142
 30
0.000000
  70
    32
  0
VERTEX
  8
0
  5
66A
 10
-4.46099
 20
-0.0918193
 30
0.000000
  70
    32
  0
VERTEX
  8
0
  5
66B
 10
-4.46012
 20
-0.0954809
 30
0.000000
  70
    32
  0
VERTEX
  8
0
  5
66C
 10
-4.45923
 20
-0.0990993
 30
0.000000
  70
    32
  0
VERTEX
  8
0
  5
66D
 10
-4.45831
 20
-0.102675
 30
0.000000
  70
    32
  0
VERTEX
  8
0
  5
66E
 10
-4.45737
 20
-0.106208
 30
0.000000
  70
    32
  0
VERTEX
  8
0
  5
66F
 10
-4.45641
 20
-0.109698
 30
0.000000
  70
    32
  0
VERTEX
  8
0
  5
670
 10
-4.45542
 20
-0.113147
 30
0.000000
  70
    32
  0
VERTEX
  8
0
  5
671
 10
-4.45441
 20
-0.116554
 30
0.000000
  70
    32
  0
VERTEX
  8
0
  5
672
 10
-4.45338
 20
-0.119919
 30
0.000000
  70
    32
  0
VERTEX
  8
0
  5
673
 10
-4.45233
 20
-0.123243
 30
0.000000
  70
    32
  0
VERTEX
  8
0
  5
674
 10
-4.45126
 20
-0.126526
 30
0.000000
  70
    32
  0
VERTEX
  8
0
  5
675
 10
-4.45016
 20
-0.129769
 30
0.000000
  70
    32
  0
VERTEX
  8
0
  5
676
 10
-4.44905
 20
-0.132971
 30
0.000000
  70
    32
  0
VERTEX
  8
0
  5
677
 10
-4.44791
 20
-0.136133
 30
0.000000
  70
    32
  0
VERTEX
  8
0
  5
678
 10
-4.44676
 20
-0.139255
 30
0.000000
  70
    32
  0
VERTEX
  8
0
  5
679
 10
-4.44558
 20
-0.142338
 30
0.000000
  70
    32
  0
VERTEX
  8
0
  5
67A
 10
-4.44438
 20
-0.145381
 30
0.000000
  70
    32
  0
VERTEX
  8
0
  5
67B
 10
-4.44317
 20
-0.148385
 30
0.000000
  70
    32
  0
VERTEX
  8
0
  5
67C
 10
-4.44193
 20
-0.151351
 30
0.000000
  70
    32
  0
VERTEX
  8
0
  5
67D
 10
-4.44068
 20
-0.154279
 30
0.000000
  70
    32
  0
VERTEX
  8
0
  5
67E
 10
-4.43940
 20
-0.157168
 30
0.000000
  70
    32
  0
VERTEX
  8
0
  5
67F
 10
-4.43811
 20
-0.160019
 30
0.000000
  70
    32
  0
VERTEX
  8
0
  5
680
 10
-4.43680
 20
-0.162833
 30
0.000000
  70
    32
  0
VERTEX
  8
0
  5
681
 10
-4.43547
 20
-0.165609
 30
0.000000
  70
    32
  0
VERTEX
  8
0
  5
682
 10
-4.43412
 20
-0.168349
 30
0.000000
  70
    32
  0
VERTEX
  8
0
  5
683
 10
-4.43276
 20
-0.171052
 30
0.000000
  70
    32
  0
VERTEX
  8
0
  5
684
 10
-4.43138
 20
-0.173718
 30
0.000000
  70
    32
  0
VERTEX
  8
0
  5
685
 10
-4.42998
 20
-0.176348
 30
0.000000
  70
    32
  0
VERTEX
  8
0
  5
686
 10
-4.42856
 20
-0.178942
 30
0.000000
  70
    32
  0
VERTEX
  8
0
  5
687
 10
-4.42713
 20
-0.181501
 30
0.000000
  70
    32
  0
VERTEX
  8
0
  5
688
 10
-4.42569
 20
-0.184024
 30
0.000000
  70
    32
  0
VERTEX
  8
0
  5
689
 10
-4.42422
 20
-0.186512
 30
0.000000
  70
    32
  0
VERTEX
  8
0
  5
68A
 10
-4.42274
 20
-0.188966
 30
0.000000
  70
    32
  0
VERTEX
  8
0
  5
68B
 10
-4.42125
 20
-0.191385
 30
0.000000
  70
    32
  0
VERTEX
  8
0
  5
68C
 10
-4.41974
 20
-0.193770
 30
0.000000
  70
    32
  0
VERTEX
  8
0
  5
68D
 10
-4.41821
 20
-0.196121
 30
0.000000
  70
    32
  0
VERTEX
  8
0
  5
68E
 10
-4.41667
 20
-0.198438
 30
0.000000
  70
    32
  0
VERTEX
  8
0
  5
68F
 10
-4.41512
 20
-0.200722
 30
0.000000
  70
    32
  0
VERTEX
  8
0
  5
690
 10
-4.41355
 20
-0.202972
 30
0.000000
  70
    32
  0
VERTEX
  8
0
  5
691
 10
-4.41197
 20
-0.205190
 30
0.000000
  70
    32
  0
VERTEX
  8
0
  5
692
 10
-4.41038
 20
-0.207376
 30
0.000000
  70
    32
  0
VERTEX
  8
0
  5
693
 10
-4.40877
 20
-0.209529
 30
0.000000
  70
    32
  0
VERTEX
  8
0
  5
694
 10
-4.40715
 20
-0.211650
 30
0.000000
  70
    32
  0
VERTEX
  8
0
  5
695
 10
-4.40551
 20
-0.213740
 30
0.000000
  70
    32
  0
VERTEX
  8
0
  5
696
 10
-4.40386
 20
-0.215798
 30
0.000000
  70
    32
  0
VERTEX
  8
0
  5
697
 10
-4.40221
 20
-0.217825
 30
0.000000
  70
    32
  0
VERTEX
  8
0
  5
698
 10
-4.40053
 20
-0.219821
 30
0.000000
  70
    32
  0
VERTEX
  8
0
  5
699
 10
-4.39885
 20
-0.221787
 30
0.000000
  70
    32
  0
VERTEX
  8
0
  5
69A
 10
-4.39716
 20
-0.223722
 30
0.000000
  70
    32
  0
VERTEX
  8
0
  5
69B
 10
-4.39545
 20
-0.225627
 30
0.000000
  70
    32
  0
VERTEX
  8
0
  5
69C
 10
-4.39374
 20
-0.227503
 30
0.000000
  70
    32
  0
VERTEX
  8
0
  5
69D
 10
-4.39201
 20
-0.229349
 30
0.000000
  70
    32
  0
VERTEX
  8
0
  5
69E
 10
-4.39027
 20
-0.231166
 30
0.000000
  70
    32
  0
VERTEX
  8
0
  5
69F
 10
-4.38852
 20
-0.232954
 30
0.000000
  70
    32
  0
VERTEX
  8
0
  5
6A0
 10
-4.38677
 20
-0.234714
 30
0.000000
  70
    32
  0
VERTEX
  8
0
  5
6A1
 10
-4.38500
 20
-0.236445
 30
0.000000
  70
    32
  0
VERTEX
  8
0
  5
6A2
 10
-4.38322
 20
-0.238148
 30
0.000000
  70
    32
  0
VERTEX
  8
0
  5
6A3
 10
-4.38144
 20
-0.239824
 30
0.000000
  70
    32
  0
VERTEX
  8
0
  5
6A4
 10
-4.37964
 20
-0.241472
 30
0.000000
  70
    32
  0
VERTEX
  8
0
  5
6A5
 10
-4.37784
 20
-0.243092
 30
0.000000
  70
    32
  0
VERTEX
  8
0
  5
6A6
 10
-4.37603
 20
-0.244686
 30
0.000000
  70
    32
  0
VERTEX
  8
0
  5
6A7
 10
-4.37421
 20
-0.246253
 30
0.000000
  70
    32
  0
VERTEX
  8
0
  5
6A8
 10
-4.37239
 20
-0.247794
 30
0.000000
  70
    32
  0
VERTEX
  8
0
  5
6A9
 10
-4.37055
 20
-0.249309
 30
0.000000
  70
    32
  0
VERTEX
  8
0
  5
6AA
 10
-4.36871
 20
-0.250798
 30
0.000000
  70
    32
  0
VERTEX
  8
0
  5
6AB
 10
-4.36686
 20
-0.252261
 30
0.000000
  70
    32
  0
VERTEX
  8
0
  5
6AC
 10
-4.36501
 20
-0.253699
 30
0.000000
  70
    32
  0
VERTEX
  8
0
  5
6AD
 10
-4.36315
 20
-0.255112
 30
0.000000
  70
    32
  0
VERTEX
  8
0
  5
6AE
 10
-4.36128
 20
-0.256501
 30
0.000000
  70
    32
  0
VERTEX
  8
0
  5
6AF
 10
-4.35940
 20
-0.257865
 30
0.000000
  70
    32
  0
VERTEX
  8
0
  5
6B0
 10
-4.35753
 20
-0.259205
 30
0.000000
  70
    32
  0
VERTEX
  8
0
  5
6B1
 10
-4.35564
 20
-0.260521
 30
0.000000
  70
    32
  0
VERTEX
  8
0
  5
6B2
 10
-4.35375
 20
-0.261814
 30
0.000000
  70
    32
  0
VERTEX
  8
0
  5
6B3
 10
-4.35186
 20
-0.263083
 30
0.000000
  70
    32
  0
VERTEX
  8
0
  5
6B4
 10
-4.34996
 20
-0.264330
 30
0.000000
  70
    32
  0
VERTEX
  8
0
  5
6B5
 10
-4.34806
 20
-0.265553
 30
0.000000
  70
    32
  0
VERTEX
  8
0
  5
6B6
 10
-4.34615
 20
-0.266754
 30
0.000000
  70
    32
  0
VERTEX
  8
0
  5
6B7
 10
-4.34424
 20
-0.267934
 30
0.000000
  70
    32
  0
VERTEX
  8
0
  5
6B8
 10
-4.34232
 20
-0.269091
 30
0.000000
  70
    32
  0
VERTEX
  8
0
  5
6B9
 10
-4.34041
 20
-0.270226
 30
0.000000
  70
    32
  0
VERTEX
  8
0
  5
6BA
 10
-4.33849
 20
-0.271341
 30
0.000000
  70
    32
  0
VERTEX
  8
0
  5
6BB
 10
-4.33656
 20
-0.272434
 30
0.000000
  70
    32
  0
SEQEND
  8
0
  5
6BC
  0
POLYLINE
  8
0
  5
6BD
  66
     1
 10
0.000000
 20
0.000000
 30
0.000000
  70
     8
  0
VERTEX
  8
0
  5
6BE
 10
-2.51510
 20
-0.319284
 30
0.000000
  70
    32
  0
VERTEX
  8
0
  5
6BF
 10
-2.51510
 20
-0.320326
 30
0.000000
  70
    32
  0
VERTEX
  8
0
  5
6C0
 10
-2.51510
 20
-0.321222
 30
0.000000
  70
    32
  0
VERTEX
  8
0
  5
6C1
 10
-2.51510
 20
-0.321968
 30
0.000000
  70
    32
  0
VERTEX
  8
0
  5
6C2
 10
-2.51510
 20
-0.322563
 30
0.000000
  70
    32
  0
VERTEX
  8
0
  5
6C3
 10
-2.51510
 20
-0.323005
 30
0.000000
  70
    32
  0
VERTEX
  8
0
  5
6C4
 10
-2.51510
 20
-0.323291
 30
0.000000
  70
    32
  0
VERTEX
  8
0
  5
6C5
 10
-2.51510
 20
-0.323421
 30
0.000000
  70
    32
  0
VERTEX
  8
0
  5
6C6
 10
-2.51510
 20
-0.323702
 30
0.000000
  70
    32
  0
VERTEX
  8
0
  5
6C7
 10
-2.51511
 20
-0.324099
 30
0.000000
  70
    32
  0
VERTEX
  8
0
  5
6C8
 10
-2.51511
 20
-0.324495
 30
0.000000
  70
    32
  0
VERTEX
  8
0
  5
6C9
 10
-2.51513
 20
-0.324890
 30
0.000000
  70
    32
  0
VERTEX
  8
0
  5
6CA
 10
-2.51514
 20
-0.325284
 30
0.000000
  70
    32
  0
VERTEX
  8
0
  5
6CB
 10
-2.51516
 20
-0.325677
 30
0.000000
  70
    32
  0
VERTEX
  8
0
  5
6CC
 10
-2.51519
 20
-0.326069
 30
0.000000
  70
    32
  0
VERTEX
  8
0
  5
6CD
 10
-2.51521
 20
-0.326459
 30
0.000000
  70
    32
  0
VERTEX
  8
0
  5
6CE
 10
-2.51525
 20
-0.326849
 30
0.000000
  70
    32
  0
VERTEX
  8
0
  5
6CF
 10
-2.51528
 20
-0.327237
 30
0.000000
  70
    32
  0
VERTEX
  8
0
  5
6D0
 10
-2.51532
 20
-0.327625
 30
0.000000
  70
    32
  0
VERTEX
  8
0
  5
6D1
 10
-2.51537
 20
-0.328011
 30
0.000000
  70
    32
  0
VERTEX
  8
0
  5
6D2
 10
-2.51542
 20
-0.328396
 30
0.000000
  70
    32
  0
VERTEX
  8
0
  5
6D3
 10
-2.51547
 20
-0.328779
 30
0.000000
  70
    32
  0
VERTEX
  8
0
  5
6D4
 10
-2.51553
 20
-0.329162
 30
0.000000
  70
    32
  0
VERTEX
  8
0
  5
6D5
 10
-2.51559
 20
-0.329543
 30
0.000000
  70
    32
  0
VERTEX
  8
0
  5
6D6
 10
-2.51565
 20
-0.329923
 30
0.000000
  70
    32
  0
VERTEX
  8
0
  5
6D7
 10
-2.51572
 20
-0.330302
 30
0.000000
  70
    32
  0
VERTEX
  8
0
  5
6D8
 10
-2.51579
 20
-0.330679
 30
0.000000
  70
    32
  0
VERTEX
  8
0
  5
6D9
 10
-2.51587
 20
-0.331055
 30
0.000000
  70
    32
  0
VERTEX
  8
0
  5
6DA
 10
-2.51595
 20
-0.331430
 30
0.000000
  70
    32
  0
VERTEX
  8
0
  5
6DB
 10
-2.51604
 20
-0.331803
 30
0.000000
  70
    32
  0
VERTEX
  8
0
  5
6DC
 10
-2.51612
 20
-0.332175
 30
0.000000
  70
    32
  0
VERTEX
  8
0
  5
6DD
 10
-2.51622
 20
-0.332545
 30
0.000000
  70
    32
  0
VERTEX
  8
0
  5
6DE
 10
-2.51631
 20
-0.332914
 30
0.000000
  70
    32
  0
VERTEX
  8
0
  5
6DF
 10
-2.51641
 20
-0.333282
 30
0.000000
  70
    32
  0
VERTEX
  8
0
  5
6E0
 10
-2.51651
 20
-0.333648
 30
0.000000
  70
    32
  0
VERTEX
  8
0
  5
6E1
 10
-2.51662
 20
-0.334012
 30
0.000000
  70
    32
  0
VERTEX
  8
0
  5
6E2
 10
-2.51673
 20
-0.334375
 30
0.000000
  70
    32
  0
VERTEX
  8
0
  5
6E3
 10
-2.51685
 20
-0.334737
 30
0.000000
  70
    32
  0
VERTEX
  8
0
  5
6E4
 10
-2.51696
 20
-0.335097
 30
0.000000
  70
    32
  0
VERTEX
  8
0
  5
6E5
 10
-2.51708
 20
-0.335455
 30
0.000000
  70
    32
  0
VERTEX
  8
0
  5
6E6
 10
-2.51721
 20
-0.335812
 30
0.000000
  70
    32
  0
VERTEX
  8
0
  5
6E7
 10
-2.51734
 20
-0.336167
 30
0.000000
  70
    32
  0
VERTEX
  8
0
  5
6E8
 10
-2.51747
 20
-0.336520
 30
0.000000
  70
    32
  0
VERTEX
  8
0
  5
6E9
 10
-2.51761
 20
-0.336872
 30
0.000000
  70
    32
  0
VERTEX
  8
0
  5
6EA
 10
-2.51775
 20
-0.337222
 30
0.000000
  70
    32
  0
VERTEX
  8
0
  5
6EB
 10
-2.51789
 20
-0.337570
 30
0.000000
  70
    32
  0
VERTEX
  8
0
  5
6EC
 10
-2.51804
 20
-0.337917
 30
0.000000
  70
    32
  0
VERTEX
  8
0
  5
6ED
 10
-2.51819
 20
-0.338262
 30
0.000000
  70
    32
  0
VERTEX
  8
0
  5
6EE
 10
-2.51834
 20
-0.338605
 30
0.000000
  70
    32
  0
VERTEX
  8
0
  5
6EF
 10
-2.51850
 20
-0.338946
 30
0.000000
  70
    32
  0
VERTEX
  8
0
  5
6F0
 10
-2.51866
 20
-0.339286
 30
0.000000
  70
    32
  0
VERTEX
  8
0
  5
6F1
 10
-2.51882
 20
-0.339623
 30
0.000000
  70
    32
  0
VERTEX
  8
0
  5
6F2
 10
-2.51899
 20
-0.339959
 30
0.000000
  70
    32
  0
VERTEX
  8
0
  5
6F3
 10
-2.51916
 20
-0.340293
 30
0.000000
  70
    32
  0
VERTEX
  8
0
  5
6F4
 10
-2.51933
 20
-0.340625
 30
0.000000
  70
    32
  0
VERTEX
  8
0
  5
6F5
 10
-2.51951
 20
-0.340955
 30
0.000000
  70
    32
  0
VERTEX
  8
0
  5
6F6
 10
-2.51969
 20
-0.341284
 30
0.000000
  70
    32
  0
VERTEX
  8
0
  5
6F7
 10
-2.51987
 20
-0.341610
 30
0.000000
  70
    32
  0
VERTEX
  8
0
  5
6F8
 10
-2.52006
 20
-0.341934
 30
0.000000
  70
    32
  0
VERTEX
  8
0
  5
6F9
 10
-2.52025
 20
-0.342257
 30
0.000000
  70
    32
  0
VERTEX
  8
0
  5
6FA
 10
-2.52044
 20
-0.342577
 30
0.000000
  70
    32
  0
VERTEX
  8
0
  5
6FB
 10
-2.52064
 20
-0.342895
 30
0.000000
  70
    32
  0
VERTEX
  8
0
  5
6FC
 10
-2.52084
 20
-0.343211
 30
0.000000
  70
    32
  0
VERTEX
  8
0
  5
6FD
 10
-2.52104
 20
-0.343525
 30
0.000000
  70
    32
  0
VERTEX
  8
0
  5
6FE
 10
-2.52125
 20
-0.343838
 30
0.000000
  70
    32
  0
VERTEX
  8
0
  5
6FF
 10
-2.52146
 20
-0.344147
 30
0.000000
  70
    32
  0
VERTEX
  8
0
  5
700
 10
-2.52167
 20
-0.344455
 30
0.000000
  70
    32
  0
VERTEX
  8
0
  5
701
 10
-2.52188
 20
-0.344761
 30
0.000000
  70
    32
  0
VERTEX
  8
0
  5
702
 10
-2.52210
 20
-0.345064
 30
0.000000
  70
    32
  0
VERTEX
  8
0
  5
703
 10
-2.52232
 20
-0.345366
 30
0.000000
  70
    32
  0
VERTEX
  8
0
  5
704
 10
-2.52255
 20
-0.345665
 30
0.000000
  70
    32
  0
VERTEX
  8
0
  5
705
 10
-2.52277
 20
-0.345962
 30
0.000000
  70
    32
  0
VERTEX
  8
0
  5
706
 10
-2.52300
 20
-0.346256
 30
0.000000
  70
    32
  0
VERTEX
  8
0
  5
707
 10
-2.52324
 20
-0.346548
 30
0.000000
  70
    32
  0
VERTEX
  8
0
  5
708
 10
-2.52347
 20
-0.346838
 30
0.000000
  70
    32
  0
VERTEX
  8
0
  5
709
 10
-2.52371
 20
-0.347126
 30
0.000000
  70
    32
  0
VERTEX
  8
0
  5
70A
 10
-2.52395
 20
-0.347411
 30
0.000000
  70
    32
  0
VERTEX
  8
0
  5
70B
 10
-2.52420
 20
-0.347694
 30
0.000000
  70
    32
  0
VERTEX
  8
0
  5
70C
 10
-2.52445
 20
-0.347975
 30
0.000000
  70
    32
  0
VERTEX
  8
0
  5
70D
 10
-2.52470
 20
-0.348253
 30
0.000000
  70
    32
  0
VERTEX
  8
0
  5
70E
 10
-2.52495
 20
-0.348529
 30
0.000000
  70
    32
  0
VERTEX
  8
0
  5
70F
 10
-2.52520
 20
-0.348802
 30
0.000000
  70
    32
  0
VERTEX
  8
0
  5
710
 10
-2.52546
 20
-0.349073
 30
0.000000
  70
    32
  0
VERTEX
  8
0
  5
711
 10
-2.52572
 20
-0.349342
 30
0.000000
  70
    32
  0
VERTEX
  8
0
  5
712
 10
-2.52599
 20
-0.349607
 30
0.000000
  70
    32
  0
VERTEX
  8
0
  5
713
 10
-2.52626
 20
-0.349871
 30
0.000000
  70
    32
  0
VERTEX
  8
0
  5
714
 10
-2.52652
 20
-0.350132
 30
0.000000
  70
    32
  0
VERTEX
  8
0
  5
715
 10
-2.52680
 20
-0.350390
 30
0.000000
  70
    32
  0
VERTEX
  8
0
  5
716
 10
-2.52707
 20
-0.350646
 30
0.000000
  70
    32
  0
VERTEX
  8
0
  5
717
 10
-2.52735
 20
-0.350899
 30
0.000000
  70
    32
  0
VERTEX
  8
0
  5
718
 10
-2.52763
 20
-0.351149
 30
0.000000
  70
    32
  0
VERTEX
  8
0
  5
719
 10
-2.52791
 20
-0.351397
 30
0.000000
  70
    32
  0
VERTEX
  8
0
  5
71A
 10
-2.52819
 20
-0.351642
 30
0.000000
  70
    32
  0
VERTEX
  8
0
  5
71B
 10
-2.52848
 20
-0.351885
 30
0.000000
  70
    32
  0
VERTEX
  8
0
  5
71C
 10
-2.52877
 20
-0.352124
 30
0.000000
  70
    32
  0
VERTEX
  8
0
  5
71D
 10
-2.52906
 20
-0.352361
 30
0.000000
  70
    32
  0
VERTEX
  8
0
  5
71E
 10
-2.52936
 20
-0.352596
 30
0.000000
  70
    32
  0
VERTEX
  8
0
  5
71F
 10
-2.52966
 20
-0.352827
 30
0.000000
  70
    32
  0
VERTEX
  8
0
  5
720
 10
-2.52996
 20
-0.353056
 30
0.000000
  70
    32
  0
VERTEX
  8
0
  5
721
 10
-2.53026
 20
-0.353282
 30
0.000000
  70
    32
  0
VERTEX
  8
0
  5
722
 10
-2.53056
 20
-0.353505
 30
0.000000
  70
    32
  0
VERTEX
  8
0
  5
723
 10
-2.53087
 20
-0.353725
 30
0.000000
  70
    32
  0
VERTEX
  8
0
  5
724
 10
-2.53118
 20
-0.353943
 30
0.000000
  70
    32
  0
VERTEX
  8
0
  5
725
 10
-2.53149
 20
-0.354157
 30
0.000000
  70
    32
  0
VERTEX
  8
0
  5
726
 10
-2.53180
 20
-0.354369
 30
0.000000
  70
    32
  0
VERTEX
  8
0
  5
727
 10
-2.53212
 20
-0.354577
 30
0.000000
  70
    32
  0
VERTEX
  8
0
  5
728
 10
-2.53244
 20
-0.354783
 30
0.000000
  70
    32
  0
VERTEX
  8
0
  5
729
 10
-2.53276
 20
-0.354986
 30
0.000000
  70
    32
  0
VERTEX
  8
0
  5
72A
 10
-2.53308
 20
-0.355186
 30
0.000000
  70
    32
  0
VERTEX
  8
0
  5
72B
 10
-2.53341
 20
-0.355382
 30
0.000000
  70
    32
  0
VERTEX
  8
0
  5
72C
 10
-2.53373
 20
-0.355576
 30
0.000000
  70
    32
  0
VERTEX
  8
0
  5
72D
 10
-2.53406
 20
-0.355767
 30
0.000000
  70
    32
  0
VERTEX
  8
0
  5
72E
 10
-2.53439
 20
-0.355954
 30
0.000000
  70
    32
  0
VERTEX
  8
0
  5
72F
 10
-2.53473
 20
-0.356139
 30
0.000000
  70
    32
  0
VERTEX
  8
0
  5
730
 10
-2.53506
 20
-0.356320
 30
0.000000
  70
    32
  0
VERTEX
  8
0
  5
731
 10
-2.53540
 20
-0.356499
 30
0.000000
  70
    32
  0
VERTEX
  8
0
  5
732
 10
-2.53574
 20
-0.356674
 30
0.000000
  70
    32
  0
VERTEX
  8
0
  5
733
 10
-2.53608
 20
-0.356846
 30
0.000000
  70
    32
  0
VERTEX
  8
0
  5
734
 10
-2.53642
 20
-0.357014
 30
0.000000
  70
    32
  0
VERTEX
  8
0
  5
735
 10
-2.53677
 20
-0.357180
 30
0.000000
  70
    32
  0
VERTEX
  8
0
  5
736
 10
-2.53712
 20
-0.357342
 30
0.000000
  70
    32
  0
VERTEX
  8
0
  5
737
 10
-2.53747
 20
-0.357501
 30
0.000000
  70
    32
  0
VERTEX
  8
0
  5
738
 10
-2.53782
 20
-0.357657
 30
0.000000
  70
    32
  0
VERTEX
  8
0
  5
739
 10
-2.53817
 20
-0.357810
 30
0.000000
  70
    32
  0
VERTEX
  8
0
  5
73A
 10
-2.53853
 20
-0.357959
 30
0.000000
  70
    32
  0
VERTEX
  8
0
  5
73B
 10
-2.53888
 20
-0.358105
 30
0.000000
  70
    32
  0
VERTEX
  8
0
  5
73C
 10
-2.53924
 20
-0.358247
 30
0.000000
  70
    32
  0
VERTEX
  8
0
  5
73D
 10
-2.53960
 20
-0.358386
 30
0.000000
  70
    32
  0
VERTEX
  8
0
  5
73E
 10
-2.53996
 20
-0.358522
 30
0.000000
  70
    32
  0
VERTEX
  8
0
  5
73F
 10
-2.54033
 20
-0.358654
 30
0.000000
  70
    32
  0
VERTEX
  8
0
  5
740
 10
-2.54069
 20
-0.358783
 30
0.000000
  70
    32
  0
VERTEX
  8
0
  5
741
 10
-2.54106
 20
-0.358908
 30
0.000000
  70
    32
  0
VERTEX
  8
0
  5
742
 10
-2.54143
 20
-0.359030
 30
0.000000
  70
    32
  0
VERTEX
  8
0
  5
743
 10
-2.54180
 20
-0.359149
 30
0.000000
  70
    32
  0
VERTEX
  8
0
  5
744
 10
-2.54217
 20
-0.359264
 30
0.000000
  70
    32
  0
VERTEX
  8
0
  5
745
 10
-2.54255
 20
-0.359375
 30
0.000000
  70
    32
  0
VERTEX
  8
0
  5
746
 10
-2.54292
 20
-0.359483
 30
0.000000
  70
    32
  0
VERTEX
  8
0
  5
747
 10
-2.54330
 20
-0.359587
 30
0.000000
  70
    32
  0
VERTEX
  8
0
  5
748
 10
-2.54368
 20
-0.359687
 30
0.000000
  70
    32
  0
VERTEX
  8
0
  5
749
 10
-2.54406
 20
-0.359784
 30
0.000000
  70
    32
  0
VERTEX
  8
0
  5
74A
 10
-2.54444
 20
-0.359878
 30
0.000000
  70
    32
  0
VERTEX
  8
0
  5
74B
 10
-2.54483
 20
-0.359968
 30
0.000000
  70
    32
  0
VERTEX
  8
0
  5
74C
 10
-2.54521
 20
-0.360054
 30
0.000000
  70
    32
  0
VERTEX
  8
0
  5
74D
 10
-2.54560
 20
-0.360136
 30
0.000000
  70
    32
  0
VERTEX
  8
0
  5
74E
 10
-2.54599
 20
-0.360214
 30
0.000000
  70
    32
  0
VERTEX
  8
0
  5
74F
 10
-2.54638
 20
-0.360289
 30
0.000000
  70
    32
  0
VERTEX
  8
0
  5
750
 10
-2.54677
 20
-0.360360
 30
0.000000
  70
    32
  0
VERTEX
  8
0
  5
751
 10
-2.54716
 20
-0.360428
 30
0.000000
  70
    32
  0
VERTEX
  8
0
  5
752
 10
-2.54755
 20
-0.360491
 30
0.000000
  70
    32
  0
VERTEX
  8
0
  5
753
 10
-2.54795
 20
-0.360551
 30
0.000000
  70
    32
  0
VERTEX
  8
0
  5
754
 10
-2.54835
 20
-0.360607
 30
0.000000
  70
    32
  0
VERTEX
  8
0
  5
755
 10
-2.54874
 20
-0.360659
 30
0.000000
  70
    32
  0
VERTEX
  8
0
  5
756
 10
-2.54914
 20
-0.360707
 30
0.000000
  70
    32
  0
VERTEX
  8
0
  5
757
 10
-2.54954
 20
-0.360751
 30
0.000000
  70
    32
  0
VERTEX
  8
0
  5
758
 10
-2.54994
 20
-0.360791
 30
0.000000
  70
    32
  0
VERTEX
  8
0
  5
759
 10
-2.55035
 20
-0.360827
 30
0.000000
  70
    32
  0
VERTEX
  8
0
  5
75A
 10
-2.55075
 20
-0.360860
 30
0.000000
  70
    32
  0
VERTEX
  8
0
  5
75B
 10
-2.55116
 20
-0.360888
 30
0.000000
  70
    32
  0
VERTEX
  8
0
  5
75C
 10
-2.55156
 20
-0.360912
 30
0.000000
  70
    32
  0
VERTEX
  8
0
  5
75D
 10
-2.55197
 20
-0.360933
 30
0.000000
  70
    32
  0
VERTEX
  8
0
  5
75E
 10
-2.55238
 20
-0.360949
 30
0.000000
  70
    32
  0
VERTEX
  8
0
  5
75F
 10
-2.55279
 20
-0.360961
 30
0.000000
  70
    32
  0
VERTEX
  8
0
  5
760
 10
-2.55320
 20
-0.360969
 30
0.000000
  70
    32
  0
VERTEX
  8
0
  5
761
 10
-2.55361
 20
-0.360973
 30
0.000000
  70
    32
  0
VERTEX
  8
0
  5
762
 10
-2.55391
 20
-0.360972
 30
0.000000
  70
    32
  0
VERTEX
  8
0
  5
763
 10
-2.55420
 20
-0.360969
 30
0.000000
  70
    32
  0
VERTEX
  8
0
  5
764
 10
-2.55448
 20
-0.360964
 30
0.000000
  70
    32
  0
VERTEX
  8
0
  5
765
 10
-2.55476
 20
-0.360957
 30
0.000000
  70
    32
  0
VERTEX
  8
0
  5
766
 10
-2.55504
 20
-0.360948
 30
0.000000
  70
    32
  0
VERTEX
  8
0
  5
767
 10
-2.55532
 20
-0.360937
 30
0.000000
  70
    32
  0
VERTEX
  8
0
  5
768
 10
-2.55560
 20
-0.360924
 30
0.000000
  70
    32
  0
VERTEX
  8
0
  5
769
 10
-2.55587
 20
-0.360909
 30
0.000000
  70
    32
  0
VERTEX
  8
0
  5
76A
 10
-2.55615
 20
-0.360892
 30
0.000000
  70
    32
  0
VERTEX
  8
0
  5
76B
 10
-2.55643
 20
-0.360874
 30
0.000000
  70
    32
  0
VERTEX
  8
0
  5
76C
 10
-2.55671
 20
-0.360853
 30
0.000000
  70
    32
  0
VERTEX
  8
0
  5
76D
 10
-2.55698
 20
-0.360831
 30
0.000000
  70
    32
  0
VERTEX
  8
0
  5
76E
 10
-2.55726
 20
-0.360806
 30
0.000000
  70
    32
  0
VERTEX
  8
0
  5
76F
 10
-2.55753
 20
-0.360780
 30
0.000000
  70
    32
  0
VERTEX
  8
0
  5
770
 10
-2.55781
 20
-0.360752
 30
0.000000
  70
    32
  0
VERTEX
  8
0
  5
771
 10
-2.55808
 20
-0.360722
 30
0.000000
  70
    32
  0
VERTEX
  8
0
  5
772
 10
-2.55836
 20
-0.360690
 30
0.000000
  70
    32
  0
VERTEX
  8
0
  5
773
 10
-2.55863
 20
-0.360656
 30
0.000000
  70
    32
  0
VERTEX
  8
0
  5
774
 10
-2.55890
 20
-0.360621
 30
0.000000
  70
    32
  0
VERTEX
  8
0
  5
775
 10
-2.55917
 20
-0.360583
 30
0.000000
  70
    32
  0
VERTEX
  8
0
  5
776
 10
-2.55945
 20
-0.360544
 30
0.000000
  70
    32
  0
VERTEX
  8
0
  5
777
 10
-2.55972
 20
-0.360503
 30
0.000000
  70
    32
  0
VERTEX
  8
0
  5
778
 10
-2.55999
 20
-0.360460
 30
0.000000
  70
    32
  0
VERTEX
  8
0
  5
779
 10
-2.56026
 20
-0.360415
 30
0.000000
  70
    32
  0
VERTEX
  8
0
  5
77A
 10
-2.56052
 20
-0.360369
 30
0.000000
  70
    32
  0
VERTEX
  8
0
  5
77B
 10
-2.56079
 20
-0.360321
 30
0.000000
  70
    32
  0
VERTEX
  8
0
  5
77C
 10
-2.56106
 20
-0.360271
 30
0.000000
  70
    32
  0
VERTEX
  8
0
  5
77D
 10
-2.56133
 20
-0.360219
 30
0.000000
  70
    32
  0
VERTEX
  8
0
  5
77E
 10
-2.56159
 20
-0.360165
 30
0.000000
  70
    32
  0
VERTEX
  8
0
  5
77F
 10
-2.56186
 20
-0.360110
 30
0.000000
  70
    32
  0
VERTEX
  8
0
  5
780
 10
-2.56212
 20
-0.360052
 30
0.000000
  70
    32
  0
VERTEX
  8
0
  5
781
 10
-2.56239
 20
-0.359993
 30
0.000000
  70
    32
  0
VERTEX
  8
0
  5
782
 10
-2.56265
 20
-0.359933
 30
0.000000
  70
    32
  0
VERTEX
  8
0
  5
783
 10
-2.56291
 20
-0.359870
 30
0.000000
  70
    32
  0
VERTEX
  8
0
  5
784
 10
-2.56318
 20
-0.359806
 30
0.000000
  70
    32
  0
VERTEX
  8
0
  5
785
 10
-2.56344
 20
-0.359740
 30
0.000000
  70
    32
  0
VERTEX
  8
0
  5
786
 10
-2.56370
 20
-0.359672
 30
0.000000
  70
    32
  0
VERTEX
  8
0
  5
787
 10
-2.56396
 20
-0.359603
 30
0.000000
  70
    32
  0
VERTEX
  8
0
  5
788
 10
-2.56422
 20
-0.359532
 30
0.000000
  70
    32
  0
VERTEX
  8
0
  5
789
 10
-2.56447
 20
-0.359459
 30
0.000000
  70
    32
  0
VERTEX
  8
0
  5
78A
 10
-2.56473
 20
-0.359384
 30
0.000000
  70
    32
  0
VERTEX
  8
0
  5
78B
 10
-2.56499
 20
-0.359308
 30
0.000000
  70
    32
  0
VERTEX
  8
0
  5
78C
 10
-2.56524
 20
-0.359230
 30
0.000000
  70
    32
  0
VERTEX
  8
0
  5
78D
 10
-2.56550
 20
-0.359151
 30
0.000000
  70
    32
  0
VERTEX
  8
0
  5
78E
 10
-2.56575
 20
-0.359070
 30
0.000000
  70
    32
  0
VERTEX
  8
0
  5
78F
 10
-2.56601
 20
-0.358987
 30
0.000000
  70
    32
  0
VERTEX
  8
0
  5
790
 10
-2.56626
 20
-0.358902
 30
0.000000
  70
    32
  0
VERTEX
  8
0
  5
791
 10
-2.56651
 20
-0.358816
 30
0.000000
  70
    32
  0
VERTEX
  8
0
  5
792
 10
-2.56676
 20
-0.358728
 30
0.000000
  70
    32
  0
VERTEX
  8
0
  5
793
 10
-2.56701
 20
-0.358638
 30
0.000000
  70
    32
  0
VERTEX
  8
0
  5
794
 10
-2.56726
 20
-0.358547
 30
0.000000
  70
    32
  0
VERTEX
  8
0
  5
795
 10
-2.56751
 20
-0.358454
 30
0.000000
  70
    32
  0
VERTEX
  8
0
  5
796
 10
-2.56776
 20
-0.358360
 30
0.000000
  70
    32
  0
VERTEX
  8
0
  5
797
 10
-2.56801
 20
-0.358264
 30
0.000000
  70
    32
  0
VERTEX
  8
0
  5
798
 10
-2.56826
 20
-0.358166
 30
0.000000
  70
    32
  0
VERTEX
  8
0
  5
799
 10
-2.56850
 20
-0.358067
 30
0.000000
  70
    32
  0
VERTEX
  8
0
  5
79A
 10
-2.56875
 20
-0.357966
 30
0.000000
  70
    32
  0
VERTEX
  8
0
  5
79B
 10
-2.56899
 20
-0.357864
 30
0.000000
  70
    32
  0
VERTEX
  8
0
  5
79C
 10
-2.56923
 20
-0.357760
 30
0.000000
  70
    32
  0
VERTEX
  8
0
  5
79D
 10
-2.56947
 20
-0.357655
 30
0.000000
  70
    32
  0
VERTEX
  8
0
  5
79E
 10
-2.56971
 20
-0.357548
 30
0.000000
  70
    32
  0
VERTEX
  8
0
  5
79F
 10
-2.56995
 20
-0.357439
 30
0.000000
  70
    32
  0
VERTEX
  8
0
  5
7A0
 10
-2.57019
 20
-0.357329
 30
0.000000
  70
    32
  0
VERTEX
  8
0
  5
7A1
 10
-2.57043
 20
-0.357217
 30
0.000000
  70
    32
  0
VERTEX
  8
0
  5
7A2
 10
-2.57067
 20
-0.357104
 30
0.000000
  70
    32
  0
VERTEX
  8
0
  5
7A3
 10
-2.57091
 20
-0.356989
 30
0.000000
  70
    32
  0
VERTEX
  8
0
  5
7A4
 10
-2.57114
 20
-0.356872
 30
0.000000
  70
    32
  0
VERTEX
  8
0
  5
7A5
 10
-2.57138
 20
-0.356755
 30
0.000000
  70
    32
  0
VERTEX
  8
0
  5
7A6
 10
-2.57161
 20
-0.356635
 30
0.000000
  70
    32
  0
VERTEX
  8
0
  5
7A7
 10
-2.57184
 20
-0.356514
 30
0.000000
  70
    32
  0
VERTEX
  8
0
  5
7A8
 10
-2.57207
 20
-0.356392
 30
0.000000
  70
    32
  0
VERTEX
  8
0
  5
7A9
 10
-2.57231
 20
-0.356268
 30
0.000000
  70
    32
  0
VERTEX
  8
0
  5
7AA
 10
-2.57254
 20
-0.356143
 30
0.000000
  70
    32
  0
VERTEX
  8
0
  5
7AB
 10
-2.57276
 20
-0.356016
 30
0.000000
  70
    32
  0
VERTEX
  8
0
  5
7AC
 10
-2.57299
 20
-0.355888
 30
0.000000
  70
    32
  0
VERTEX
  8
0
  5
7AD
 10
-2.57322
 20
-0.355758
 30
0.000000
  70
    32
  0
VERTEX
  8
0
  5
7AE
 10
-2.57344
 20
-0.355627
 30
0.000000
  70
    32
  0
VERTEX
  8
0
  5
7AF
 10
-2.57367
 20
-0.355494
 30
0.000000
  70
    32
  0
VERTEX
  8
0
  5
7B0
 10
-2.57389
 20
-0.355360
 30
0.000000
  70
    32
  0
VERTEX
  8
0
  5
7B1
 10
-2.57412
 20
-0.355224
 30
0.000000
  70
    32
  0
VERTEX
  8
0
  5
7B2
 10
-2.57434
 20
-0.355087
 30
0.000000
  70
    32
  0
VERTEX
  8
0
  5
7B3
 10
-2.57456
 20
-0.354949
 30
0.000000
  70
    32
  0
VERTEX
  8
0
  5
7B4
 10
-2.57478
 20
-0.354809
 30
0.000000
  70
    32
  0
VERTEX
  8
0
  5
7B5
 10
-2.57500
 20
-0.354668
 30
0.000000
  70
    32
  0
VERTEX
  8
0
  5
7B6
 10
-2.57521
 20
-0.354525
 30
0.000000
  70
    32
  0
VERTEX
  8
0
  5
7B7
 10
-2.57543
 20
-0.354381
 30
0.000000
  70
    32
  0
VERTEX
  8
0
  5
7B8
 10
-2.57565
 20
-0.354236
 30
0.000000
  70
    32
  0
VERTEX
  8
0
  5
7B9
 10
-2.57586
 20
-0.354089
 30
0.000000
  70
    32
  0
VERTEX
  8
0
  5
7BA
 10
-2.57607
 20
-0.353941
 30
0.000000
  70
    32
  0
VERTEX
  8
0
  5
7BB
 10
-2.57629
 20
-0.353791
 30
0.000000
  70
    32
  0
VERTEX
  8
0
  5
7BC
 10
-2.57650
 20
-0.353641
 30
0.000000
  70
    32
  0
VERTEX
  8
0
  5
7BD
 10
-2.57671
 20
-0.353488
 30
0.000000
  70
    32
  0
VERTEX
  8
0
  5
7BE
 10
-2.57692
 20
-0.353335
 30
0.000000
  70
    32
  0
VERTEX
  8
0
  5
7BF
 10
-2.57712
 20
-0.353180
 30
0.000000
  70
    32
  0
VERTEX
  8
0
  5
7C0
 10
-2.57733
 20
-0.353024
 30
0.000000
  70
    32
  0
VERTEX
  8
0
  5
7C1
 10
-2.57753
 20
-0.352866
 30
0.000000
  70
    32
  0
VERTEX
  8
0
  5
7C2
 10
-2.57774
 20
-0.352707
 30
0.000000
  70
    32
  0
VERTEX
  8
0
  5
7C3
 10
-2.57794
 20
-0.352547
 30
0.000000
  70
    32
  0
VERTEX
  8
0
  5
7C4
 10
-2.57814
 20
-0.352385
 30
0.000000
  70
    32
  0
VERTEX
  8
0
  5
7C5
 10
-2.57834
 20
-0.352222
 30
0.000000
  70
    32
  0
VERTEX
  8
0
  5
7C6
 10
-2.57854
 20
-0.352058
 30
0.000000
  70
    32
  0
VERTEX
  8
0
  5
7C7
 10
-2.57874
 20
-0.351893
 30
0.000000
  70
    32
  0
VERTEX
  8
0
  5
7C8
 10
-2.57894
 20
-0.351726
 30
0.000000
  70
    32
  0
VERTEX
  8
0
  5
7C9
 10
-2.57914
 20
-0.351558
 30
0.000000
  70
    32
  0
VERTEX
  8
0
  5
7CA
 10
-2.57933
 20
-0.351389
 30
0.000000
  70
    32
  0
VERTEX
  8
0
  5
7CB
 10
-2.57952
 20
-0.351218
 30
0.000000
  70
    32
  0
VERTEX
  8
0
  5
7CC
 10
-2.57972
 20
-0.351047
 30
0.000000
  70
    32
  0
VERTEX
  8
0
  5
7CD
 10
-2.57991
 20
-0.350874
 30
0.000000
  70
    32
  0
VERTEX
  8
0
  5
7CE
 10
-2.58010
 20
-0.350699
 30
0.000000
  70
    32
  0
VERTEX
  8
0
  5
7CF
 10
-2.58029
 20
-0.350524
 30
0.000000
  70
    32
  0
VERTEX
  8
0
  5
7D0
 10
-2.58047
 20
-0.350347
 30
0.000000
  70
    32
  0
VERTEX
  8
0
  5
7D1
 10
-2.58066
 20
-0.350169
 30
0.000000
  70
    32
  0
VERTEX
  8
0
  5
7D2
 10
-2.58084
 20
-0.349990
 30
0.000000
  70
    32
  0
VERTEX
  8
0
  5
7D3
 10
-2.58103
 20
-0.349810
 30
0.000000
  70
    32
  0
VERTEX
  8
0
  5
7D4
 10
-2.58121
 20
-0.349628
 30
0.000000
  70
    32
  0
VERTEX
  8
0
  5
7D5
 10
-2.58139
 20
-0.349446
 30
0.000000
  70
    32
  0
VERTEX
  8
0
  5
7D6
 10
-2.58157
 20
-0.349262
 30
0.000000
  70
    32
  0
VERTEX
  8
0
  5
7D7
 10
-2.58175
 20
-0.349077
 30
0.000000
  70
    32
  0
VERTEX
  8
0
  5
7D8
 10
-2.58193
 20
-0.348890
 30
0.000000
  70
    32
  0
VERTEX
  8
0
  5
7D9
 10
-2.58210
 20
-0.348703
 30
0.000000
  70
    32
  0
VERTEX
  8
0
  5
7DA
 10
-2.58228
 20
-0.348514
 30
0.000000
  70
    32
  0
VERTEX
  8
0
  5
7DB
 10
-2.58245
 20
-0.348325
 30
0.000000
  70
    32
  0
VERTEX
  8
0
  5
7DC
 10
-2.58262
 20
-0.348134
 30
0.000000
  70
    32
  0
VERTEX
  8
0
  5
7DD
 10
-2.58279
 20
-0.347942
 30
0.000000
  70
    32
  0
VERTEX
  8
0
  5
7DE
 10
-2.58296
 20
-0.347748
 30
0.000000
  70
    32
  0
VERTEX
  8
0
  5
7DF
 10
-2.58313
 20
-0.347554
 30
0.000000
  70
    32
  0
VERTEX
  8
0
  5
7E0
 10
-2.58329
 20
-0.347359
 30
0.000000
  70
    32
  0
VERTEX
  8
0
  5
7E1
 10
-2.58346
 20
-0.347162
 30
0.000000
  70
    32
  0
VERTEX
  8
0
  5
7E2
 10
-2.58362
 20
-0.346965
 30
0.000000
  70
    32
  0
VERTEX
  8
0
  5
7E3
 10
-2.58379
 20
-0.346766
 30
0.000000
  70
    32
  0
VERTEX
  8
0
  5
7E4
 10
-2.58395
 20
-0.346566
 30
0.000000
  70
    32
  0
VERTEX
  8
0
  5
7E5
 10
-2.58411
 20
-0.346365
 30
0.000000
  70
    32
  0
VERTEX
  8
0
  5
7E6
 10
-2.58426
 20
-0.346163
 30
0.000000
  70
    32
  0
VERTEX
  8
0
  5
7E7
 10
-2.58442
 20
-0.345960
 30
0.000000
  70
    32
  0
VERTEX
  8
0
  5
7E8
 10
-2.58458
 20
-0.345756
 30
0.000000
  70
    32
  0
VERTEX
  8
0
  5
7E9
 10
-2.58473
 20
-0.345551
 30
0.000000
  70
    32
  0
VERTEX
  8
0
  5
7EA
 10
-2.58488
 20
-0.345345
 30
0.000000
  70
    32
  0
VERTEX
  8
0
  5
7EB
 10
-2.58503
 20
-0.345137
 30
0.000000
  70
    32
  0
VERTEX
  8
0
  5
7EC
 10
-2.58518
 20
-0.344929
 30
0.000000
  70
    32
  0
VERTEX
  8
0
  5
7ED
 10
-2.58533
 20
-0.344720
 30
0.000000
  70
    32
  0
VERTEX
  8
0
  5
7EE
 10
-2.58548
 20
-0.344509
 30
0.000000
  70
    32
  0
VERTEX
  8
0
  5
7EF
 10
-2.58562
 20
-0.344298
 30
0.000000
  70
    32
  0
VERTEX
  8
0
  5
7F0
 10
-2.58577
 20
-0.344086
 30
0.000000
  70
    32
  0
VERTEX
  8
0
  5
7F1
 10
-2.58591
 20
-0.343872
 30
0.000000
  70
    32
  0
VERTEX
  8
0
  5
7F2
 10
-2.58605
 20
-0.343658
 30
0.000000
  70
    32
  0
VERTEX
  8
0
  5
7F3
 10
-2.58619
 20
-0.343443
 30
0.000000
  70
    32
  0
VERTEX
  8
0
  5
7F4
 10
-2.58633
 20
-0.343226
 30
0.000000
  70
    32
  0
VERTEX
  8
0
  5
7F5
 10
-2.58646
 20
-0.343009
 30
0.000000
  70
    32
  0
VERTEX
  8
0
  5
7F6
 10
-2.58660
 20
-0.342791
 30
0.000000
  70
    32
  0
VERTEX
  8
0
  5
7F7
 10
-2.58673
 20
-0.342571
 30
0.000000
  70
    32
  0
VERTEX
  8
0
  5
7F8
 10
-2.58686
 20
-0.342351
 30
0.000000
  70
    32
  0
VERTEX
  8
0
  5
7F9
 10
-2.58699
 20
-0.342130
 30
0.000000
  70
    32
  0
VERTEX
  8
0
  5
7FA
 10
-2.58712
 20
-0.341908
 30
0.000000
  70
    32
  0
VERTEX
  8
0
  5
7FB
 10
-2.58725
 20
-0.341685
 30
0.000000
  70
    32
  0
VERTEX
  8
0
  5
7FC
 10
-2.58737
 20
-0.341461
 30
0.000000
  70
    32
  0
VERTEX
  8
0
  5
7FD
 10
-2.58750
 20
-0.341236
 30
0.000000
  70
    32
  0
SEQEND
  8
0
  5
7FE
  0
POLYLINE
  8
0
  5
7FF
  66
     1
 10
0.000000
 20
0.000000
 30
0.000000
  70
     8
  0
VERTEX
  8
0
  5
800
 10
-2.58604
 20
-0.343306
 30
0.000000
  70
    32
  0
VERTEX
  8
0
  5
801
 10
-2.58709
 20
-0.341870
 30
0.000000
  70
    32
  0
VERTEX
  8
0
  5
802
 10
-2.58818
 20
-0.340432
 30
0.000000
  70
    32
  0
VERTEX
  8
0
  5
803
 10
-2.58930
 20
-0.338992
 30
0.000000
  70
    32
  0
VERTEX
  8
0
  5
804
 10
-2.59045
 20
-0.337551
 30
0.000000
  70
    32
  0
VERTEX
  8
0
  5
805
 10
-2.59164
 20
-0.336109
 30
0.000000
  70
    32
  0
VERTEX
  8
0
  5
806
 10
-2.59286
 20
-0.334666
 30
0.000000
  70
    32
  0
VERTEX
  8
0
  5
807
 10
-2.59411
 20
-0.333223
 30
0.000000
  70
    32
  0
VERTEX
  8
0
  5
808
 10
-2.59539
 20
-0.331779
 30
0.000000
  70
    32
  0
VERTEX
  8
0
  5
809
 10
-2.59671
 20
-0.330334
 30
0.000000
  70
    32
  0
VERTEX
  8
0
  5
80A
 10
-2.59806
 20
-0.328890
 30
0.000000
  70
    32
  0
VERTEX
  8
0
  5
80B
 10
-2.59944
 20
-0.327447
 30
0.000000
  70
    32
  0
VERTEX
  8
0
  5
80C
 10
-2.60086
 20
-0.326003
 30
0.000000
  70
    32
  0
VERTEX
  8
0
  5
80D
 10
-2.60231
 20
-0.324561
 30
0.000000
  70
    32
  0
VERTEX
  8
0
  5
80E
 10
-2.60379
 20
-0.323120
 30
0.000000
  70
    32
  0
VERTEX
  8
0
  5
80F
 10
-2.60530
 20
-0.321681
 30
0.000000
  70
    32
  0
VERTEX
  8
0
  5
810
 10
-2.60685
 20
-0.320243
 30
0.000000
  70
    32
  0
VERTEX
  8
0
  5
811
 10
-2.60842
 20
-0.318806
 30
0.000000
  70
    32
  0
VERTEX
  8
0
  5
812
 10
-2.61003
 20
-0.317372
 30
0.000000
  70
    32
  0
VERTEX
  8
0
  5
813
 10
-2.61168
 20
-0.315941
 30
0.000000
  70
    32
  0
VERTEX
  8
0
  5
814
 10
-2.61335
 20
-0.314512
 30
0.000000
  70
    32
  0
VERTEX
  8
0
  5
815
 10
-2.61505
 20
-0.313086
 30
0.000000
  70
    32
  0
VERTEX
  8
0
  5
816
 10
-2.61679
 20
-0.311664
 30
0.000000
  70
    32
  0
VERTEX
  8
0
  5
817
 10
-2.61856
 20
-0.310244
 30
0.000000
  70
    32
  0
VERTEX
  8
0
  5
818
 10
-2.62036
 20
-0.308829
 30
0.000000
  70
    32
  0
VERTEX
  8
0
  5
819
 10
-2.62219
 20
-0.307417
 30
0.000000
  70
    32
  0
VERTEX
  8
0
  5
81A
 10
-2.62406
 20
-0.306010
 30
0.000000
  70
    32
  0
VERTEX
  8
0
  5
81B
 10
-2.62595
 20
-0.304607
 30
0.000000
  70
    32
  0
VERTEX
  8
0
  5
81C
 10
-2.62788
 20
-0.303208
 30
0.000000
  70
    32
  0
VERTEX
  8
0
  5
81D
 10
-2.62984
 20
-0.301815
 30
0.000000
  70
    32
  0
VERTEX
  8
0
  5
81E
 10
-2.63183
 20
-0.300427
 30
0.000000
  70
    32
  0
VERTEX
  8
0
  5
81F
 10
-2.63385
 20
-0.299045
 30
0.000000
  70
    32
  0
VERTEX
  8
0
  5
820
 10
-2.63590
 20
-0.297668
 30
0.000000
  70
    32
  0
VERTEX
  8
0
  5
821
 10
-2.63798
 20
-0.296297
 30
0.000000
  70
    32
  0
VERTEX
  8
0
  5
822
 10
-2.64009
 20
-0.294933
 30
0.000000
  70
    32
  0
VERTEX
  8
0
  5
823
 10
-2.64224
 20
-0.293575
 30
0.000000
  70
    32
  0
VERTEX
  8
0
  5
824
 10
-2.64441
 20
-0.292223
 30
0.000000
  70
    32
  0
VERTEX
  8
0
  5
825
 10
-2.64662
 20
-0.290879
 30
0.000000
  70
    32
  0
VERTEX
  8
0
  5
826
 10
-2.64886
 20
-0.289542
 30
0.000000
  70
    32
  0
VERTEX
  8
0
  5
827
 10
-2.65112
 20
-0.288213
 30
0.000000
  70
    32
  0
VERTEX
  8
0
  5
828
 10
-2.65342
 20
-0.286891
 30
0.000000
  70
    32
  0
VERTEX
  8
0
  5
829
 10
-2.65575
 20
-0.285578
 30
0.000000
  70
    32
  0
VERTEX
  8
0
  5
82A
 10
-2.65811
 20
-0.284272
 30
0.000000
  70
    32
  0
VERTEX
  8
0
  5
82B
 10
-2.66049
 20
-0.282975
 30
0.000000
  70
    32
  0
VERTEX
  8
0
  5
82C
 10
-2.66291
 20
-0.281688
 30
0.000000
  70
    32
  0
VERTEX
  8
0
  5
82D
 10
-2.66536
 20
-0.280409
 30
0.000000
  70
    32
  0
VERTEX
  8
0
  5
82E
 10
-2.66784
 20
-0.279139
 30
0.000000
  70
    32
  0
VERTEX
  8
0
  5
82F
 10
-2.67035
 20
-0.277879
 30
0.000000
  70
    32
  0
VERTEX
  8
0
  5
830
 10
-2.67289
 20
-0.276629
 30
0.000000
  70
    32
  0
VERTEX
  8
0
  5
831
 10
-2.67545
 20
-0.275389
 30
0.000000
  70
    32
  0
VERTEX
  8
0
  5
832
 10
-2.67805
 20
-0.274160
 30
0.000000
  70
    32
  0
VERTEX
  8
0
  5
833
 10
-2.68068
 20
-0.272940
 30
0.000000
  70
    32
  0
VERTEX
  8
0
  5
834
 10
-2.68334
 20
-0.271732
 30
0.000000
  70
    32
  0
VERTEX
  8
0
  5
835
 10
-2.68602
 20
-0.270535
 30
0.000000
  70
    32
  0
VERTEX
  8
0
  5
836
 10
-2.68874
 20
-0.269349
 30
0.000000
  70
    32
  0
VERTEX
  8
0
  5
837
 10
-2.69149
 20
-0.268175
 30
0.000000
  70
    32
  0
VERTEX
  8
0
  5
838
 10
-2.69426
 20
-0.267013
 30
0.000000
  70
    32
  0
VERTEX
  8
0
  5
839
 10
-2.69706
 20
-0.265863
 30
0.000000
  70
    32
  0
VERTEX
  8
0
  5
83A
 10
-2.69990
 20
-0.264725
 30
0.000000
  70
    32
  0
VERTEX
  8
0
  5
83B
 10
-2.70276
 20
-0.263600
 30
0.000000
  70
    32
  0
VERTEX
  8
0
  5
83C
 10
-2.70565
 20
-0.262488
 30
0.000000
  70
    32
  0
VERTEX
  8
0
  5
83D
 10
-2.70857
 20
-0.261389
 30
0.000000
  70
    32
  0
VERTEX
  8
0
  5
83E
 10
-2.71152
 20
-0.260304
 30
0.000000
  70
    32
  0
VERTEX
  8
0
  5
83F
 10
-2.71450
 20
-0.259232
 30
0.000000
  70
    32
  0
VERTEX
  8
0
  5
840
 10
-2.71750
 20
-0.258174
 30
0.000000
  70
    32
  0
VERTEX
  8
0
  5
841
 10
-2.72054
 20
-0.257130
 30
0.000000
  70
    32
  0
VERTEX
  8
0
  5
842
 10
-2.72360
 20
-0.256101
 30
0.000000
  70
    32
  0
VERTEX
  8
0
  5
843
 10
-2.72669
 20
-0.255086
 30
0.000000
  70
    32
  0
VERTEX
  8
0
  5
844
 10
-2.72981
 20
-0.254086
 30
0.000000
  70
    32
  0
VERTEX
  8
0
  5
845
 10
-2.73296
 20
-0.253102
 30
0.000000
  70
    32
  0
VERTEX
  8
0
  5
846
 10
-2.73614
 20
-0.252133
 30
0.000000
  70
    32
  0
VERTEX
  8
0
  5
847
 10
-2.73934
 20
-0.251179
 30
0.000000
  70
    32
  0
VERTEX
  8
0
  5
848
 10
-2.74257
 20
-0.250242
 30
0.000000
  70
    32
  0
VERTEX
  8
0
  5
849
 10
-2.74584
 20
-0.249321
 30
0.000000
  70
    32
  0
VERTEX
  8
0
  5
84A
 10
-2.74912
 20
-0.248416
 30
0.000000
  70
    32
  0
VERTEX
  8
0
  5
84B
 10
-2.75244
 20
-0.247528
 30
0.000000
  70
    32
  0
VERTEX
  8
0
  5
84C
 10
-2.75578
 20
-0.246657
 30
0.000000
  70
    32
  0
VERTEX
  8
0
  5
84D
 10
-2.75916
 20
-0.245804
 30
0.000000
  70
    32
  0
VERTEX
  8
0
  5
84E
 10
-2.76256
 20
-0.244968
 30
0.000000
  70
    32
  0
VERTEX
  8
0
  5
84F
 10
-2.76598
 20
-0.244149
 30
0.000000
  70
    32
  0
VERTEX
  8
0
  5
850
 10
-2.76944
 20
-0.243349
 30
0.000000
  70
    32
  0
VERTEX
  8
0
  5
851
 10
-2.77292
 20
-0.242567
 30
0.000000
  70
    32
  0
VERTEX
  8
0
  5
852
 10
-2.77643
 20
-0.241803
 30
0.000000
  70
    32
  0
VERTEX
  8
0
  5
853
 10
-2.77997
 20
-0.241058
 30
0.000000
  70
    32
  0
VERTEX
  8
0
  5
854
 10
-2.78353
 20
-0.240332
 30
0.000000
  70
    32
  0
VERTEX
  8
0
  5
855
 10
-2.78712
 20
-0.239626
 30
0.000000
  70
    32
  0
VERTEX
  8
0
  5
856
 10
-2.79074
 20
-0.238939
 30
0.000000
  70
    32
  0
VERTEX
  8
0
  5
857
 10
-2.79438
 20
-0.238272
 30
0.000000
  70
    32
  0
VERTEX
  8
0
  5
858
 10
-2.79805
 20
-0.237625
 30
0.000000
  70
    32
  0
VERTEX
  8
0
  5
859
 10
-2.80175
 20
-0.236998
 30
0.000000
  70
    32
  0
VERTEX
  8
0
  5
85A
 10
-2.80548
 20
-0.236392
 30
0.000000
  70
    32
  0
VERTEX
  8
0
  5
85B
 10
-2.80923
 20
-0.235807
 30
0.000000
  70
    32
  0
VERTEX
  8
0
  5
85C
 10
-2.81301
 20
-0.235242
 30
0.000000
  70
    32
  0
VERTEX
  8
0
  5
85D
 10
-2.81681
 20
-0.234700
 30
0.000000
  70
    32
  0
VERTEX
  8
0
  5
85E
 10
-2.82064
 20
-0.234178
 30
0.000000
  70
    32
  0
VERTEX
  8
0
  5
85F
 10
-2.82450
 20
-0.233679
 30
0.000000
  70
    32
  0
VERTEX
  8
0
  5
860
 10
-2.82838
 20
-0.233202
 30
0.000000
  70
    32
  0
VERTEX
  8
0
  5
861
 10
-2.83229
 20
-0.232747
 30
0.000000
  70
    32
  0
VERTEX
  8
0
  5
862
 10
-2.83623
 20
-0.232314
 30
0.000000
  70
    32
  0
VERTEX
  8
0
  5
863
 10
-2.84019
 20
-0.231905
 30
0.000000
  70
    32
  0
VERTEX
  8
0
  5
864
 10
-2.84418
 20
-0.231518
 30
0.000000
  70
    32
  0
VERTEX
  8
0
  5
865
 10
-2.84819
 20
-0.231155
 30
0.000000
  70
    32
  0
VERTEX
  8
0
  5
866
 10
-2.85223
 20
-0.230816
 30
0.000000
  70
    32
  0
VERTEX
  8
0
  5
867
 10
-2.85630
 20
-0.230501
 30
0.000000
  70
    32
  0
VERTEX
  8
0
  5
868
 10
-2.86039
 20
-0.230209
 30
0.000000
  70
    32
  0
VERTEX
  8
0
  5
869
 10
-2.86451
 20
-0.229942
 30
0.000000
  70
    32
  0
VERTEX
  8
0
  5
86A
 10
-2.86865
 20
-0.229700
 30
0.000000
  70
    32
  0
VERTEX
  8
0
  5
86B
 10
-2.87800
 20
-0.229213
 30
0.000000
  70
    32
  0
VERTEX
  8
0
  5
86C
 10
-2.88989
 20
-0.228653
 30
0.000000
  70
    32
  0
VERTEX
  8
0
  5
86D
 10
-2.90169
 20
-0.228162
 30
0.000000
  70
    32
  0
VERTEX
  8
0
  5
86E
 10
-2.91342
 20
-0.227737
 30
0.000000
  70
    32
  0
VERTEX
  8
0
  5
86F
 10
-2.92507
 20
-0.227378
 30
0.000000
  70
    32
  0
VERTEX
  8
0
  5
870
 10
-2.93664
 20
-0.227084
 30
0.000000
  70
    32
  0
VERTEX
  8
0
  5
871
 10
-2.94813
 20
-0.226853
 30
0.000000
  70
    32
  0
VERTEX
  8
0
  5
872
 10
-2.95955
 20
-0.226685
 30
0.000000
  70
    32
  0
VERTEX
  8
0
  5
873
 10
-2.97090
 20
-0.226578
 30
0.000000
  70
    32
  0
VERTEX
  8
0
  5
874
 10
-2.98217
 20
-0.226532
 30
0.000000
  70
    32
  0
VERTEX
  8
0
  5
875
 10
-2.99337
 20
-0.226544
 30
0.000000
  70
    32
  0
VERTEX
  8
0
  5
876
 10
-3.00450
 20
-0.226614
 30
0.000000
  70
    32
  0
VERTEX
  8
0
  5
877
 10
-3.01555
 20
-0.226741
 30
0.000000
  70
    32
  0
VERTEX
  8
0
  5
878
 10
-3.02654
 20
-0.226923
 30
0.000000
  70
    32
  0
VERTEX
  8
0
  5
879
 10
-3.03746
 20
-0.227160
 30
0.000000
  70
    32
  0
VERTEX
  8
0
  5
87A
 10
-3.04830
 20
-0.227450
 30
0.000000
  70
    32
  0
VERTEX
  8
0
  5
87B
 10
-3.05909
 20
-0.227792
 30
0.000000
  70
    32
  0
VERTEX
  8
0
  5
87C
 10
-3.06980
 20
-0.228185
 30
0.000000
  70
    32
  0
VERTEX
  8
0
  5
87D
 10
-3.08045
 20
-0.228628
 30
0.000000
  70
    32
  0
VERTEX
  8
0
  5
87E
 10
-3.09103
 20
-0.229120
 30
0.000000
  70
    32
  0
VERTEX
  8
0
  5
87F
 10
-3.10155
 20
-0.229659
 30
0.000000
  70
    32
  0
VERTEX
  8
0
  5
880
 10
-3.11201
 20
-0.230245
 30
0.000000
  70
    32
  0
VERTEX
  8
0
  5
881
 10
-3.12241
 20
-0.230875
 30
0.000000
  70
    32
  0
VERTEX
  8
0
  5
882
 10
-3.13274
 20
-0.231550
 30
0.000000
  70
    32
  0
VERTEX
  8
0
  5
883
 10
-3.14301
 20
-0.232268
 30
0.000000
  70
    32
  0
VERTEX
  8
0
  5
884
 10
-3.15322
 20
-0.233027
 30
0.000000
  70
    32
  0
VERTEX
  8
0
  5
885
 10
-3.16338
 20
-0.233828
 30
0.000000
  70
    32
  0
VERTEX
  8
0
  5
886
 10
-3.17347
 20
-0.234667
 30
0.000000
  70
    32
  0
VERTEX
  8
0
  5
887
 10
-3.18351
 20
-0.235545
 30
0.000000
  70
    32
  0
VERTEX
  8
0
  5
888
 10
-3.19350
 20
-0.236461
 30
0.000000
  70
    32
  0
VERTEX
  8
0
  5
889
 10
-3.20342
 20
-0.237412
 30
0.000000
  70
    32
  0
VERTEX
  8
0
  5
88A
 10
-3.21330
 20
-0.238398
 30
0.000000
  70
    32
  0
VERTEX
  8
0
  5
88B
 10
-3.22311
 20
-0.239418
 30
0.000000
  70
    32
  0
VERTEX
  8
0
  5
88C
 10
-3.23288
 20
-0.240471
 30
0.000000
  70
    32
  0
VERTEX
  8
0
  5
88D
 10
-3.24260
 20
-0.241555
 30
0.000000
  70
    32
  0
VERTEX
  8
0
  5
88E
 10
-3.25226
 20
-0.242669
 30
0.000000
  70
    32
  0
VERTEX
  8
0
  5
88F
 10
-3.26187
 20
-0.243812
 30
0.000000
  70
    32
  0
VERTEX
  8
0
  5
890
 10
-3.27144
 20
-0.244984
 30
0.000000
  70
    32
  0
VERTEX
  8
0
  5
891
 10
-3.28095
 20
-0.246182
 30
0.000000
  70
    32
  0
VERTEX
  8
0
  5
892
 10
-3.29042
 20
-0.247407
 30
0.000000
  70
    32
  0
VERTEX
  8
0
  5
893
 10
-3.29984
 20
-0.248655
 30
0.000000
  70
    32
  0
VERTEX
  8
0
  5
894
 10
-3.30921
 20
-0.249927
 30
0.000000
  70
    32
  0
VERTEX
  8
0
  5
895
 10
-3.31854
 20
-0.251222
 30
0.000000
  70
    32
  0
VERTEX
  8
0
  5
896
 10
-3.32783
 20
-0.252537
 30
0.000000
  70
    32
  0
VERTEX
  8
0
  5
897
 10
-3.33707
 20
-0.253873
 30
0.000000
  70
    32
  0
VERTEX
  8
0
  5
898
 10
-3.34627
 20
-0.255228
 30
0.000000
  70
    32
  0
VERTEX
  8
0
  5
899
 10
-3.35543
 20
-0.256600
 30
0.000000
  70
    32
  0
VERTEX
  8
0
  5
89A
 10
-3.36455
 20
-0.257988
 30
0.000000
  70
    32
  0
VERTEX
  8
0
  5
89B
 10
-3.37363
 20
-0.259392
 30
0.000000
  70
    32
  0
VERTEX
  8
0
  5
89C
 10
-3.38266
 20
-0.260811
 30
0.000000
  70
    32
  0
VERTEX
  8
0
  5
89D
 10
-3.39167
 20
-0.262242
 30
0.000000
  70
    32
  0
VERTEX
  8
0
  5
89E
 10
-3.40063
 20
-0.263686
 30
0.000000
  70
    32
  0
VERTEX
  8
0
  5
89F
 10
-3.40956
 20
-0.265140
 30
0.000000
  70
    32
  0
VERTEX
  8
0
  5
8A0
 10
-3.41845
 20
-0.266604
 30
0.000000
  70
    32
  0
VERTEX
  8
0
  5
8A1
 10
-3.42730
 20
-0.268076
 30
0.000000
  70
    32
  0
VERTEX
  8
0
  5
8A2
 10
-3.43613
 20
-0.269556
 30
0.000000
  70
    32
  0
VERTEX
  8
0
  5
8A3
 10
-3.44492
 20
-0.271042
 30
0.000000
  70
    32
  0
VERTEX
  8
0
  5
8A4
 10
-3.45368
 20
-0.272534
 30
0.000000
  70
    32
  0
VERTEX
  8
0
  5
8A5
 10
-3.46240
 20
-0.274029
 30
0.000000
  70
    32
  0
VERTEX
  8
0
  5
8A6
 10
-3.47110
 20
-0.275527
 30
0.000000
  70
    32
  0
VERTEX
  8
0
  5
8A7
 10
-3.47977
 20
-0.277026
 30
0.000000
  70
    32
  0
VERTEX
  8
0
  5
8A8
 10
-3.48840
 20
-0.278526
 30
0.000000
  70
    32
  0
VERTEX
  8
0
  5
8A9
 10
-3.49702
 20
-0.280026
 30
0.000000
  70
    32
  0
VERTEX
  8
0
  5
8AA
 10
-3.50560
 20
-0.281523
 30
0.000000
  70
    32
  0
VERTEX
  8
0
  5
8AB
 10
-3.51416
 20
-0.283018
 30
0.000000
  70
    32
  0
VERTEX
  8
0
  5
8AC
 10
-3.52269
 20
-0.284508
 30
0.000000
  70
    32
  0
VERTEX
  8
0
  5
8AD
 10
-3.53120
 20
-0.285994
 30
0.000000
  70
    32
  0
VERTEX
  8
0
  5
8AE
 10
-3.53968
 20
-0.287473
 30
0.000000
  70
    32
  0
VERTEX
  8
0
  5
8AF
 10
-3.54815
 20
-0.288944
 30
0.000000
  70
    32
  0
VERTEX
  8
0
  5
8B0
 10
-3.55659
 20
-0.290407
 30
0.000000
  70
    32
  0
VERTEX
  8
0
  5
8B1
 10
-3.56501
 20
-0.291860
 30
0.000000
  70
    32
  0
VERTEX
  8
0
  5
8B2
 10
-3.57341
 20
-0.293302
 30
0.000000
  70
    32
  0
VERTEX
  8
0
  5
8B3
 10
-3.58179
 20
-0.294731
 30
0.000000
  70
    32
  0
VERTEX
  8
0
  5
8B4
 10
-3.59015
 20
-0.296148
 30
0.000000
  70
    32
  0
VERTEX
  8
0
  5
8B5
 10
-3.59849
 20
-0.297550
 30
0.000000
  70
    32
  0
VERTEX
  8
0
  5
8B6
 10
-3.60682
 20
-0.298937
 30
0.000000
  70
    32
  0
VERTEX
  8
0
  5
8B7
 10
-3.61514
 20
-0.300306
 30
0.000000
  70
    32
  0
VERTEX
  8
0
  5
8B8
 10
-3.62343
 20
-0.301658
 30
0.000000
  70
    32
  0
VERTEX
  8
0
  5
8B9
 10
-3.63172
 20
-0.302991
 30
0.000000
  70
    32
  0
VERTEX
  8
0
  5
8BA
 10
-3.63999
 20
-0.304304
 30
0.000000
  70
    32
  0
VERTEX
  8
0
  5
8BB
 10
-3.64825
 20
-0.305596
 30
0.000000
  70
    32
  0
VERTEX
  8
0
  5
8BC
 10
-3.65650
 20
-0.306865
 30
0.000000
  70
    32
  0
VERTEX
  8
0
  5
8BD
 10
-3.66473
 20
-0.308111
 30
0.000000
  70
    32
  0
VERTEX
  8
0
  5
8BE
 10
-3.67296
 20
-0.309331
 30
0.000000
  70
    32
  0
VERTEX
  8
0
  5
8BF
 10
-3.68118
 20
-0.310526
 30
0.000000
  70
    32
  0
VERTEX
  8
0
  5
8C0
 10
-3.68939
 20
-0.311694
 30
0.000000
  70
    32
  0
VERTEX
  8
0
  5
8C1
 10
-3.69759
 20
-0.312834
 30
0.000000
  70
    32
  0
VERTEX
  8
0
  5
8C2
 10
-3.70579
 20
-0.313944
 30
0.000000
  70
    32
  0
VERTEX
  8
0
  5
8C3
 10
-3.71398
 20
-0.315024
 30
0.000000
  70
    32
  0
VERTEX
  8
0
  5
8C4
 10
-3.72217
 20
-0.316072
 30
0.000000
  70
    32
  0
VERTEX
  8
0
  5
8C5
 10
-3.73036
 20
-0.317088
 30
0.000000
  70
    32
  0
VERTEX
  8
0
  5
8C6
 10
-3.73854
 20
-0.318070
 30
0.000000
  70
    32
  0
VERTEX
  8
0
  5
8C7
 10
-3.74672
 20
-0.319016
 30
0.000000
  70
    32
  0
VERTEX
  8
0
  5
8C8
 10
-3.75490
 20
-0.319926
 30
0.000000
  70
    32
  0
VERTEX
  8
0
  5
8C9
 10
-3.76307
 20
-0.320799
 30
0.000000
  70
    32
  0
VERTEX
  8
0
  5
8CA
 10
-3.77125
 20
-0.321634
 30
0.000000
  70
    32
  0
VERTEX
  8
0
  5
8CB
 10
-3.77944
 20
-0.322429
 30
0.000000
  70
    32
  0
VERTEX
  8
0
  5
8CC
 10
-3.78762
 20
-0.323183
 30
0.000000
  70
    32
  0
VERTEX
  8
0
  5
8CD
 10
-3.79581
 20
-0.323895
 30
0.000000
  70
    32
  0
VERTEX
  8
0
  5
8CE
 10
-3.80400
 20
-0.324564
 30
0.000000
  70
    32
  0
VERTEX
  8
0
  5
8CF
 10
-3.81219
 20
-0.325189
 30
0.000000
  70
    32
  0
VERTEX
  8
0
  5
8D0
 10
-3.82040
 20
-0.325768
 30
0.000000
  70
    32
  0
VERTEX
  8
0
  5
8D1
 10
-3.82860
 20
-0.326301
 30
0.000000
  70
    32
  0
VERTEX
  8
0
  5
8D2
 10
-3.83682
 20
-0.326786
 30
0.000000
  70
    32
  0
VERTEX
  8
0
  5
8D3
 10
-3.84505
 20
-0.327223
 30
0.000000
  70
    32
  0
VERTEX
  8
0
  5
8D4
 10
-3.85328
 20
-0.327609
 30
0.000000
  70
    32
  0
VERTEX
  8
0
  5
8D5
 10
-3.86181
 20
-0.327956
 30
0.000000
  70
    32
  0
VERTEX
  8
0
  5
8D6
 10
-3.87083
 20
-0.328284
 30
0.000000
  70
    32
  0
VERTEX
  8
0
  5
8D7
 10
-3.87971
 20
-0.328574
 30
0.000000
  70
    32
  0
VERTEX
  8
0
  5
8D8
 10
-3.88848
 20
-0.328828
 30
0.000000
  70
    32
  0
VERTEX
  8
0
  5
8D9
 10
-3.89711
 20
-0.329045
 30
0.000000
  70
    32
  0
VERTEX
  8
0
  5
8DA
 10
-3.90563
 20
-0.329227
 30
0.000000
  70
    32
  0
VERTEX
  8
0
  5
8DB
 10
-3.91402
 20
-0.329373
 30
0.000000
  70
    32
  0
VERTEX
  8
0
  5
8DC
 10
-3.92228
 20
-0.329486
 30
0.000000
  70
    32
  0
VERTEX
  8
0
  5
8DD
 10
-3.93043
 20
-0.329565
 30
0.000000
  70
    32
  0
VERTEX
  8
0
  5
8DE
 10
-3.93845
 20
-0.329611
 30
0.000000
  70
    32
  0
VERTEX
  8
0
  5
8DF
 10
-3.94635
 20
-0.329625
 30
0.000000
  70
    32
  0
VERTEX
  8
0
  5
8E0
 10
-3.95413
 20
-0.329607
 30
0.000000
  70
    32
  0
VERTEX
  8
0
  5
8E1
 10
-3.96180
 20
-0.329558
 30
0.000000
  70
    32
  0
VERTEX
  8
0
  5
8E2
 10
-3.96934
 20
-0.329479
 30
0.000000
  70
    32
  0
VERTEX
  8
0
  5
8E3
 10
-3.97677
 20
-0.329370
 30
0.000000
  70
    32
  0
VERTEX
  8
0
  5
8E4
 10
-3.98408
 20
-0.329233
 30
0.000000
  70
    32
  0
VERTEX
  8
0
  5
8E5
 10
-3.99128
 20
-0.329067
 30
0.000000
  70
    32
  0
VERTEX
  8
0
  5
8E6
 10
-3.99835
 20
-0.328873
 30
0.000000
  70
    32
  0
VERTEX
  8
0
  5
8E7
 10
-4.00532
 20
-0.328652
 30
0.000000
  70
    32
  0
VERTEX
  8
0
  5
8E8
 10
-4.01217
 20
-0.328405
 30
0.000000
  70
    32
  0
VERTEX
  8
0
  5
8E9
 10
-4.01891
 20
-0.328133
 30
0.000000
  70
    32
  0
VERTEX
  8
0
  5
8EA
 10
-4.02554
 20
-0.327835
 30
0.000000
  70
    32
  0
VERTEX
  8
0
  5
8EB
 10
-4.03206
 20
-0.327513
 30
0.000000
  70
    32
  0
VERTEX
  8
0
  5
8EC
 10
-4.03846
 20
-0.327167
 30
0.000000
  70
    32
  0
VERTEX
  8
0
  5
8ED
 10
-4.04476
 20
-0.326799
 30
0.000000
  70
    32
  0
VERTEX
  8
0
  5
8EE
 10
-4.05095
 20
-0.326408
 30
0.000000
  70
    32
  0
VERTEX
  8
0
  5
8EF
 10
-4.05703
 20
-0.325995
 30
0.000000
  70
    32
  0
VERTEX
  8
0
  5
8F0
 10
-4.06300
 20
-0.325561
 30
0.000000
  70
    32
  0
VERTEX
  8
0
  5
8F1
 10
-4.06887
 20
-0.325107
 30
0.000000
  70
    32
  0
VERTEX
  8
0
  5
8F2
 10
-4.07463
 20
-0.324633
 30
0.000000
  70
    32
  0
VERTEX
  8
0
  5
8F3
 10
-4.08029
 20
-0.324139
 30
0.000000
  70
    32
  0
VERTEX
  8
0
  5
8F4
 10
-4.08584
 20
-0.323628
 30
0.000000
  70
    32
  0
VERTEX
  8
0
  5
8F5
 10
-4.09129
 20
-0.323098
 30
0.000000
  70
    32
  0
VERTEX
  8
0
  5
8F6
 10
-4.09664
 20
-0.322552
 30
0.000000
  70
    32
  0
VERTEX
  8
0
  5
8F7
 10
-4.10188
 20
-0.321989
 30
0.000000
  70
    32
  0
VERTEX
  8
0
  5
8F8
 10
-4.10703
 20
-0.321410
 30
0.000000
  70
    32
  0
VERTEX
  8
0
  5
8F9
 10
-4.11207
 20
-0.320817
 30
0.000000
  70
    32
  0
VERTEX
  8
0
  5
8FA
 10
-4.11702
 20
-0.320208
 30
0.000000
  70
    32
  0
VERTEX
  8
0
  5
8FB
 10
-4.12186
 20
-0.319586
 30
0.000000
  70
    32
  0
VERTEX
  8
0
  5
8FC
 10
-4.12661
 20
-0.318951
 30
0.000000
  70
    32
  0
VERTEX
  8
0
  5
8FD
 10
-4.13127
 20
-0.318303
 30
0.000000
  70
    32
  0
VERTEX
  8
0
  5
8FE
 10
-4.13582
 20
-0.317644
 30
0.000000
  70
    32
  0
VERTEX
  8
0
  5
8FF
 10
-4.14029
 20
-0.316973
 30
0.000000
  70
    32
  0
VERTEX
  8
0
  5
900
 10
-4.14465
 20
-0.316292
 30
0.000000
  70
    32
  0
VERTEX
  8
0
  5
901
 10
-4.14893
 20
-0.315600
 30
0.000000
  70
    32
  0
VERTEX
  8
0
  5
902
 10
-4.15311
 20
-0.314900
 30
0.000000
  70
    32
  0
VERTEX
  8
0
  5
903
 10
-4.15720
 20
-0.314191
 30
0.000000
  70
    32
  0
VERTEX
  8
0
  5
904
 10
-4.16119
 20
-0.313474
 30
0.000000
  70
    32
  0
VERTEX
  8
0
  5
905
 10
-4.16510
 20
-0.312750
 30
0.000000
  70
    32
  0
VERTEX
  8
0
  5
906
 10
-4.16892
 20
-0.312020
 30
0.000000
  70
    32
  0
VERTEX
  8
0
  5
907
 10
-4.17265
 20
-0.311283
 30
0.000000
  70
    32
  0
VERTEX
  8
0
  5
908
 10
-4.17629
 20
-0.310542
 30
0.000000
  70
    32
  0
VERTEX
  8
0
  5
909
 10
-4.17984
 20
-0.309795
 30
0.000000
  70
    32
  0
VERTEX
  8
0
  5
90A
 10
-4.18331
 20
-0.309045
 30
0.000000
  70
    32
  0
VERTEX
  8
0
  5
90B
 10
-4.18669
 20
-0.308292
 30
0.000000
  70
    32
  0
VERTEX
  8
0
  5
90C
 10
-4.18999
 20
-0.307535
 30
0.000000
  70
    32
  0
VERTEX
  8
0
  5
90D
 10
-4.19320
 20
-0.306777
 30
0.000000
  70
    32
  0
VERTEX
  8
0
  5
90E
 10
-4.19633
 20
-0.306018
 30
0.000000
  70
    32
  0
VERTEX
  8
0
  5
90F
 10
-4.19938
 20
-0.305258
 30
0.000000
  70
    32
  0
VERTEX
  8
0
  5
910
 10
-4.20234
 20
-0.304498
 30
0.000000
  70
    32
  0
VERTEX
  8
0
  5
911
 10
-4.20523
 20
-0.303739
 30
0.000000
  70
    32
  0
VERTEX
  8
0
  5
912
 10
-4.20803
 20
-0.302981
 30
0.000000
  70
    32
  0
VERTEX
  8
0
  5
913
 10
-4.21076
 20
-0.302225
 30
0.000000
  70
    32
  0
VERTEX
  8
0
  5
914
 10
-4.21340
 20
-0.301471
 30
0.000000
  70
    32
  0
VERTEX
  8
0
  5
915
 10
-4.21597
 20
-0.300721
 30
0.000000
  70
    32
  0
VERTEX
  8
0
  5
916
 10
-4.21846
 20
-0.299975
 30
0.000000
  70
    32
  0
VERTEX
  8
0
  5
917
 10
-4.22088
 20
-0.299234
 30
0.000000
  70
    32
  0
VERTEX
  8
0
  5
918
 10
-4.22322
 20
-0.298498
 30
0.000000
  70
    32
  0
VERTEX
  8
0
  5
919
 10
-4.22548
 20
-0.297768
 30
0.000000
  70
    32
  0
VERTEX
  8
0
  5
91A
 10
-4.22768
 20
-0.297044
 30
0.000000
  70
    32
  0
VERTEX
  8
0
  5
91B
 10
-4.22979
 20
-0.296328
 30
0.000000
  70
    32
  0
VERTEX
  8
0
  5
91C
 10
-4.23184
 20
-0.295619
 30
0.000000
  70
    32
  0
VERTEX
  8
0
  5
91D
 10
-4.23382
 20
-0.294920
 30
0.000000
  70
    32
  0
VERTEX
  8
0
  5
91E
 10
-4.23572
 20
-0.294229
 30
0.000000
  70
    32
  0
VERTEX
  8
0
  5
91F
 10
-4.23756
 20
-0.293549
 30
0.000000
  70
    32
  0
VERTEX
  8
0
  5
920
 10
-4.23932
 20
-0.292879
 30
0.000000
  70
    32
  0
VERTEX
  8
0
  5
921
 10
-4.24102
 20
-0.292220
 30
0.000000
  70
    32
  0
VERTEX
  8
0
  5
922
 10
-4.24265
 20
-0.291573
 30
0.000000
  70
    32
  0
VERTEX
  8
0
  5
923
 10
-4.24422
 20
-0.290938
 30
0.000000
  70
    32
  0
VERTEX
  8
0
  5
924
 10
-4.24571
 20
-0.290317
 30
0.000000
  70
    32
  0
VERTEX
  8
0
  5
925
 10
-4.24715
 20
-0.289710
 30
0.000000
  70
    32
  0
VERTEX
  8
0
  5
926
 10
-4.24852
 20
-0.289117
 30
0.000000
  70
    32
  0
VERTEX
  8
0
  5
927
 10
-4.24982
 20
-0.288540
 30
0.000000
  70
    32
  0
VERTEX
  8
0
  5
928
 10
-4.25106
 20
-0.287978
 30
0.000000
  70
    32
  0
VERTEX
  8
0
  5
929
 10
-4.25225
 20
-0.287432
 30
0.000000
  70
    32
  0
VERTEX
  8
0
  5
92A
 10
-4.25337
 20
-0.286904
 30
0.000000
  70
    32
  0
VERTEX
  8
0
  5
92B
 10
-4.25443
 20
-0.286394
 30
0.000000
  70
    32
  0
VERTEX
  8
0
  5
92C
 10
-4.25543
 20
-0.285902
 30
0.000000
  70
    32
  0
VERTEX
  8
0
  5
92D
 10
-4.25637
 20
-0.285429
 30
0.000000
  70
    32
  0
VERTEX
  8
0
  5
92E
 10
-4.25725
 20
-0.284976
 30
0.000000
  70
    32
  0
VERTEX
  8
0
  5
92F
 10
-4.25808
 20
-0.284544
 30
0.000000
  70
    32
  0
VERTEX
  8
0
  5
930
 10
-4.25885
 20
-0.284133
 30
0.000000
  70
    32
  0
VERTEX
  8
0
  5
931
 10
-4.25956
 20
-0.283743
 30
0.000000
  70
    32
  0
VERTEX
  8
0
  5
932
 10
-4.26022
 20
-0.283376
 30
0.000000
  70
    32
  0
VERTEX
  8
0
  5
933
 10
-4.26083
 20
-0.283032
 30
0.000000
  70
    32
  0
VERTEX
  8
0
  5
934
 10
-4.26138
 20
-0.282711
 30
0.000000
  70
    32
  0
VERTEX
  8
0
  5
935
 10
-4.26189
 20
-0.282415
 30
0.000000
  70
    32
  0
VERTEX
  8
0
  5
936
 10
-4.26234
 20
-0.282144
 30
0.000000
  70
    32
  0
VERTEX
  8
0
  5
937
 10
-4.26273
 20
-0.281899
 30
0.000000
  70
    32
  0
VERTEX
  8
0
  5
938
 10
-4.26308
 20
-0.281680
 30
0.000000
  70
    32
  0
VERTEX
  8
0
  5
939
 10
-4.26338
 20
-0.281489
 30
0.000000
  70
    32
  0
VERTEX
  8
0
  5
93A
 10
-4.26364
 20
-0.281325
 30
0.000000
  70
    32
  0
VERTEX
  8
0
  5
93B
 10
-4.26384
 20
-0.281189
 30
0.000000
  70
    32
  0
VERTEX
  8
0
  5
93C
 10
-4.26400
 20
-0.281082
 30
0.000000
  70
    32
  0
VERTEX
  8
0
  5
93D
 10
-4.26411
 20
-0.281005
 30
0.000000
  70
    32
  0
VERTEX
  8
0
  5
93E
 10
-4.26417
 20
-0.280958
 30
0.000000
  70
    32
  0
VERTEX
  8
0
  5
93F
 10
-4.26420
 20
-0.280943
 30
0.000000
  70
    32
  0
SEQEND
  8
0
  5
940
  0
ARC
  5
7B
  8
0
 10
-2.0
 20
0.0
 30
0.0
 40
0.5870578899287651
 50
212.16015164817051
 51
147.8398705016628
  0
ARC
  5
7C
  8
0
 10
2.0000000000836868
 20
0.0
 30
0.0
 40
0.7873928040904517
 50
18.43544440603938
 51
341.56455559842999
  0
POLYLINE
  5
7D
  8
0
 66
     1
 10
0.0
 20
0.0
 30
0.0038627409492925
  0
VERTEX
  5
E4
  8
0
 10
2.5151039911775541
 20
0.3192840311688272
 30
0.0038627409492925
 42
-0.0734660557950056
  0
VERTEX
  5
E5
  8
0
 10
2.3804570947530261
 20
0.2873625696301474
 30
0.0038627409492925
  0
VERTEX
  5
E6
  8
0
 10
2.0000000000836731
 20
0.2873625696301509
 30
0.0038627409492925
 42
1.0030029115272681
  0
VERTEX
  5
E7
  8
0
 10
2.001723266005548
 20
-0.2873628042936289
 30
0.0038627409492925
  0
SEQEND
  5
E8
  8
0
  0
POLYLINE
  5
7E
  8
0
 66
     1
 10
0.0
 20
0.0
 30
0.0038627409492925
  0
VERTEX
  5
E9
  8
0
 10
2.5151904073783982
 20
-0.3193187359459486
 30
0.0038627409492925
 42
0.0735154499117666
  0
VERTEX
  5
EA
  8
0
 10
2.3804570947530261
 20
-0.2873628042936325
 30
0.0038627409492925
  0
VERTEX
  5
EB
  8
0
 10
2.0000000000836868
 20
-0.2873628042936325
 30
0.0038627409492925
  0
SEQEND
  5
EC
  8
0
  0
POLYLINE
  8
0
  5
941
  66
     1
 10
0.000000
 20
0.000000
 30
0.000000
  70
     8
  0
VERTEX
  8
0
  5
942
 10
2.51510
 20
0.319284
 30
0.000000
  70
    32
  0
VERTEX
  8
0
  5
943
 10
2.51510
 20
0.320326
 30
0.000000
  70
    32
  0
VERTEX
  8
0
  5
944
 10
2.51510
 20
0.321222
 30
0.000000
  70
    32
  0
VERTEX
  8
0
  5
945
 10
2.51510
 20
0.321968
 30
0.000000
  70
    32
  0
VERTEX
  8
0
  5
946
 10
2.51510
 20
0.322563
 30
0.000000
  70
    32
  0
VERTEX
  8
0
  5
947
 10
2.51510
 20
0.323005
 30
0.000000
  70
    32
  0
VERTEX
  8
0
  5
948
 10
2.51510
 20
0.323291
 30
0.000000
  70
    32
  0
VERTEX
  8
0
  5
949
 10
2.51510
 20
0.323421
 30
0.000000
  70
    32
  0
VERTEX
  8
0
  5
94A
 10
2.51510
 20
0.323702
 30
0.000000
  70
    32
  0
VERTEX
  8
0
  5
94B
 10
2.51511
 20
0.324099
 30
0.000000
  70
    32
  0
VERTEX
  8
0
  5
94C
 10
2.51511
 20
0.324495
 30
0.000000
  70
    32
  0
VERTEX
  8
0
  5
94D
 10
2.51513
 20
0.324890
 30
0.000000
  70
    32
  0
VERTEX
  8
0
  5
94E
 10
2.51514
 20
0.325284
 30
0.000000
  70
    32
  0
VERTEX
  8
0
  5
94F
 10
2.51516
 20
0.325677
 30
0.000000
  70
    32
  0
VERTEX
  8
0
  5
950
 10
2.51519
 20
0.326069
 30
0.000000
  70
    32
  0
VERTEX
  8
0
  5
951
 10
2.51521
 20
0.326459
 30
0.000000
  70
    32
  0
VERTEX
  8
0
  5
952
 10
2.51525
 20
0.326849
 30
0.000000
  70
    32
  0
VERTEX
  8
0
  5
953
 10
2.51528
 20
0.327237
 30
0.000000
  70
    32
  0
VERTEX
  8
0
  5
954
 10
2.51532
 20
0.327625
 30
0.000000
  70
    32
  0
VERTEX
  8
0
  5
955
 10
2.51537
 20
0.328011
 30
0.000000
  70
    32
  0
VERTEX
  8
0
  5
956
 10
2.51542
 20
0.328396
 30
0.000000
  70
    32
  0
VERTEX
  8
0
  5
957
 10
2.51547
 20
0.328779
 30
0.000000
  70
    32
  0
VERTEX
  8
0
  5
958
 10
2.51553
 20
0.329162
 30
0.000000
  70
    32
  0
VERTEX
  8
0
  5
959
 10
2.51559
 20
0.329543
 30
0.000000
  70
    32
  0
VERTEX
  8
0
  5
95A
 10
2.51565
 20
0.329923
 30
0.000000
  70
    32
  0
VERTEX
  8
0
  5
95B
 10
2.51572
 20
0.330302
 30
0.000000
  70
    32
  0
VERTEX
  8
0
  5
95C
 10
2.51579
 20
0.330679
 30
0.000000
  70
    32
  0
VERTEX
  8
0
  5
95D
 10
2.51587
 20
0.331055
 30
0.000000
  70
    32
  0
VERTEX
  8
0
  5
95E
 10
2.51595
 20
0.331430
 30
0.000000
  70
    32
  0
VERTEX
  8
0
  5
95F
 10
2.51604
 20
0.331803
 30
0.000000
  70
    32
  0
VERTEX
  8
0
  5
960
 10
2.51612
 20
0.332175
 30
0.000000
  70
    32
  0
VERTEX
  8
0
  5
961
 10
2.51622
 20
0.332545
 30
0.000000
  70
    32
  0
VERTEX
  8
0
  5
962
 10
2.51631
 20
0.332914
 30
0.000000
  70
    32
  0
VERTEX
  8
0
  5
963
 10
2.51641
 20
0.333282
 30
0.000000
  70
    32
  0
VERTEX
  8
0
  5
964
 10
2.51651
 20
0.333648
 30
0.000000
  70
    32
  0
VERTEX
  8
0
  5
965
 10
2.51662
 20
0.334012
 30
0.000000
  70
    32
  0
VERTEX
  8
0
  5
966
 10
2.51673
 20
0.334375
 30
0.000000
  70
    32
  0
VERTEX
  8
0
  5
967
 10
2.51685
 20
0.334737
 30
0.000000
  70
    32
  0
VERTEX
  8
0
  5
968
 10
2.51696
 20
0.335097
 30
0.000000
  70
    32
  0
VERTEX
  8
0
  5
969
 10
2.51708
 20
0.335455
 30
0.000000
  70
    32
  0
VERTEX
  8
0
  5
96A
 10
2.51721
 20
0.335812
 30
0.000000
  70
    32
  0
VERTEX
  8
0
  5
96B
 10
2.51734
 20
0.336167
 30
0.000000
  70
    32
  0
VERTEX
  8
0
  5
96C
 10
2.51747
 20
0.336520
 30
0.000000
  70
    32
  0
VERTEX
  8
0
  5
96D
 10
2.51761
 20
0.336872
 30
0.000000
  70
    32
  0
VERTEX
  8
0
  5
96E
 10
2.51775
 20
0.337222
 30
0.000000
  70
    32
  0
VERTEX
  8
0
  5
96F
 10
2.51789
 20
0.337570
 30
0.000000
  70
    32
  0
VERTEX
  8
0
  5
970
 10
2.51804
 20
0.337917
 30
0.000000
  70
    32
  0
VERTEX
  8
0
  5
971
 10
2.51819
 20
0.338262
 30
0.000000
  70
    32
  0
VERTEX
  8
0
  5
972
 10
2.51834
 20
0.338605
 30
0.000000
  70
    32
  0
VERTEX
  8
0
  5
973
 10
2.51850
 20
0.338946
 30
0.000000
  70
    32
  0
VERTEX
  8
0
  5
974
 10
2.51866
 20
0.339286
 30
0.000000
  70
    32
  0
VERTEX
  8
0
  5
975
 10
2.51882
 20
0.339623
 30
0.000000
  70
    32
  0
VERTEX
  8
0
  5
976
 10
2.51899
 20
0.339959
 30
0.000000
  70
    32
  0
VERTEX
  8
0
  5
977
 10
2.51916
 20
0.340293
 30
0.000000
  70
    32
  0
VERTEX
  8
0
  5
978
 10
2.51933
 20
0.340625
 30
0.000000
  70
    32
  0
VERTEX
  8
0
  5
979
 10
2.51951
 20
0.340955
 30
0.000000
  70
    32
  0
VERTEX
  8
0
  5
97A
 10
2.51969
 20
0.341284
 30
0.000000
  70
    32
  0
VERTEX
  8
0
  5
97B
 10
2.51987
 20
0.341610
 30
0.000000
  70
    32
  0
VERTEX
  8
0
  5
97C
 10
2.52006
 20
0.341934
 30
0.000000
  70
    32
  0
VERTEX
  8
0
  5
97D
 10
2.52025
 20
0.342257
 30
0.000000
  70
    32
  0
VERTEX
  8
0
  5
97E
 10
2.52044
 20
0.342577
 30
0.000000
  70
    32
  0
VERTEX
  8
0
  5
97F
 10
2.52064
 20
0.342895
 30
0.000000
  70
    32
  0
VERTEX
  8
0
  5
980
 10
2.52084
 20
0.343211
 30
0.000000
  70
    32
  0
VERTEX
  8
0
  5
981
 10
2.52104
 20
0.343525
 30
0.000000
  70
    32
  0
VERTEX
  8
0
  5
982
 10
2.52125
 20
0.343838
 30
0.000000
  70
    32
  0
VERTEX
  8
0
  5
983
 10
2.52146
 20
0.344147
 30
0.000000
  70
    32
  0
VERTEX
  8
0
  5
984
 10
2.52167
 20
0.344455
 30
0.000000
  70
    32
  0
VERTEX
  8
0
  5
985
 10
2.52188
 20
0.344761
 30
0.000000
  70
    32
  0
VERTEX
  8
0
  5
986
 10
2.52210
 20
0.345064
 30
0.000000
  70
    32
  0
VERTEX
  8
0
  5
987
 10
2.52232
 20
0.345366
 30
0.000000
  70
    32
  0
VERTEX
  8
0
  5
988
 10
2.52255
 20
0.345665
 30
0.000000
  70
    32
  0
VERTEX
  8
0
  5
989
 10
2.52277
 20
0.345962
 30
0.000000
  70
    32
  0
VERTEX
  8
0
  5
98A
 10
2.52300
 20
0.346256
 30
0.000000
  70
    32
  0
VERTEX
  8
0
  5
98B
 10
2.52324
 20
0.346548
 30
0.000000
  70
    32
  0
VERTEX
  8
0
  5
98C
 10
2.52347
 20
0.346838
 30
0.000000
  70
    32
  0
VERTEX
  8
0
  5
98D
 10
2.52371
 20
0.347126
 30
0.000000
  70
    32
  0
VERTEX
  8
0
  5
98E
 10
2.52395
 20
0.347411
 30
0.000000
  70
    32
  0
VERTEX
  8
0
  5
98F
 10
2.52420
 20
0.347694
 30
0.000000
  70
    32
  0
VERTEX
  8
0
  5
990
 10
2.52445
 20
0.347975
 30
0.000000
  70
    32
  0
VERTEX
  8
0
  5
991
 10
2.52470
 20
0.348253
 30
0.000000
  70
    32
  0
VERTEX
  8
0
  5
992
 10
2.52495
 20
0.348529
 30
0.000000
  70
    32
  0
VERTEX
  8
0
  5
993
 10
2.52520
 20
0.348802
 30
0.000000
  70
    32
  0
VERTEX
  8
0
  5
994
 10
2.52546
 20
0.349073
 30
0.000000
  70
    32
  0
VERTEX
  8
0
  5
995
 10
2.52572
 20
0.349342
 30
0.000000
  70
    32
  0
VERTEX
  8
0
  5
996
 10
2.52599
 20
0.349607
 30
0.000000
  70
    32
  0
VERTEX
  8
0
  5
997
 10
2.52626
 20
0.349871
 30
0.000000
  70
    32
  0
VERTEX
  8
0
  5
998
 10
2.52652
 20
0.350132
 30
0.000000
  70
    32
  0
VERTEX
  8
0
  5
999
 10
2.52680
 20
0.350390
 30
0.000000
  70
    32
  0
VERTEX
  8
0
  5
99A
 10
2.52707
 20
0.350646
 30
0.000000
  70
    32
  0
VERTEX
  8
0
  5
99B
 10
2.52735
 20
0.350899
 30
0.000000
  70
    32
  0
VERTEX
  8
0
  5
99C
 10
2.52763
 20
0.351149
 30
0.000000
  70
    32
  0
VERTEX
  8
0
  5
99D
 10
2.52791
 20
0.351397
 30
0.000000
  70
    32
  0
VERTEX
  8
0
  5
99E
 10
2.52819
 20
0.351642
 30
0.000000
  70
    32
  0
VERTEX
  8
0
  5
99F
 10
2.52848
 20
0.351885
 30
0.000000
  70
    32
  0
VERTEX
  8
0
  5
9A0
 10
2.52877
 20
0.352124
 30
0.000000
  70
    32
  0
VERTEX
  8
0
  5
9A1
 10
2.52906
 20
0.352361
 30
0.000000
  70
    32
  0
VERTEX
  8
0
  5
9A2
 10
2.52936
 20
0.352596
 30
0.000000
  70
    32
  0
VERTEX
  8
0
  5
9A3
 10
2.52966
 20
0.352827
 30
0.000000
  70
    32
  0
VERTEX
  8
0
  5
9A4
 10
2.52996
 20
0.353056
 30
0.000000
  70
    32
  0
VERTEX
  8
0
  5
9A5
 10
2.53026
 20
0.353282
 30
0.000000
  70
    32
  0
VERTEX
  8
0
  5
9A6
 10
2.53056
 20
0.353505
 30
0.000000
  70
    32
  0
VERTEX
  8
0
  5
9A7
 10
2.53087
 20
0.353725
 30
0.000000
  70
    32
  0
VERTEX
  8
0
  5
9A8
 10
2.53118
 20
0.353943
 30
0.000000
  70
    32
  0
VERTEX
  8
0
  5
9A9
 10
2.53149
 20
0.354157
 30
0.000000
  70
    32
  0
VERTEX
  8
0
  5
9AA
 10
2.53180
 20
0.354369
 30
0.000000
  70
    32
  0
VERTEX
  8
0
  5
9AB
 10
2.53212
 20
0.354577
 30
0.000000
  70
    32
  0
VERTEX
  8
0
  5
9AC
 10
2.53244
 20
0.354783
 30
0.000000
  70
    32
  0
VERTEX
  8
0
  5
9AD
 10
2.53276
 20
0.354986
 30
0.000000
  70
    32
  0
VERTEX
  8
0
  5
9AE
 10
2.53308
 20
0.355186
 30
0.000000
  70
    32
  0
VERTEX
  8
0
  5
9AF
 10
2.53341
 20
0.355382
 30
0.000000
  70
    32
  0
VERTEX
  8
0
  5
9B0
 10
2.53373
 20
0.355576
 30
0.000000
  70
    32
  0
VERTEX
  8
0
  5
9B1
 10
2.53406
 20
0.355767
 30
0.000000
  70
    32
  0
VERTEX
  8
0
  5
9B2
 10
2.53439
 20
0.355954
 30
0.000000
  70
    32
  0
VERTEX
  8
0
  5
9B3
 10
2.53473
 20
0.356139
 30
0.000000
  70
    32
  0
VERTEX
  8
0
  5
9B4
 10
2.53506
 20
0.356320
 30
0.000000
  70
    32
  0
VERTEX
  8
0
  5
9B5
 10
2.53540
 20
0.356499
 30
0.000000
  70
    32
  0
VERTEX
  8
0
  5
9B6
 10
2.53574
 20
0.356674
 30
0.000000
  70
    32
  0
VERTEX
  8
0
  5
9B7
 10
2.53608
 20
0.356846
 30
0.000000
  70
    32
  0
VERTEX
  8
0
  5
9B8
 10
2.53642
 20
0.357014
 30
0.000000
  70
    32
  0
VERTEX
  8
0
  5
9B9
 10
2.53677
 20
0.357180
 30
0.000000
  70
    32
  0
VERTEX
  8
0
  5
9BA
 10
2.53712
 20
0.357342
 30
0.000000
  70
    32
  0
VERTEX
  8
0
  5
9BB
 10
2.53747
 20
0.357501
 30
0.000000
  70
    32
  0
VERTEX
  8
0
  5
9BC
 10
2.53782
 20
0.357657
 30
0.000000
  70
    32
  0
VERTEX
  8
0
  5
9BD
 10
2.53817
 20
0.357810
 30
0.000000
  70
    32
  0
VERTEX
  8
0
  5
9BE
 10
2.53853
 20
0.357959
 30
0.000000
  70
    32
  0
VERTEX
  8
0
  5
9BF
 10
2.53888
 20
0.358105
 30
0.000000
  70
    32
  0
VERTEX
  8
0
  5
9C0
 10
2.53924
 20
0.358247
 30
0.000000
  70
    32
  0
VERTEX
  8
0
  5
9C1
 10
2.53960
 20
0.358386
 30
0.000000
  70
    32
  0
VERTEX
  8
0
  5
9C2
 10
2.53996
 20
0.358522
 30
0.000000
  70
    32
  0
VERTEX
  8
0
  5
9C3
 10
2.54033
 20
0.358654
 30
0.000000
  70
    32
  0
VERTEX
  8
0
  5
9C4
 10
2.54069
 20
0.358783
 30
0.000000
  70
    32
  0
VERTEX
  8
0
  5
9C5
 10
2.54106
 20
0.358908
 30
0.000000
  70
    32
  0
VERTEX
  8
0
  5
9C6
 10
2.54143
 20
0.359030
 30
0.000000
  70
    32
  0
VERTEX
  8
0
  5
9C7
 10
2.54180
 20
0.359149
 30
0.000000
  70
    32
  0
VERTEX
  8
0
  5
9C8
 10
2.54217
 20
0.359264
 30
0.000000
  70
    32
  0
VERTEX
  8
0
  5
9C9
 10
2.54255
 20
0.359375
 30
0.000000
  70
    32
  0
VERTEX
  8
0
  5
9CA
 10
2.54292
 20
0.359483
 30
0.000000
  70
    32
  0
VERTEX
  8
0
  5
9CB
 10
2.54330
 20
0.359587
 30
0.000000
  70
    32
  0
VERTEX
  8
0
  5
9CC
 10
2.54368
 20
0.359687
 30
0.000000
  70
    32
  0
VERTEX
  8
0
  5
9CD
 10
2.54406
 20
0.359784
 30
0.000000
  70
    32
  0
VERTEX
  8
0
  5
9CE
 10
2.54444
 20
0.359878
 30
0.000000
  70
    32
  0
VERTEX
  8
0
  5
9CF
 10
2.54483
 20
0.359968
 30
0.000000
  70
    32
  0
VERTEX
  8
0
  5
9D0
 10
2.54521
 20
0.360054
 30
0.000000
  70
    32
  0
VERTEX
  8
0
  5
9D1
 10
2.54560
 20
0.360136
 30
0.000000
  70
    32
  0
VERTEX
  8
0
  5
9D2
 10
2.54599
 20
0.360214
 30
0.000000
  70
    32
  0
VERTEX
  8
0
  5
9D3
 10
2.54638
 20
0.360289
 30
0.000000
  70
    32
  0
VERTEX
  8
0
  5
9D4
 10
2.54677
 20
0.360360
 30
0.000000
  70
    32
  0
VERTEX
  8
0
  5
9D5
 10
2.54716
 20
0.360428
 30
0.000000
  70
    32
  0
VERTEX
  8
0
  5
9D6
 10
2.54755
 20
0.360491
 30
0.000000
  70
    32
  0
VERTEX
  8
0
  5
9D7
 10
2.54795
 20
0.360551
 30
0.000000
  70
    32
  0
VERTEX
  8
0
  5
9D8
 10
2.54835
 20
0.360607
 30
0.000000
  70
    32
  0
VERTEX
  8
0
  5
9D9
 10
2.54874
 20
0.360659
 30
0.000000
  70
    32
  0
VERTEX
  8
0
  5
9DA
 10
2.54914
 20
0.360707
 30
0.000000
  70
    32
  0
VERTEX
  8
0
  5
9DB
 10
2.54954
 20
0.360751
 30
0.000000
  70
    32
  0
VERTEX
  8
0
  5
9DC
 10
2.54994
 20
0.360791
 30
0.000000
  70
    32
  0
VERTEX
  8
0
  5
9DD
 10
2.55035
 20
0.360827
 30
0.000000
  70
    32
  0
VERTEX
  8
0
  5
9DE
 10
2.55075
 20
0.360860
 30
0.000000
  70
    32
  0
VERTEX
  8
0
  5
9DF
 10
2.55116
 20
0.360888
 30
0.000000
  70
    32
  0
VERTEX
  8
0
  5
9E0
 10
2.55156
 20
0.360912
 30
0.000000
  70
    32
  0
VERTEX
  8
0
  5
9E1
 10
2.55197
 20
0.360933
 30
0.000000
  70
    32
  0
VERTEX
  8
0
  5
9E2
 10
2.55238
 20
0.360949
 30
0.000000
  70
    32
  0
VERTEX
  8
0
  5
9E3
 10
2.55279
 20
0.360961
 30
0.000000
  70
    32
  0
VERTEX
  8
0
  5
9E4
 10
2.55320
 20
0.360969
 30
0.000000
  70
    32
  0
VERTEX
  8
0
  5
9E5
 10
2.55361
 20
0.360973
 30
0.000000
  70
    32
  0
VERTEX
  8
0
  5
9E6
 10
2.55391
 20
0.360972
 30
0.000000
  70
    32
  0
VERTEX
  8
0
  5
9E7
 10
2.55420
 20
0.360969
 30
0.000000
  70
    32
  0
VERTEX
  8
0
  5
9E8
 10
2.55448
 20
0.360964
 30
0.000000
  70
    32
  0
VERTEX
  8
0
  5
9E9
 10
2.55476
 20
0.360957
 30
0.000000
  70
    32
  0
VERTEX
  8
0
  5
9EA
 10
2.55504
 20
0.360948
 30
0.000000
  70
    32
  0
VERTEX
  8
0
  5
9EB
 10
2.55532
 20
0.360937
 30
0.000000
  70
    32
  0
VERTEX
  8
0
  5
9EC
 10
2.55560
 20
0.360924
 30
0.000000
  70
    32
  0
VERTEX
  8
0
  5
9ED
 10
2.55587
 20
0.360909
 30
0.000000
  70
    32
  0
VERTEX
  8
0
  5
9EE
 10
2.55615
 20
0.360892
 30
0.000000
  70
    32
  0
VERTEX
  8
0
  5
9EF
 10
2.55643
 20
0.360874
 30
0.000000
  70
    32
  0
VERTEX
  8
0
  5
9F0
 10
2.55671
 20
0.360853
 30
0.000000
  70
    32
  0
VERTEX
  8
0
  5
9F1
 10
2.55698
 20
0.360831
 30
0.000000
  70
    32
  0
VERTEX
  8
0
  5
9F2
 10
2.55726
 20
0.360806
 30
0.000000
  70
    32
  0
VERTEX
  8
0
  5
9F3
 10
2.55753
 20
0.360780
 30
0.000000
  70
    32
  0
VERTEX
  8
0
  5
9F4
 10
2.55781
 20
0.360752
 30
0.000000
  70
    32
  0
VERTEX
  8
0
  5
9F5
 10
2.55808
 20
0.360722
 30
0.000000
  70
    32
  0
VERTEX
  8
0
  5
9F6
 10
2.55836
 20
0.360690
 30
0.000000
  70
    32
  0
VERTEX
  8
0
  5
9F7
 10
2.55863
 20
0.360656
 30
0.000000
  70
    32
  0
VERTEX
  8
0
  5
9F8
 10
2.55890
 20
0.360621
 30
0.000000
  70
    32
  0
VERTEX
  8
0
  5
9F9
 10
2.55917
 20
0.360583
 30
0.000000
  70
    32
  0
VERTEX
  8
0
  5
9FA
 10
2.55945
 20
0.360544
 30
0.000000
  70
    32
  0
VERTEX
  8
0
  5
9FB
 10
2.55972
 20
0.360503
 30
0.000000
  70
    32
  0
VERTEX
  8
0
  5
9FC
 10
2.55999
 20
0.360460
 30
0.000000
  70
    32
  0
VERTEX
  8
0
  5
9FD
 10
2.56026
 20
0.360415
 30
0.000000
  70
    32
  0
VERTEX
  8
0
  5
9FE
 10
2.56052
 20
0.360369
 30
0.000000
  70
    32
  0
VERTEX
  8
0
  5
9FF
 10
2.56079
 20
0.360321
 30
0.000000
  70
    32
  0
VERTEX
  8
0
  5
A00
 10
2.56106
 20
0.360271
 30
0.000000
  70
    32
  0
VERTEX
  8
0
  5
A01
 10
2.56133
 20
0.360219
 30
0.000000
  70
    32
  0
VERTEX
  8
0
  5
A02
 10
2.56159
 20
0.360165
 30
0.000000
  70
    32
  0
VERTEX
  8
0
  5
A03
 10
2.56186
 20
0.360110
 30
0.000000
  70
    32
  0
VERTEX
  8
0
  5
A04
 10
2.56212
 20
0.360052
 30
0.000000
  70
    32
  0
VERTEX
  8
0
  5
A05
 10
2.56239
 20
0.359993
 30
0.000000
  70
    32
  0
VERTEX
  8
0
  5
A06
 10
2.56265
 20
0.359933
 30
0.000000
  70
    32
  0
VERTEX
  8
0
  5
A07
 10
2.56291
 20
0.359870
 30
0.000000
  70
    32
  0
VERTEX
  8
0
  5
A08
 10
2.56318
 20
0.359806
 30
0.000000
  70
    32
  0
VERTEX
  8
0
  5
A09
 10
2.56344
 20
0.359740
 30
0.000000
  70
    32
  0
VERTEX
  8
0
  5
A0A
 10
2.56370
 20
0.359672
 30
0.000000
  70
    32
  0
VERTEX
  8
0
  5
A0B
 10
2.56396
 20
0.359603
 30
0.000000
  70
    32
  0
VERTEX
  8
0
  5
A0C
 10
2.56422
 20
0.359532
 30
0.000000
  70
    32
  0
VERTEX
  8
0
  5
A0D
 10
2.56447
 20
0.359459
 30
0.000000
  70
    32
  0
VERTEX
  8
0
  5
A0E
 10
2.56473
 20
0.359384
 30
0.000000
  70
    32
  0
VERTEX
  8
0
  5
A0F
 10
2.56499
 20
0.359308
 30
0.000000
  70
    32
  0
VERTEX
  8
0
  5
A10
 10
2.56524
 20
0.359230
 30
0.000000
  70
    32
  0
VERTEX
  8
0
  5
A11
 10
2.56550
 20
0.359151
 30
0.000000
  70
    32
  0
VERTEX
  8
0
  5
A12
 10
2.56575
 20
0.359070
 30
0.000000
  70
    32
  0
VERTEX
  8
0
  5
A13
 10
2.56601
 20
0.358987
 30
0.000000
  70
    32
  0
VERTEX
  8
0
  5
A14
 10
2.56626
 20
0.358902
 30
0.000000
  70
    32
  0
VERTEX
  8
0
  5
A15
 10
2.56651
 20
0.358816
 30
0.000000
  70
    32
  0
VERTEX
  8
0
  5
A16
 10
2.56676
 20
0.358728
 30
0.000000
  70
    32
  0
VERTEX
  8
0
  5
A17
 10
2.56701
 20
0.358638
 30
0.000000
  70
    32
  0
VERTEX
  8
0
  5
A18
 10
2.56726
 20
0.358547
 30
0.000000
  70
    32
  0
VERTEX
  8
0
  5
A19
 10
2.56751
 20
0.358454
 30
0.000000
  70
    32
  0
VERTEX
  8
0
  5
A1A
 10
2.56776
 20
0.358360
 30
0.000000
  70
    32
  0
VERTEX
  8
0
  5
A1B
 10
2.56801
 20
0.358264
 30
0.000000
  70
    32
  0
VERTEX
  8
0
  5
A1C
 10
2.56826
 20
0.358166
 30
0.000000
  70
    32
  0
VERTEX
  8
0
  5
A1D
 10
2.56850
 20
0.358067
 30
0.000000
  70
    32
  0
VERTEX
  8
0
  5
A1E
 10
2.56875
 20
0.357966
 30
0.000000
  70
    32
  0
VERTEX
  8
0
  5
A1F
 10
2.56899
 20
0.357864
 30
0.000000
  70
    32
  0
VERTEX
  8
0
  5
A20
 10
2.56923
 20
0.357760
 30
0.000000
  70
    32
  0
VERTEX
  8
0
  5
A21
 10
2.56947
 20
0.357655
 30
0.000000
  70
    32
  0
VERTEX
  8
0
  5
A22
 10
2.56971
 20
0.357548
 30
0.000000
  70
    32
  0
VERTEX
  8
0
  5
A23
 10
2.56995
 20
0.357439
 30
0.000000
  70
    32
  0
VERTEX
  8
0
  5
A24
 10
2.57019
 20
0.357329
 30
0.000000
  70
    32
  0
VERTEX
  8
0
  5
A25
 10
2.57043
 20
0.357217
 30
0.000000
  70
    32
  0
VERTEX
  8
0
  5
A26
 10
2.57067
 20
0.357104
 30
0.000000
  70
    32
  0
VERTEX
  8
0
  5
A27
 10
2.57091
 20
0.356989
 30
0.000000
  70
    32
  0
VERTEX
  8
0
  5
A28
 10
2.57114
 20
0.356872
 30
0.000000
  70
    32
  0
VERTEX
  8
0
  5
A29
 10
2.57138
 20
0.356755
 30
0.000000
  70
    32
  0
VERTEX
  8
0
  5
A2A
 10
2.57161
 20
0.356635
 30
0.000000
  70
    32
  0
VERTEX
  8
0
  5
A2B
 10
2.57184
 20
0.356514
 30
0.000000
  70
    32
  0
VERTEX
  8
0
  5
A2C
 10
2.57207
 20
0.356392
 30
0.000000
  70
    32
  0
VERTEX
  8
0
  5
A2D
 10
2.57231
 20
0.356268
 30
0.000000
  70
    32
  0
VERTEX
  8
0
  5
A2E
 10
2.57254
 20
0.356143
 30
0.000000
  70
    32
  0
VERTEX
  8
0
  5
A2F
 10
2.57276
 20
0.356016
 30
0.000000
  70
    32
  0
VERTEX
  8
0
  5
A30
 10
2.57299
 20
0.355888
 30
0.000000
  70
    32
  0
VERTEX
  8
0
  5
A31
 10
2.57322
 20
0.355758
 30
0.000000
  70
    32
  0
VERTEX
  8
0
  5
A32
 10
2.57344
 20
0.355627
 30
0.000000
  70
    32
  0
VERTEX
  8
0
  5
A33
 10
2.57367
 20
0.355494
 30
0.000000
  70
    32
  0
VERTEX
  8
0
  5
A34
 10
2.57389
 20
0.355360
 30
0.000000
  70
    32
  0
VERTEX
  8
0
  5
A35
 10
2.57412
 20
0.355224
 30
0.000000
  70
    32
  0
VERTEX
  8
0
  5
A36
 10
2.57434
 20
0.355087
 30
0.000000
  70
    32
  0
VERTEX
  8
0
  5
A37
 10
2.57456
 20
0.354949
 30
0.000000
  70
    32
  0
VERTEX
  8
0
  5
A38
 10
2.57478
 20
0.354809
 30
0.000000
  70
    32
  0
VERTEX
  8
0
  5
A39
 10
2.57500
 20
0.354668
 30
0.000000
  70
    32
  0
VERTEX
  8
0
  5
A3A
 10
2.57521
 20
0.354525
 30
0.000000
  70
    32
  0
VERTEX
  8
0
  5
A3B
 10
2.57543
 20
0.354381
 30
0.000000
  70
    32
  0
VERTEX
  8
0
  5
A3C
 10
2.57565
 20
0.354236
 30
0.000000
  70
    32
  0
VERTEX
  8
0
  5
A3D
 10
2.57586
 20
0.354089
 30
0.000000
  70
    32
  0
VERTEX
  8
0
  5
A3E
 10
2.57607
 20
0.353941
 30
0.000000
  70
    32
  0
VERTEX
  8
0
  5
A3F
 10
2.57629
 20
0.353791
 30
0.000000
  70
    32
  0
VERTEX
  8
0
  5
A40
 10
2.57650
 20
0.353641
 30
0.000000
  70
    32
  0
VERTEX
  8
0
  5
A41
 10
2.57671
 20
0.353488
 30
0.000000
  70
    32
  0
VERTEX
  8
0
  5
A42
 10
2.57692
 20
0.353335
 30
0.000000
  70
    32
  0
VERTEX
  8
0
  5
A43
 10
2.57712
 20
0.353180
 30
0.000000
  70
    32
  0
VERTEX
  8
0
  5
A44
 10
2.57733
 20
0.353024
 30
0.000000
  70
    32
  0
VERTEX
  8
0
  5
A45
 10
2.57753
 20
0.352866
 30
0.000000
  70
    32
  0
VERTEX
  8
0
  5
A46
 10
2.57774
 20
0.352707
 30
0.000000
  70
    32
  0
VERTEX
  8
0
  5
A47
 10
2.57794
 20
0.352547
 30
0.000000
  70
    32
  0
VERTEX
  8
0
  5
A48
 10
2.57814
 20
0.352385
 30
0.000000
  70
    32
  0
VERTEX
  8
0
  5
A49
 10
2.57834
 20
0.352222
 30
0.000000
  70
    32
  0
VERTEX
  8
0
  5
A4A
 10
2.57854
 20
0.352058
 30
0.000000
  70
    32
  0
VERTEX
  8
0
  5
A4B
 10
2.57874
 20
0.351893
 30
0.000000
  70
    32
  0
VERTEX
  8
0
  5
A4C
 10
2.57894
 20
0.351726
 30
0.000000
  70
    32
  0
VERTEX
  8
0
  5
A4D
 10
2.57914
 20
0.351558
 30
0.000000
  70
    32
  0
VERTEX
  8
0
  5
A4E
 10
2.57933
 20
0.351389
 30
0.000000
  70
    32
  0
VERTEX
  8
0
  5
A4F
 10
2.57952
 20
0.351218
 30
0.000000
  70
    32
  0
VERTEX
  8
0
  5
A50
 10
2.57972
 20
0.351047
 30
0.000000
  70
    32
  0
VERTEX
  8
0
  5
A51
 10
2.57991
 20
0.350874
 30
0.000000
  70
    32
  0
VERTEX
  8
0
  5
A52
 10
2.58010
 20
0.350699
 30
0.000000
  70
    32
  0
VERTEX
  8
0
  5
A53
 10
2.58029
 20
0.350524
 30
0.000000
  70
    32
  0
VERTEX
  8
0
  5
A54
 10
2.58047
 20
0.350347
 30
0.000000
  70
    32
  0
VERTEX
  8
0
  5
A55
 10
2.58066
 20
0.350169
 30
0.000000
  70
    32
  0
VERTEX
  8
0
  5
A56
 10
2.58084
 20
0.349990
 30
0.000000
  70
    32
  0
VERTEX
  8
0
  5
A57
 10
2.58103
 20
0.349810
 30
0.000000
  70
    32
  0
VERTEX
  8
0
  5
A58
 10
2.58121
 20
0.349628
 30
0.000000
  70
    32
  0
VERTEX
  8
0
  5
A59
 10
2.58139
 20
0.349446
 30
0.000000
  70
    32
  0
VERTEX
  8
0
  5
A5A
 10
2.58157
 20
0.349262
 30
0.000000
  70
    32
  0
VERTEX
  8
0
  5
A5B
 10
2.58175
 20
0.349077
 30
0.000000
  70
    32
  0
VERTEX
  8
0
  5
A5C
 10
2.58193
 20
0.348890
 30
0.000000
  70
    32
  0
VERTEX
  8
0
  5
A5D
 10
2.58210
 20
0.348703
 30
0.000000
  70
    32
  0
VERTEX
  8
0
  5
A5E
 10
2.58228
 20
0.348514
 30
0.000000
  70
    32
  0
VERTEX
  8
0
  5
A5F
 10
2.58245
 20
0.348325
 30
0.000000
  70
    32
  0
VERTEX
  8
0
  5
A60
 10
2.58262
 20
0.348134
 30
0.000000
  70
    32
  0
VERTEX
  8
0
  5
A61
 10
2.58279
 20
0.347942
 30
0.000000
  70
    32
  0
VERTEX
  8
0
  5
A62
 10
2.58296
 20
0.347748
 30
0.000000
  70
    32
  0
VERTEX
  8
0
  5
A63
 10
2.58313
 20
0.347554
 30
0.000000
  70
    32
  0
VERTEX
  8
0
  5
A64
 10
2.58329
 20
0.347359
 30
0.000000
  70
    32
  0
VERTEX
  8
0
  5
A65
 10
2.58346
 20
0.347162
 30
0.000000
  70
    32
  0
VERTEX
  8
0
  5
A66
 10
2.58362
 20
0.346965
 30
0.000000
  70
    32
  0
VERTEX
  8
0
  5
A67
 10
2.58379
 20
0.346766
 30
0.000000
  70
    32
  0
VERTEX
  8
0
  5
A68
 10
2.58395
 20
0.346566
 30
0.000000
  70
    32
  0
VERTEX
  8
0
  5
A69
 10
2.58411
 20
0.346365
 30
0.000000
  70
    32
  0
VERTEX
  8
0
  5
A6A
 10
2.58426
 20
0.346163
 30
0.000000
  70
    32
  0
VERTEX
  8
0
  5
A6B
 10
2.58442
 20
0.345960
 30
0.000000
  70
    32
  0
VERTEX
  8
0
  5
A6C
 10
2.58458
 20
0.345756
 30
0.000000
  70
    32
  0
VERTEX
  8
0
  5
A6D
 10
2.58473
 20
0.345551
 30
0.000000
  70
    32
  0
VERTEX
  8
0
  5
A6E
 10
2.58488
 20
0.345345
 30
0.000000
  70
    32
  0
VERTEX
  8
0
  5
A6F
 10
2.58503
 20
0.345137
 30
0.000000
  70
    32
  0
VERTEX
  8
0
  5
A70
 10
2.58518
 20
0.344929
 30
0.000000
  70
    32
  0
VERTEX
  8
0
  5
A71
 10
2.58533
 20
0.344720
 30
0.000000
  70
    32
  0
VERTEX
  8
0
  5
A72
 10
2.58548
 20
0.344509
 30
0.000000
  70
    32
  0
VERTEX
  8
0
  5
A73
 10
2.58562
 20
0.344298
 30
0.000000
  70
    32
  0
VERTEX
  8
0
  5
A74
 10
2.58577
 20
0.344086
 30
0.000000
  70
    32
  0
VERTEX
  8
0
  5
A75
 10
2.58591
 20
0.343872
 30
0.000000
  70
    32
  0
VERTEX
  8
0
  5
A76
 10
2.58605
 20
0.343658
 30
0.000000
  70
    32
  0
VERTEX
  8
0
  5
A77
 10
2.58619
 20
0.343443
 30
0.000000
  70
    32
  0
VERTEX
  8
0
  5
A78
 10
2.58633
 20
0.343226
 30
0.000000
  70
    32
  0
VERTEX
  8
0
  5
A79
 10
2.58646
 20
0.343009
 30
0.000000
  70
    32
  0
VERTEX
  8
0
  5
A7A
 10
2.58660
 20
0.342791
 30
0.000000
  70
    32
  0
VERTEX
  8
0
  5
A7B
 10
2.58673
 20
0.342571
 30
0.000000
  70
    32
  0
VERTEX
  8
0
  5
A7C
 10
2.58686
 20
0.342351
 30
0.000000
  70
    32
  0
VERTEX
  8
0
  5
A7D
 10
2.58699
 20
0.342130
 30
0.000000
  70
    32
  0
VERTEX
  8
0
  5
A7E
 10
2.58712
 20
0.341908
 30
0.000000
  70
    32
  0
VERTEX
  8
0
  5
A7F
 10
2.58725
 20
0.341685
 30
0.000000
  70
    32
  0
VERTEX
  8
0
  5
A80
 10
2.58737
 20
0.341461
 30
0.000000
  70
    32
  0
VERTEX
  8
0
  5
A81
 10
2.58750
 20
0.341236
 30
0.000000
  70
    32
  0
SEQEND
  8
0
  5
A82
  0
POLYLINE
  8
0
  5
A83
  66
     1
 10
0.000000
 20
0.000000
 30
0.000000
  70
     8
  0
VERTEX
  8
0
  5
A84
 10
4.34083
 20
-0.269922
 30
0.000000
  70
    32
  0
VERTEX
  8
0
  5
A85
 10
4.34063
 20
-0.270149
 30
0.000000
  70
    32
  0
VERTEX
  8
0
  5
A86
 10
4.34042
 20
-0.270375
 30
0.000000
  70
    32
  0
VERTEX
  8
0
  5
A87
 10
4.34021
 20
-0.270599
 30
0.000000
  70
    32
  0
VERTEX
  8
0
  5
A88
 10
4.34000
 20
-0.270821
 30
0.000000
  70
    32
  0
VERTEX
  8
0
  5
A89
 10
4.33979
 20
-0.271042
 30
0.000000
  70
    32
  0
VERTEX
  8
0
  5
A8A
 10
4.33957
 20
-0.271261
 30
0.000000
  70
    32
  0
VERTEX
  8
0
  5
A8B
 10
4.33935
 20
-0.271478
 30
0.000000
  70
    32
  0
VERTEX
  8
0
  5
A8C
 10
4.33913
 20
-0.271694
 30
0.000000
  70
    32
  0
VERTEX
  8
0
  5
A8D
 10
4.33890
 20
-0.271908
 30
0.000000
  70
    32
  0
VERTEX
  8
0
  5
A8E
 10
4.33868
 20
-0.272121
 30
0.000000
  70
    32
  0
VERTEX
  8
0
  5
A8F
 10
4.33845
 20
-0.272332
 30
0.000000
  70
    32
  0
VERTEX
  8
0
  5
A90
 10
4.33822
 20
-0.272541
 30
0.000000
  70
    32
  0
VERTEX
  8
0
  5
A91
 10
4.33798
 20
-0.272749
 30
0.000000
  70
    32
  0
VERTEX
  8
0
  5
A92
 10
4.33775
 20
-0.272955
 30
0.000000
  70
    32
  0
VERTEX
  8
0
  5
A93
 10
4.33751
 20
-0.273159
 30
0.000000
  70
    32
  0
VERTEX
  8
0
  5
A94
 10
4.33727
 20
-0.273362
 30
0.000000
  70
    32
  0
VERTEX
  8
0
  5
A95
 10
4.33702
 20
-0.273563
 30
0.000000
  70
    32
  0
VERTEX
  8
0
  5
A96
 10
4.33678
 20
-0.273762
 30
0.000000
  70
    32
  0
VERTEX
  8
0
  5
A97
 10
4.33653
 20
-0.273959
 30
0.000000
  70
    32
  0
VERTEX
  8
0
  5
A98
 10
4.33628
 20
-0.274154
 30
0.000000
  70
    32
  0
VERTEX
  8
0
  5
A99
 10
4.33603
 20
-0.274348
 30
0.000000
  70
    32
  0
VERTEX
  8
0
  5
A9A
 10
4.33577
 20
-0.274540
 30
0.000000
  70
    32
  0
VERTEX
  8
0
  5
A9B
 10
4.33552
 20
-0.274730
 30
0.000000
  70
    32
  0
VERTEX
  8
0
  5
A9C
 10
4.33526
 20
-0.274918
 30
0.000000
  70
    32
  0
VERTEX
  8
0
  5
A9D
 10
4.33500
 20
-0.275105
 30
0.000000
  70
    32
  0
VERTEX
  8
0
  5
A9E
 10
4.33473
 20
-0.275289
 30
0.000000
  70
    32
  0
VERTEX
  8
0
  5
A9F
 10
4.33447
 20
-0.275472
 30
0.000000
  70
    32
  0
VERTEX
  8
0
  5
AA0
 10
4.33420
 20
-0.275653
 30
0.000000
  70
    32
  0
VERTEX
  8
0
  5
AA1
 10
4.33393
 20
-0.275832
 30
0.000000
  70
    32
  0
VERTEX
  8
0
  5
AA2
 10
4.33366
 20
-0.276009
 30
0.000000
  70
    32
  0
VERTEX
  8
0
  5
AA3
 10
4.33339
 20
-0.276184
 30
0.000000
  70
    32
  0
VERTEX
  8
0
  5
AA4
 10
4.33311
 20
-0.276357
 30
0.000000
  70
    32
  0
VERTEX
  8
0
  5
AA5
 10
4.33283
 20
-0.276528
 30
0.000000
  70
    32
  0
VERTEX
  8
0
  5
AA6
 10
4.33255
 20
-0.276697
 30
0.000000
  70
    32
  0
VERTEX
  8
0
  5
AA7
 10
4.33227
 20
-0.276864
 30
0.000000
  70
    32
  0
VERTEX
  8
0
  5
AA8
 10
4.33199
 20
-0.277030
 30
0.000000
  70
    32
  0
VERTEX
  8
0
  5
AA9
 10
4.33170
 20
-0.277193
 30
0.000000
  70
    32
  0
VERTEX
  8
0
  5
AAA
 10
4.33141
 20
-0.277354
 30
0.000000
  70
    32
  0
VERTEX
  8
0
  5
AAB
 10
4.33112
 20
-0.277513
 30
0.000000
  70
    32
  0
VERTEX
  8
0
  5
AAC
 10
4.33083
 20
-0.277670
 30
0.000000
  70
    32
  0
VERTEX
  8
0
  5
AAD
 10
4.33054
 20
-0.277825
 30
0.000000
  70
    32
  0
VERTEX
  8
0
  5
AAE
 10
4.33024
 20
-0.277978
 30
0.000000
  70
    32
  0
VERTEX
  8
0
  5
AAF
 10
4.32994
 20
-0.278129
 30
0.000000
  70
    32
  0
VERTEX
  8
0
  5
AB0
 10
4.32965
 20
-0.278278
 30
0.000000
  70
    32
  0
VERTEX
  8
0
  5
AB1
 10
4.32934
 20
-0.278424
 30
0.000000
  70
    32
  0
VERTEX
  8
0
  5
AB2
 10
4.32904
 20
-0.278569
 30
0.000000
  70
    32
  0
VERTEX
  8
0
  5
AB3
 10
4.32874
 20
-0.278711
 30
0.000000
  70
    32
  0
VERTEX
  8
0
  5
AB4
 10
4.32843
 20
-0.278852
 30
0.000000
  70
    32
  0
VERTEX
  8
0
  5
AB5
 10
4.32812
 20
-0.278990
 30
0.000000
  70
    32
  0
VERTEX
  8
0
  5
AB6
 10
4.32781
 20
-0.279125
 30
0.000000
  70
    32
  0
VERTEX
  8
0
  5
AB7
 10
4.32750
 20
-0.279259
 30
0.000000
  70
    32
  0
VERTEX
  8
0
  5
AB8
 10
4.32719
 20
-0.279391
 30
0.000000
  70
    32
  0
VERTEX
  8
0
  5
AB9
 10
4.32687
 20
-0.279520
 30
0.000000
  70
    32
  0
VERTEX
  8
0
  5
ABA
 10
4.32655
 20
-0.279647
 30
0.000000
  70
    32
  0
VERTEX
  8
0
  5
ABB
 10
4.32624
 20
-0.279772
 30
0.000000
  70
    32
  0
VERTEX
  8
0
  5
ABC
 10
4.32592
 20
-0.279894
 30
0.000000
  70
    32
  0
VERTEX
  8
0
  5
ABD
 10
4.32559
 20
-0.280014
 30
0.000000
  70
    32
  0
VERTEX
  8
0
  5
ABE
 10
4.32527
 20
-0.280132
 30
0.000000
  70
    32
  0
VERTEX
  8
0
  5
ABF
 10
4.32494
 20
-0.280248
 30
0.000000
  70
    32
  0
VERTEX
  8
0
  5
AC0
 10
4.32462
 20
-0.280361
 30
0.000000
  70
    32
  0
VERTEX
  8
0
  5
AC1
 10
4.32429
 20
-0.280472
 30
0.000000
  70
    32
  0
VERTEX
  8
0
  5
AC2
 10
4.32396
 20
-0.280580
 30
0.000000
  70
    32
  0
VERTEX
  8
0
  5
AC3
 10
4.32363
 20
-0.280687
 30
0.000000
  70
    32
  0
VERTEX
  8
0
  5
AC4
 10
4.32330
 20
-0.280790
 30
0.000000
  70
    32
  0
VERTEX
  8
0
  5
AC5
 10
4.32296
 20
-0.280892
 30
0.000000
  70
    32
  0
VERTEX
  8
0
  5
AC6
 10
4.32263
 20
-0.280991
 30
0.000000
  70
    32
  0
VERTEX
  8
0
  5
AC7
 10
4.32229
 20
-0.281087
 30
0.000000
  70
    32
  0
VERTEX
  8
0
  5
AC8
 10
4.32195
 20
-0.281182
 30
0.000000
  70
    32
  0
VERTEX
  8
0
  5
AC9
 10
4.32161
 20
-0.281273
 30
0.000000
  70
    32
  0
VERTEX
  8
0
  5
ACA
 10
4.32127
 20
-0.281363
 30
0.000000
  70
    32
  0
VERTEX
  8
0
  5
ACB
 10
4.32092
 20
-0.281450
 30
0.000000
  70
    32
  0
VERTEX
  8
0
  5
ACC
 10
4.32058
 20
-0.281534
 30
0.000000
  70
    32
  0
VERTEX
  8
0
  5
ACD
 10
4.32023
 20
-0.281616
 30
0.000000
  70
    32
  0
VERTEX
  8
0
  5
ACE
 10
4.31989
 20
-0.281695
 30
0.000000
  70
    32
  0
VERTEX
  8
0
  5
ACF
 10
4.31954
 20
-0.281772
 30
0.000000
  70
    32
  0
VERTEX
  8
0
  5
AD0
 10
4.31919
 20
-0.281846
 30
0.000000
  70
    32
  0
VERTEX
  8
0
  5
AD1
 10
4.31884
 20
-0.281918
 30
0.000000
  70
    32
  0
VERTEX
  8
0
  5
AD2
 10
4.31848
 20
-0.281987
 30
0.000000
  70
    32
  0
VERTEX
  8
0
  5
AD3
 10
4.31813
 20
-0.282053
 30
0.000000
  70
    32
  0
VERTEX
  8
0
  5
AD4
 10
4.31778
 20
-0.282117
 30
0.000000
  70
    32
  0
VERTEX
  8
0
  5
AD5
 10
4.31742
 20
-0.282179
 30
0.000000
  70
    32
  0
VERTEX
  8
0
  5
AD6
 10
4.31706
 20
-0.282238
 30
0.000000
  70
    32
  0
VERTEX
  8
0
  5
AD7
 10
4.31670
 20
-0.282294
 30
0.000000
  70
    32
  0
VERTEX
  8
0
  5
AD8
 10
4.31634
 20
-0.282347
 30
0.000000
  70
    32
  0
VERTEX
  8
0
  5
AD9
 10
4.31598
 20
-0.282398
 30
0.000000
  70
    32
  0
VERTEX
  8
0
  5
ADA
 10
4.31562
 20
-0.282446
 30
0.000000
  70
    32
  0
VERTEX
  8
0
  5
ADB
 10
4.31526
 20
-0.282491
 30
0.000000
  70
    32
  0
VERTEX
  8
0
  5
ADC
 10
4.31489
 20
-0.282534
 30
0.000000
  70
    32
  0
VERTEX
  8
0
  5
ADD
 10
4.31453
 20
-0.282574
 30
0.000000
  70
    32
  0
VERTEX
  8
0
  5
ADE
 10
4.31416
 20
-0.282611
 30
0.000000
  70
    32
  0
VERTEX
  8
0
  5
ADF
 10
4.31379
 20
-0.282646
 30
0.000000
  70
    32
  0
VERTEX
  8
0
  5
AE0
 10
4.31342
 20
-0.282678
 30
0.000000
  70
    32
  0
VERTEX
  8
0
  5
AE1
 10
4.31305
 20
-0.282707
 30
0.000000
  70
    32
  0
VERTEX
  8
0
  5
AE2
 10
4.31268
 20
-0.282733
 30
0.000000
  70
    32
  0
VERTEX
  8
0
  5
AE3
 10
4.31231
 20
-0.282756
 30
0.000000
  70
    32
  0
VERTEX
  8
0
  5
AE4
 10
4.31194
 20
-0.282777
 30
0.000000
  70
    32
  0
VERTEX
  8
0
  5
AE5
 10
4.31156
 20
-0.282795
 30
0.000000
  70
    32
  0
VERTEX
  8
0
  5
AE6
 10
4.31119
 20
-0.282810
 30
0.000000
  70
    32
  0
VERTEX
  8
0
  5
AE7
 10
4.31081
 20
-0.282822
 30
0.000000
  70
    32
  0
VERTEX
  8
0
  5
AE8
 10
4.31044
 20
-0.282831
 30
0.000000
  70
    32
  0
VERTEX
  8
0
  5
AE9
 10
4.31006
 20
-0.282838
 30
0.000000
  70
    32
  0
VERTEX
  8
0
  5
AEA
 10
4.30968
 20
-0.282841
 30
0.000000
  70
    32
  0
VERTEX
  8
0
  5
AEB
 10
4.30911
 20
-0.282838
 30
0.000000
  70
    32
  0
VERTEX
  8
0
  5
AEC
 10
4.30849
 20
-0.282826
 30
0.000000
  70
    32
  0
VERTEX
  8
0
  5
AED
 10
4.30788
 20
-0.282807
 30
0.000000
  70
    32
  0
VERTEX
  8
0
  5
AEE
 10
4.30726
 20
-0.282780
 30
0.000000
  70
    32
  0
VERTEX
  8
0
  5
AEF
 10
4.30665
 20
-0.282745
 30
0.000000
  70
    32
  0
VERTEX
  8
0
  5
AF0
 10
4.30604
 20
-0.282702
 30
0.000000
  70
    32
  0
VERTEX
  8
0
  5
AF1
 10
4.30544
 20
-0.282652
 30
0.000000
  70
    32
  0
VERTEX
  8
0
  5
AF2
 10
4.30483
 20
-0.282594
 30
0.000000
  70
    32
  0
VERTEX
  8
0
  5
AF3
 10
4.30423
 20
-0.282529
 30
0.000000
  70
    32
  0
VERTEX
  8
0
  5
AF4
 10
4.30364
 20
-0.282456
 30
0.000000
  70
    32
  0
VERTEX
  8
0
  5
AF5
 10
4.30304
 20
-0.282376
 30
0.000000
  70
    32
  0
VERTEX
  8
0
  5
AF6
 10
4.30245
 20
-0.282289
 30
0.000000
  70
    32
  0
VERTEX
  8
0
  5
AF7
 10
4.30186
 20
-0.282194
 30
0.000000
  70
    32
  0
VERTEX
  8
0
  5
AF8
 10
4.30128
 20
-0.282092
 30
0.000000
  70
    32
  0
VERTEX
  8
0
  5
AF9
 10
4.30069
 20
-0.281983
 30
0.000000
  70
    32
  0
VERTEX
  8
0
  5
AFA
 10
4.30012
 20
-0.281867
 30
0.000000
  70
    32
  0
VERTEX
  8
0
  5
AFB
 10
4.29954
 20
-0.281744
 30
0.000000
  70
    32
  0
VERTEX
  8
0
  5
AFC
 10
4.29897
 20
-0.281614
 30
0.000000
  70
    32
  0
VERTEX
  8
0
  5
AFD
 10
4.29840
 20
-0.281476
 30
0.000000
  70
    32
  0
VERTEX
  8
0
  5
AFE
 10
4.29784
 20
-0.281332
 30
0.000000
  70
    32
  0
VERTEX
  8
0
  5
AFF
 10
4.29728
 20
-0.281182
 30
0.000000
  70
    32
  0
VERTEX
  8
0
  5
B00
 10
4.29672
 20
-0.281024
 30
0.000000
  70
    32
  0
VERTEX
  8
0
  5
B01
 10
4.29617
 20
-0.280860
 30
0.000000
  70
    32
  0
VERTEX
  8
0
  5
B02
 10
4.29562
 20
-0.280689
 30
0.000000
  70
    32
  0
VERTEX
  8
0
  5
B03
 10
4.29507
 20
-0.280512
 30
0.000000
  70
    32
  0
VERTEX
  8
0
  5
B04
 10
4.29453
 20
-0.280328
 30
0.000000
  70
    32
  0
VERTEX
  8
0
  5
B05
 10
4.29399
 20
-0.280137
 30
0.000000
  70
    32
  0
VERTEX
  8
0
  5
B06
 10
4.29346
 20
-0.279941
 30
0.000000
  70
    32
  0
VERTEX
  8
0
  5
B07
 10
4.29293
 20
-0.279737
 30
0.000000
  70
    32
  0
VERTEX
  8
0
  5
B08
 10
4.29241
 20
-0.279528
 30
0.000000
  70
    32
  0
VERTEX
  8
0
  5
B09
 10
4.29189
 20
-0.279312
 30
0.000000
  70
    32
  0
VERTEX
  8
0
  5
B0A
 10
4.29137
 20
-0.279091
 30
0.000000
  70
    32
  0
VERTEX
  8
0
  5
B0B
 10
4.29086
 20
-0.278863
 30
0.000000
  70
    32
  0
VERTEX
  8
0
  5
B0C
 10
4.29036
 20
-0.278629
 30
0.000000
  70
    32
  0
VERTEX
  8
0
  5
B0D
 10
4.28986
 20
-0.278389
 30
0.000000
  70
    32
  0
VERTEX
  8
0
  5
B0E
 10
4.28936
 20
-0.278143
 30
0.000000
  70
    32
  0
VERTEX
  8
0
  5
B0F
 10
4.28887
 20
-0.277891
 30
0.000000
  70
    32
  0
VERTEX
  8
0
  5
B10
 10
4.28838
 20
-0.277634
 30
0.000000
  70
    32
  0
VERTEX
  8
0
  5
B11
 10
4.28790
 20
-0.277371
 30
0.000000
  70
    32
  0
VERTEX
  8
0
  5
B12
 10
4.28743
 20
-0.277102
 30
0.000000
  70
    32
  0
VERTEX
  8
0
  5
B13
 10
4.28696
 20
-0.276827
 30
0.000000
  70
    32
  0
VERTEX
  8
0
  5
B14
 10
4.28649
 20
-0.276547
 30
0.000000
  70
    32
  0
VERTEX
  8
0
  5
B15
 10
4.28603
 20
-0.276261
 30
0.000000
  70
    32
  0
VERTEX
  8
0
  5
B16
 10
4.28558
 20
-0.275970
 30
0.000000
  70
    32
  0
VERTEX
  8
0
  5
B17
 10
4.28513
 20
-0.275674
 30
0.000000
  70
    32
  0
VERTEX
  8
0
  5
B18
 10
4.28468
 20
-0.275372
 30
0.000000
  70
    32
  0
VERTEX
  8
0
  5
B19
 10
4.28425
 20
-0.275065
 30
0.000000
  70
    32
  0
VERTEX
  8
0
  5
B1A
 10
4.28381
 20
-0.274752
 30
0.000000
  70
    32
  0
VERTEX
  8
0
  5
B1B
 10
4.28339
 20
-0.274435
 30
0.000000
  70
    32
  0
VERTEX
  8
0
  5
B1C
 10
4.28297
 20
-0.274112
 30
0.000000
  70
    32
  0
VERTEX
  8
0
  5
B1D
 10
4.28255
 20
-0.273784
 30
0.000000
  70
    32
  0
VERTEX
  8
0
  5
B1E
 10
4.28214
 20
-0.273451
 30
0.000000
  70
    32
  0
VERTEX
  8
0
  5
B1F
 10
4.28174
 20
-0.273114
 30
0.000000
  70
    32
  0
VERTEX
  8
0
  5
B20
 10
4.28135
 20
-0.272771
 30
0.000000
  70
    32
  0
VERTEX
  8
0
  5
B21
 10
4.28096
 20
-0.272424
 30
0.000000
  70
    32
  0
VERTEX
  8
0
  5
B22
 10
4.28057
 20
-0.272072
 30
0.000000
  70
    32
  0
VERTEX
  8
0
  5
B23
 10
4.28020
 20
-0.271715
 30
0.000000
  70
    32
  0
VERTEX
  8
0
  5
B24
 10
4.27983
 20
-0.271354
 30
0.000000
  70
    32
  0
VERTEX
  8
0
  5
B25
 10
4.27946
 20
-0.270988
 30
0.000000
  70
    32
  0
VERTEX
  8
0
  5
B26
 10
4.27911
 20
-0.270617
 30
0.000000
  70
    32
  0
VERTEX
  8
0
  5
B27
 10
4.27876
 20
-0.270242
 30
0.000000
  70
    32
  0
VERTEX
  8
0
  5
B28
 10
4.27841
 20
-0.269863
 30
0.000000
  70
    32
  0
VERTEX
  8
0
  5
B29
 10
4.27808
 20
-0.269479
 30
0.000000
  70
    32
  0
VERTEX
  8
0
  5
B2A
 10
4.27775
 20
-0.269091
 30
0.000000
  70
    32
  0
VERTEX
  8
0
  5
B2B
 10
4.27742
 20
-0.268699
 30
0.000000
  70
    32
  0
VERTEX
  8
0
  5
B2C
 10
4.27711
 20
-0.268302
 30
0.000000
  70
    32
  0
VERTEX
  8
0
  5
B2D
 10
4.27680
 20
-0.267902
 30
0.000000
  70
    32
  0
VERTEX
  8
0
  5
B2E
 10
4.27650
 20
-0.267497
 30
0.000000
  70
    32
  0
VERTEX
  8
0
  5
B2F
 10
4.27621
 20
-0.267088
 30
0.000000
  70
    32
  0
VERTEX
  8
0
  5
B30
 10
4.27592
 20
-0.266676
 30
0.000000
  70
    32
  0
VERTEX
  8
0
  5
B31
 10
4.27564
 20
-0.266259
 30
0.000000
  70
    32
  0
VERTEX
  8
0
  5
B32
 10
4.27537
 20
-0.265839
 30
0.000000
  70
    32
  0
VERTEX
  8
0
  5
B33
 10
4.27511
 20
-0.265415
 30
0.000000
  70
    32
  0
VERTEX
  8
0
  5
B34
 10
4.27485
 20
-0.264987
 30
0.000000
  70
    32
  0
VERTEX
  8
0
  5
B35
 10
4.27460
 20
-0.264556
 30
0.000000
  70
    32
  0
VERTEX
  8
0
  5
B36
 10
4.27436
 20
-0.264121
 30
0.000000
  70
    32
  0
VERTEX
  8
0
  5
B37
 10
4.27413
 20
-0.263683
 30
0.000000
  70
    32
  0
VERTEX
  8
0
  5
B38
 10
4.27391
 20
-0.263241
 30
0.000000
  70
    32
  0
VERTEX
  8
0
  5
B39
 10
4.27369
 20
-0.262795
 30
0.000000
  70
    32
  0
VERTEX
  8
0
  5
B3A
 10
4.27348
 20
-0.262347
 30
0.000000
  70
    32
  0
VERTEX
  8
0
  5
B3B
 10
4.27328
 20
-0.261894
 30
0.000000
  70
    32
  0
VERTEX
  8
0
  5
B3C
 10
4.27309
 20
-0.261439
 30
0.000000
  70
    32
  0
VERTEX
  8
0
  5
B3D
 10
4.27291
 20
-0.260981
 30
0.000000
  70
    32
  0
VERTEX
  8
0
  5
B3E
 10
4.27274
 20
-0.260519
 30
0.000000
  70
    32
  0
VERTEX
  8
0
  5
B3F
 10
4.27257
 20
-0.260055
 30
0.000000
  70
    32
  0
VERTEX
  8
0
  5
B40
 10
4.27241
 20
-0.259587
 30
0.000000
  70
    32
  0
VERTEX
  8
0
  5
B41
 10
4.27227
 20
-0.259116
 30
0.000000
  70
    32
  0
VERTEX
  8
0
  5
B42
 10
4.27213
 20
-0.258643
 30
0.000000
  70
    32
  0
VERTEX
  8
0
  5
B43
 10
4.27200
 20
-0.258167
 30
0.000000
  70
    32
  0
VERTEX
  8
0
  5
B44
 10
4.27187
 20
-0.257688
 30
0.000000
  70
    32
  0
VERTEX
  8
0
  5
B45
 10
4.27176
 20
-0.257206
 30
0.000000
  70
    32
  0
VERTEX
  8
0
  5
B46
 10
4.27166
 20
-0.256721
 30
0.000000
  70
    32
  0
VERTEX
  8
0
  5
B47
 10
4.27156
 20
-0.256234
 30
0.000000
  70
    32
  0
VERTEX
  8
0
  5
B48
 10
4.27148
 20
-0.255745
 30
0.000000
  70
    32
  0
VERTEX
  8
0
  5
B49
 10
4.27140
 20
-0.255253
 30
0.000000
  70
    32
  0
VERTEX
  8
0
  5
B4A
 10
4.27134
 20
-0.254758
 30
0.000000
  70
    32
  0
VERTEX
  8
0
  5
B4B
 10
4.27128
 20
-0.254262
 30
0.000000
  70
    32
  0
VERTEX
  8
0
  5
B4C
 10
4.27123
 20
-0.253763
 30
0.000000
  70
    32
  0
VERTEX
  8
0
  5
B4D
 10
4.27120
 20
-0.253261
 30
0.000000
  70
    32
  0
VERTEX
  8
0
  5
B4E
 10
4.27117
 20
-0.252758
 30
0.000000
  70
    32
  0
VERTEX
  8
0
  5
B4F
 10
4.27115
 20
-0.252252
 30
0.000000
  70
    32
  0
VERTEX
  8
0
  5
B50
 10
4.27114
 20
-0.251744
 30
0.000000
  70
    32
  0
VERTEX
  8
0
  5
B51
 10
4.27114
 20
-0.251485
 30
0.000000
  70
    32
  0
VERTEX
  8
0
  5
B52
 10
4.27114
 20
-0.251146
 30
0.000000
  70
    32
  0
VERTEX
  8
0
  5
B53
 10
4.27114
 20
-0.250506
 30
0.000000
  70
    32
  0
VERTEX
  8
0
  5
B54
 10
4.27114
 20
-0.249571
 30
0.000000
  70
    32
  0
VERTEX
  8
0
  5
B55
 10
4.27114
 20
-0.248346
 30
0.000000
  70
    32
  0
VERTEX
  8
0
  5
B56
 10
4.27114
 20
-0.246838
 30
0.000000
  70
    32
  0
VERTEX
  8
0
  5
B57
 10
4.27114
 20
-0.245053
 30
0.000000
  70
    32
  0
VERTEX
  8
0
  5
B58
 10
4.27114
 20
-0.242997
 30
0.000000
  70
    32
  0
VERTEX
  8
0
  5
B59
 10
4.27114
 20
-0.240676
 30
0.000000
  70
    32
  0
VERTEX
  8
0
  5
B5A
 10
4.27114
 20
-0.238096
 30
0.000000
  70
    32
  0
VERTEX
  8
0
  5
B5B
 10
4.27114
 20
-0.235263
 30
0.000000
  70
    32
  0
VERTEX
  8
0
  5
B5C
 10
4.27114
 20
-0.232183
 30
0.000000
  70
    32
  0
VERTEX
  8
0
  5
B5D
 10
4.27114
 20
-0.228863
 30
0.000000
  70
    32
  0
VERTEX
  8
0
  5
B5E
 10
4.27114
 20
-0.225308
 30
0.000000
  70
    32
  0
VERTEX
  8
0
  5
B5F
 10
4.27114
 20
-0.221525
 30
0.000000
  70
    32
  0
VERTEX
  8
0
  5
B60
 10
4.27114
 20
-0.217519
 30
0.000000
  70
    32
  0
VERTEX
  8
0
  5
B61
 10
4.27114
 20
-0.213298
 30
0.000000
  70
    32
  0
VERTEX
  8
0
  5
B62
 10
4.27114
 20
-0.208866
 30
0.000000
  70
    32
  0
VERTEX
  8
0
  5
B63
 10
4.27114
 20
-0.204230
 30
0.000000
  70
    32
  0
VERTEX
  8
0
  5
B64
 10
4.27114
 20
-0.199396
 30
0.000000
  70
    32
  0
VERTEX
  8
0
  5
B65
 10
4.27114
 20
-0.194370
 30
0.000000
  70
    32
  0
VERTEX
  8
0
  5
B66
 10
4.27114
 20
-0.189159
 30
0.000000
  70
    32
  0
VERTEX
  8
0
  5
B67
 10
4.27114
 20
-0.183767
 30
0.000000
  70
    32
  0
VERTEX
  8
0
  5
B68
 10
4.27114
 20
-0.178202
 30
0.000000
  70
    32
  0
VERTEX
  8
0
  5
B69
 10
4.27114
 20
-0.172470
 30
0.000000
  70
    32
  0
VERTEX
  8
0
  5
B6A
 10
4.27114
 20
-0.166576
 30
0.000000
  70
    32
  0
VERTEX
  8
0
  5
B6B
 10
4.27114
 20
-0.160527
 30
0.000000
  70
    32
  0
VERTEX
  8
0
  5
B6C
 10
4.27114
 20
-0.154329
 30
0.000000
  70
    32
  0
VERTEX
  8
0
  5
B6D
 10
4.27114
 20
-0.147987
 30
0.000000
  70
    32
  0
VERTEX
  8
0
  5
B6E
 10
4.27114
 20
-0.141508
 30
0.000000
  70
    32
  0
VERTEX
  8
0
  5
B6F
 10
4.27114
 20
-0.134899
 30
0.000000
  70
    32
  0
VERTEX
  8
0
  5
B70
 10
4.27114
 20
-0.128164
 30
0.000000
  70
    32
  0
VERTEX
  8
0
  5
B71
 10
4.27114
 20
-0.121311
 30
0.000000
  70
    32
  0
VERTEX
  8
0
  5
B72
 10
4.27114
 20
-0.114345
 30
0.000000
  70
    32
  0
VERTEX
  8
0
  5
B73
 10
4.27114
 20
-0.107273
 30
0.000000
  70
    32
  0
VERTEX
  8
0
  5
B74
 10
4.27114
 20
-0.100100
 30
0.000000
  70
    32
  0
VERTEX
  8
0
  5
B75
 10
4.27114
 20
-0.0928324
 30
0.000000
  70
    32
  0
VERTEX
  8
0
  5
B76
 10
4.27114
 20
-0.0854766
 30
0.000000
  70
    32
  0
VERTEX
  8
0
  5
B77
 10
4.27114
 20
-0.0780386
 30
0.000000
  70
    32
  0
VERTEX
  8
0
  5
B78
 10
4.27114
 20
-0.0705245
 30
0.000000
  70
    32
  0
VERTEX
  8
0
  5
B79
 10
4.27114
 20
-0.0629403
 30
0.000000
  70
    32
  0
VERTEX
  8
0
  5
B7A
 10
4.27114
 20
-0.0552921
 30
0.000000
  70
    32
  0
VERTEX
  8
0
  5
B7B
 10
4.27114
 20
-0.0475861
 30
0.000000
  70
    32
  0
VERTEX
  8
0
  5
B7C
 10
4.27114
 20
-0.0398283
 30
0.000000
  70
    32
  0
VERTEX
  8
0
  5
B7D
 10
4.27114
 20
-0.0320248
 30
0.000000
  70
    32
  0
VERTEX
  8
0
  5
B7E
 10
4.27114
 20
-0.0241817
 30
0.000000
  70
    32
  0
VERTEX
  8
0
  5
B7F
 10
4.27114
 20
-0.0163051
 30
0.000000
  70
    32
  0
VERTEX
  8
0
  5
B80
 10
4.27114
 20
-0.00840116
 30
0.000000
  70
    32
  0
VERTEX
  8
0
  5
B81
 10
4.27114
 20
-0.000475844
 30
0.000000
  70
    32
  0
VERTEX
  8
0
  5
B82
 10
4.27114
 20
0.00746470
 30
0.000000
  70
    32
  0
VERTEX
  8
0
  5
B83
 10
4.27114
 20
0.0154144
 30
0.000000
  70
    32
  0
VERTEX
  8
0
  5
B84
 10
4.27114
 20
0.0233671
 30
0.000000
  70
    32
  0
VERTEX
  8
0
  5
B85
 10
4.27114
 20
0.0313168
 30
0.000000
  70
    32
  0
VERTEX
  8
0
  5
B86
 10
4.27114
 20
0.0392573
 30
0.000000
  70
    32
  0
VERTEX
  8
0
  5
B87
 10
4.27114
 20
0.0471826
 30
0.000000
  70
    32
  0
VERTEX
  8
0
  5
B88
 10
4.27114
 20
0.0550866
 30
0.000000
  70
    32
  0
VERTEX
  8
0
  5
B89
 10
4.27114
 20
0.0629632
 30
0.000000
  70
    32
  0
VERTEX
  8
0
  5
B8A
 10
4.27114
 20
0.0708063
 30
0.000000
  70
    32
  0
VERTEX
  8
0
  5
B8B
 10
4.27114
 20
0.0786098
 30
0.000000
  70
    32
  0
VERTEX
  8
0
  5
B8C
 10
4.27114
 20
0.0863676
 30
0.000000
  70
    32
  0
VERTEX
  8
0
  5
B8D
 10
4.27114
 20
0.0940736
 30
0.000000
  70
    32
  0
VERTEX
  8
0
  5
B8E
 10
4.27114
 20
0.101722
 30
0.000000
  70
    32
  0
VERTEX
  8
0
  5
B8F
 10
4.27114
 20
0.109306
 30
0.000000
  70
    32
  0
VERTEX
  8
0
  5
B90
 10
4.27114
 20
0.116820
 30
0.000000
  70
    32
  0
VERTEX
  8
0
  5
B91
 10
4.27114
 20
0.124258
 30
0.000000
  70
    32
  0
VERTEX
  8
0
  5
B92
 10
4.27114
 20
0.131614
 30
0.000000
  70
    32
  0
VERTEX
  8
0
  5
B93
 10
4.27114
 20
0.138881
 30
0.000000
  70
    32
  0
VERTEX
  8
0
  5
B94
 10
4.27114
 20
0.146054
 30
0.000000
  70
    32
  0
VERTEX
  8
0
  5
B95
 10
4.27114
 20
0.153127
 30
0.000000
  70
    32
  0
VERTEX
  8
0
  5
B96
 10
4.27114
 20
0.160093
 30
0.000000
  70
    32
  0
VERTEX
  8
0
  5
B97
 10
4.27114
 20
0.166946
 30
0.000000
  70
    32
  0
VERTEX
  8
0
  5
B98
 10
4.27114
 20
0.173680
 30
0.000000
  70
    32
  0
VERTEX
  8
0
  5
B99
 10
4.27114
 20
0.180290
 30
0.000000
  70
    32
  0
VERTEX
  8
0
  5
B9A
 10
4.27114
 20
0.186769
 30
0.000000
  70
    32
  0
VERTEX
  8
0
  5
B9B
 10
4.27114
 20
0.193110
 30
0.000000
  70
    32
  0
VERTEX
  8
0
  5
B9C
 10
4.27114
 20
0.199309
 30
0.000000
  70
    32
  0
VERTEX
  8
0
  5
B9D
 10
4.27114
 20
0.205358
 30
0.000000
  70
    32
  0
VERTEX
  8
0
  5
B9E
 10
4.27114
 20
0.211251
 30
0.000000
  70
    32
  0
VERTEX
  8
0
  5
B9F
 10
4.27114
 20
0.216984
 30
0.000000
  70
    32
  0
VERTEX
  8
0
  5
BA0
 10
4.27114
 20
0.222549
 30
0.000000
  70
    32
  0
VERTEX
  8
0
  5
BA1
 10
4.27114
 20
0.227940
 30
0.000000
  70
    32
  0
VERTEX
  8
0
  5
BA2
 10
4.27114
 20
0.233152
 30
0.000000
  70
    32
  0
VERTEX
  8
0
  5
BA3
 10
4.27114
 20
0.238177
 30
0.000000
  70
    32
  0
VERTEX
  8
0
  5
BA4
 10
4.27114
 20
0.243011
 30
0.000000
  70
    32
  0
VERTEX
  8
0
  5
BA5
 10
4.27114
 20
0.247647
 30
0.000000
  70
    32
  0
VERTEX
  8
0
  5
BA6
 10
4.27114
 20
0.252079
 30
0.000000
  70
    32
  0
VERTEX
  8
0
  5
BA7
 10
4.27114
 20
0.256301
 30
0.000000
  70
    32
  0
VERTEX
  8
0
  5
BA8
 10
4.27114
 20
0.260306
 30
0.000000
  70
    32
  0
VERTEX
  8
0
  5
BA9
 10
4.27114
 20
0.264090
 30
0.000000
  70
    32
  0
VERTEX
  8
0
  5
BAA
 10
4.27114
 20
0.267644
 30
0.000000
  70
    32
  0
VERTEX
  8
0
  5
BAB
 10
4.27114
 20
0.270965
 30
0.000000
  70
    32
  0
VERTEX
  8
0
  5
BAC
 10
4.27114
 20
0.274044
 30
0.000000
  70
    32
  0
VERTEX
  8
0
  5
BAD
 10
4.27114
 20
0.276877
 30
0.000000
  70
    32
  0
VERTEX
  8
0
  5
BAE
 10
4.27114
 20
0.279457
 30
0.000000
  70
    32
  0
VERTEX
  8
0
  5
BAF
 10
4.27114
 20
0.281778
 30
0.000000
  70
    32
  0
VERTEX
  8
0
  5
BB0
 10
4.27114
 20
0.283835
 30
0.000000
  70
    32
  0
VERTEX
  8
0
  5
BB1
 10
4.27114
 20
0.285620
 30
0.000000
  70
    32
  0
VERTEX
  8
0
  5
BB2
 10
4.27114
 20
0.287128
 30
0.000000
  70
    32
  0
VERTEX
  8
0
  5
BB3
 10
4.27114
 20
0.288352
 30
0.000000
  70
    32
  0
VERTEX
  8
0
  5
BB4
 10
4.27114
 20
0.289288
 30
0.000000
  70
    32
  0
VERTEX
  8
0
  5
BB5
 10
4.27114
 20
0.289928
 30
0.000000
  70
    32
  0
VERTEX
  8
0
  5
BB6
 10
4.27114
 20
0.290266
 30
0.000000
  70
    32
  0
VERTEX
  8
0
  5
BB7
 10
4.27114
 20
0.290526
 30
0.000000
  70
    32
  0
VERTEX
  8
0
  5
BB8
 10
4.27115
 20
0.291034
 30
0.000000
  70
    32
  0
VERTEX
  8
0
  5
BB9
 10
4.27117
 20
0.291539
 30
0.000000
  70
    32
  0
VERTEX
  8
0
  5
BBA
 10
4.27120
 20
0.292043
 30
0.000000
  70
    32
  0
VERTEX
  8
0
  5
BBB
 10
4.27124
 20
0.292545
 30
0.000000
  70
    32
  0
VERTEX
  8
0
  5
BBC
 10
4.27128
 20
0.293045
 30
0.000000
  70
    32
  0
VERTEX
  8
0
  5
BBD
 10
4.27134
 20
0.293542
 30
0.000000
  70
    32
  0
VERTEX
  8
0
  5
BBE
 10
4.27141
 20
0.294037
 30
0.000000
  70
    32
  0
VERTEX
  8
0
  5
BBF
 10
4.27148
 20
0.294530
 30
0.000000
  70
    32
  0
VERTEX
  8
0
  5
BC0
 10
4.27157
 20
0.295020
 30
0.000000
  70
    32
  0
VERTEX
  8
0
  5
BC1
 10
4.27166
 20
0.295508
 30
0.000000
  70
    32
  0
VERTEX
  8
0
  5
BC2
 10
4.27177
 20
0.295993
 30
0.000000
  70
    32
  0
VERTEX
  8
0
  5
BC3
 10
4.27188
 20
0.296476
 30
0.000000
  70
    32
  0
VERTEX
  8
0
  5
BC4
 10
4.27200
 20
0.296956
 30
0.000000
  70
    32
  0
VERTEX
  8
0
  5
BC5
 10
4.27213
 20
0.297433
 30
0.000000
  70
    32
  0
VERTEX
  8
0
  5
BC6
 10
4.27227
 20
0.297908
 30
0.000000
  70
    32
  0
VERTEX
  8
0
  5
BC7
 10
4.27242
 20
0.298380
 30
0.000000
  70
    32
  0
VERTEX
  8
0
  5
BC8
 10
4.27257
 20
0.298849
 30
0.000000
  70
    32
  0
VERTEX
  8
0
  5
BC9
 10
4.27274
 20
0.299315
 30
0.000000
  70
    32
  0
VERTEX
  8
0
  5
BCA
 10
4.27291
 20
0.299778
 30
0.000000
  70
    32
  0
VERTEX
  8
0
  5
BCB
 10
4.27309
 20
0.300238
 30
0.000000
  70
    32
  0
VERTEX
  8
0
  5
BCC
 10
4.27328
 20
0.300694
 30
0.000000
  70
    32
  0
VERTEX
  8
0
  5
BCD
 10
4.27348
 20
0.301148
 30
0.000000
  70
    32
  0
VERTEX
  8
0
  5
BCE
 10
4.27368
 20
0.301598
 30
0.000000
  70
    32
  0
VERTEX
  8
0
  5
BCF
 10
4.27390
 20
0.302045
 30
0.000000
  70
    32
  0
VERTEX
  8
0
  5
BD0
 10
4.27412
 20
0.302489
 30
0.000000
  70
    32
  0
VERTEX
  8
0
  5
BD1
 10
4.27435
 20
0.302929
 30
0.000000
  70
    32
  0
VERTEX
  8
0
  5
BD2
 10
4.27459
 20
0.303365
 30
0.000000
  70
    32
  0
VERTEX
  8
0
  5
BD3
 10
4.27484
 20
0.303799
 30
0.000000
  70
    32
  0
VERTEX
  8
0
  5
BD4
 10
4.27509
 20
0.304228
 30
0.000000
  70
    32
  0
VERTEX
  8
0
  5
BD5
 10
4.27535
 20
0.304654
 30
0.000000
  70
    32
  0
VERTEX
  8
0
  5
BD6
 10
4.27562
 20
0.305076
 30
0.000000
  70
    32
  0
VERTEX
  8
0
  5
BD7
 10
4.27590
 20
0.305494
 30
0.000000
  70
    32
  0
VERTEX
  8
0
  5
BD8
 10
4.27618
 20
0.305908
 30
0.000000
  70
    32
  0
VERTEX
  8
0
  5
BD9
 10
4.27647
 20
0.306319
 30
0.000000
  70
    32
  0
VERTEX
  8
0
  5
BDA
 10
4.27677
 20
0.306725
 30
0.000000
  70
    32
  0
VERTEX
  8
0
  5
BDB
 10
4.27708
 20
0.307127
 30
0.000000
  70
    32
  0
VERTEX
  8
0
  5
BDC
 10
4.27739
 20
0.307526
 30
0.000000
  70
    32
  0
VERTEX
  8
0
  5
BDD
 10
4.27771
 20
0.307920
 30
0.000000
  70
    32
  0
VERTEX
  8
0
  5
BDE
 10
4.27804
 20
0.308309
 30
0.000000
  70
    32
  0
VERTEX
  8
0
  5
BDF
 10
4.27837
 20
0.308695
 30
0.000000
  70
    32
  0
VERTEX
  8
0
  5
BE0
 10
4.27871
 20
0.309076
 30
0.000000
  70
    32
  0
VERTEX
  8
0
  5
BE1
 10
4.27906
 20
0.309453
 30
0.000000
  70
    32
  0
VERTEX
  8
0
  5
BE2
 10
4.27941
 20
0.309825
 30
0.000000
  70
    32
  0
VERTEX
  8
0
  5
BE3
 10
4.27977
 20
0.310193
 30
0.000000
  70
    32
  0
VERTEX
  8
0
  5
BE4
 10
4.28014
 20
0.310556
 30
0.000000
  70
    32
  0
VERTEX
  8
0
  5
BE5
 10
4.28052
 20
0.310914
 30
0.000000
  70
    32
  0
VERTEX
  8
0
  5
BE6
 10
4.28090
 20
0.311268
 30
0.000000
  70
    32
  0
VERTEX
  8
0
  5
BE7
 10
4.28128
 20
0.311617
 30
0.000000
  70
    32
  0
VERTEX
  8
0
  5
BE8
 10
4.28168
 20
0.311961
 30
0.000000
  70
    32
  0
VERTEX
  8
0
  5
BE9
 10
4.28208
 20
0.312300
 30
0.000000
  70
    32
  0
VERTEX
  8
0
  5
BEA
 10
4.28248
 20
0.312634
 30
0.000000
  70
    32
  0
VERTEX
  8
0
  5
BEB
 10
4.28290
 20
0.312963
 30
0.000000
  70
    32
  0
VERTEX
  8
0
  5
BEC
 10
4.28331
 20
0.313287
 30
0.000000
  70
    32
  0
VERTEX
  8
0
  5
BED
 10
4.28374
 20
0.313606
 30
0.000000
  70
    32
  0
VERTEX
  8
0
  5
BEE
 10
4.28417
 20
0.313919
 30
0.000000
  70
    32
  0
VERTEX
  8
0
  5
BEF
 10
4.28460
 20
0.314228
 30
0.000000
  70
    32
  0
VERTEX
  8
0
  5
BF0
 10
4.28504
 20
0.314531
 30
0.000000
  70
    32
  0
VERTEX
  8
0
  5
BF1
 10
4.28549
 20
0.314828
 30
0.000000
  70
    32
  0
VERTEX
  8
0
  5
BF2
 10
4.28594
 20
0.315120
 30
0.000000
  70
    32
  0
VERTEX
  8
0
  5
BF3
 10
4.28640
 20
0.315407
 30
0.000000
  70
    32
  0
VERTEX
  8
0
  5
BF4
 10
4.28686
 20
0.315688
 30
0.000000
  70
    32
  0
VERTEX
  8
0
  5
BF5
 10
4.28733
 20
0.315963
 30
0.000000
  70
    32
  0
VERTEX
  8
0
  5
BF6
 10
4.28781
 20
0.316233
 30
0.000000
  70
    32
  0
VERTEX
  8
0
  5
BF7
 10
4.28829
 20
0.316497
 30
0.000000
  70
    32
  0
VERTEX
  8
0
  5
BF8
 10
4.28877
 20
0.316755
 30
0.000000
  70
    32
  0
VERTEX
  8
0
  5
BF9
 10
4.28926
 20
0.317007
 30
0.000000
  70
    32
  0
VERTEX
  8
0
  5
BFA
 10
4.28976
 20
0.317253
 30
0.000000
  70
    32
  0
VERTEX
  8
0
  5
BFB
 10
4.29026
 20
0.317493
 30
0.000000
  70
    32
  0
VERTEX
  8
0
  5
BFC
 10
4.29076
 20
0.317727
 30
0.000000
  70
    32
  0
VERTEX
  8
0
  5
BFD
 10
4.29127
 20
0.317955
 30
0.000000
  70
    32
  0
VERTEX
  8
0
  5
BFE
 10
4.29178
 20
0.318177
 30
0.000000
  70
    32
  0
VERTEX
  8
0
  5
BFF
 10
4.29230
 20
0.318393
 30
0.000000
  70
    32
  0
VERTEX
  8
0
  5
C00
 10
4.29282
 20
0.318602
 30
0.000000
  70
    32
  0
VERTEX
  8
0
  5
C01
 10
4.29335
 20
0.318804
 30
0.000000
  70
    32
  0
VERTEX
  8
0
  5
C02
 10
4.29388
 20
0.319001
 30
0.000000
  70
    32
  0
VERTEX
  8
0
  5
C03
 10
4.29442
 20
0.319191
 30
0.000000
  70
    32
  0
VERTEX
  8
0
  5
C04
 10
4.29496
 20
0.319374
 30
0.000000
  70
    32
  0
VERTEX
  8
0
  5
C05
 10
4.29550
 20
0.319550
 30
0.000000
  70
    32
  0
VERTEX
  8
0
  5
C06
 10
4.29605
 20
0.319720
 30
0.000000
  70
    32
  0
VERTEX
  8
0
  5
C07
 10
4.29661
 20
0.319883
 30
0.000000
  70
    32
  0
VERTEX
  8
0
  5
C08
 10
4.29716
 20
0.320040
 30
0.000000
  70
    32
  0
VERTEX
  8
0
  5
C09
 10
4.29772
 20
0.320189
 30
0.000000
  70
    32
  0
VERTEX
  8
0
  5
C0A
 10
4.29829
 20
0.320332
 30
0.000000
  70
    32
  0
VERTEX
  8
0
  5
C0B
 10
4.29886
 20
0.320467
 30
0.000000
  70
    32
  0
VERTEX
  8
0
  5
C0C
 10
4.29943
 20
0.320596
 30
0.000000
  70
    32
  0
VERTEX
  8
0
  5
C0D
 10
4.30001
 20
0.320717
 30
0.000000
  70
    32
  0
VERTEX
  8
0
  5
C0E
 10
4.30059
 20
0.320831
 30
0.000000
  70
    32
  0
VERTEX
  8
0
  5
C0F
 10
4.30117
 20
0.320938
 30
0.000000
  70
    32
  0
VERTEX
  8
0
  5
C10
 10
4.30175
 20
0.321038
 30
0.000000
  70
    32
  0
VERTEX
  8
0
  5
C11
 10
4.30234
 20
0.321130
 30
0.000000
  70
    32
  0
VERTEX
  8
0
  5
C12
 10
4.30294
 20
0.321215
 30
0.000000
  70
    32
  0
VERTEX
  8
0
  5
C13
 10
4.30353
 20
0.321292
 30
0.000000
  70
    32
  0
VERTEX
  8
0
  5
C14
 10
4.30413
 20
0.321362
 30
0.000000
  70
    32
  0
VERTEX
  8
0
  5
C15
 10
4.30473
 20
0.321424
 30
0.000000
  70
    32
  0
VERTEX
  8
0
  5
C16
 10
4.30534
 20
0.321478
 30
0.000000
  70
    32
  0
VERTEX
  8
0
  5
C17
 10
4.30595
 20
0.321525
 30
0.000000
  70
    32
  0
VERTEX
  8
0
  5
C18
 10
4.30656
 20
0.321564
 30
0.000000
  70
    32
  0
VERTEX
  8
0
  5
C19
 10
4.30717
 20
0.321595
 30
0.000000
  70
    32
  0
VERTEX
  8
0
  5
C1A
 10
4.30779
 20
0.321618
 30
0.000000
  70
    32
  0
VERTEX
  8
0
  5
C1B
 10
4.30841
 20
0.321633
 30
0.000000
  70
    32
  0
VERTEX
  8
0
  5
C1C
 10
4.30903
 20
0.321641
 30
0.000000
  70
    32
  0
VERTEX
  8
0
  5
C1D
 10
4.30959
 20
0.321640
 30
0.000000
  70
    32
  0
VERTEX
  8
0
  5
C1E
 10
4.30988
 20
0.321638
 30
0.000000
  70
    32
  0
VERTEX
  8
0
  5
C1F
 10
4.31017
 20
0.321634
 30
0.000000
  70
    32
  0
VERTEX
  8
0
  5
C20
 10
4.31046
 20
0.321629
 30
0.000000
  70
    32
  0
VERTEX
  8
0
  5
C21
 10
4.31075
 20
0.321622
 30
0.000000
  70
    32
  0
VERTEX
  8
0
  5
C22
 10
4.31103
 20
0.321613
 30
0.000000
  70
    32
  0
VERTEX
  8
0
  5
C23
 10
4.31132
 20
0.321602
 30
0.000000
  70
    32
  0
VERTEX
  8
0
  5
C24
 10
4.31161
 20
0.321590
 30
0.000000
  70
    32
  0
VERTEX
  8
0
  5
C25
 10
4.31189
 20
0.321576
 30
0.000000
  70
    32
  0
VERTEX
  8
0
  5
C26
 10
4.31218
 20
0.321561
 30
0.000000
  70
    32
  0
VERTEX
  8
0
  5
C27
 10
4.31246
 20
0.321544
 30
0.000000
  70
    32
  0
VERTEX
  8
0
  5
C28
 10
4.31275
 20
0.321525
 30
0.000000
  70
    32
  0
VERTEX
  8
0
  5
C29
 10
4.31303
 20
0.321504
 30
0.000000
  70
    32
  0
VERTEX
  8
0
  5
C2A
 10
4.31332
 20
0.321482
 30
0.000000
  70
    32
  0
VERTEX
  8
0
  5
C2B
 10
4.31360
 20
0.321459
 30
0.000000
  70
    32
  0
VERTEX
  8
0
  5
C2C
 10
4.31388
 20
0.321433
 30
0.000000
  70
    32
  0
VERTEX
  8
0
  5
C2D
 10
4.31416
 20
0.321406
 30
0.000000
  70
    32
  0
VERTEX
  8
0
  5
C2E
 10
4.31444
 20
0.321378
 30
0.000000
  70
    32
  0
VERTEX
  8
0
  5
C2F
 10
4.31472
 20
0.321348
 30
0.000000
  70
    32
  0
VERTEX
  8
0
  5
C30
 10
4.31500
 20
0.321316
 30
0.000000
  70
    32
  0
VERTEX
  8
0
  5
C31
 10
4.31528
 20
0.321283
 30
0.000000
  70
    32
  0
VERTEX
  8
0
  5
C32
 10
4.31556
 20
0.321248
 30
0.000000
  70
    32
  0
VERTEX
  8
0
  5
C33
 10
4.31583
 20
0.321212
 30
0.000000
  70
    32
  0
VERTEX
  8
0
  5
C34
 10
4.31611
 20
0.321174
 30
0.000000
  70
    32
  0
VERTEX
  8
0
  5
C35
 10
4.31639
 20
0.321134
 30
0.000000
  70
    32
  0
VERTEX
  8
0
  5
C36
 10
4.31666
 20
0.321093
 30
0.000000
  70
    32
  0
VERTEX
  8
0
  5
C37
 10
4.31693
 20
0.321051
 30
0.000000
  70
    32
  0
VERTEX
  8
0
  5
C38
 10
4.31721
 20
0.321006
 30
0.000000
  70
    32
  0
VERTEX
  8
0
  5
C39
 10
4.31748
 20
0.320961
 30
0.000000
  70
    32
  0
VERTEX
  8
0
  5
C3A
 10
4.31775
 20
0.320914
 30
0.000000
  70
    32
  0
VERTEX
  8
0
  5
C3B
 10
4.31802
 20
0.320865
 30
0.000000
  70
    32
  0
VERTEX
  8
0
  5
C3C
 10
4.31829
 20
0.320815
 30
0.000000
  70
    32
  0
VERTEX
  8
0
  5
C3D
 10
4.31856
 20
0.320763
 30
0.000000
  70
    32
  0
VERTEX
  8
0
  5
C3E
 10
4.31883
 20
0.320710
 30
0.000000
  70
    32
  0
VERTEX
  8
0
  5
C3F
 10
4.31910
 20
0.320655
 30
0.000000
  70
    32
  0
VERTEX
  8
0
  5
C40
 10
4.31937
 20
0.320599
 30
0.000000
  70
    32
  0
VERTEX
  8
0
  5
C41
 10
4.31963
 20
0.320541
 30
0.000000
  70
    32
  0
VERTEX
  8
0
  5
C42
 10
4.31990
 20
0.320482
 30
0.000000
  70
    32
  0
VERTEX
  8
0
  5
C43
 10
4.32017
 20
0.320422
 30
0.000000
  70
    32
  0
VERTEX
  8
0
  5
C44
 10
4.32043
 20
0.320360
 30
0.000000
  70
    32
  0
VERTEX
  8
0
  5
C45
 10
4.32069
 20
0.320296
 30
0.000000
  70
    32
  0
VERTEX
  8
0
  5
C46
 10
4.32096
 20
0.320231
 30
0.000000
  70
    32
  0
VERTEX
  8
0
  5
C47
 10
4.32122
 20
0.320165
 30
0.000000
  70
    32
  0
VERTEX
  8
0
  5
C48
 10
4.32148
 20
0.320097
 30
0.000000
  70
    32
  0
VERTEX
  8
0
  5
C49
 10
4.32174
 20
0.320028
 30
0.000000
  70
    32
  0
VERTEX
  8
0
  5
C4A
 10
4.32200
 20
0.319958
 30
0.000000
  70
    32
  0
VERTEX
  8
0
  5
C4B
 10
4.32226
 20
0.319886
 30
0.000000
  70
    32
  0
VERTEX
  8
0
  5
C4C
 10
4.32251
 20
0.319812
 30
0.000000
  70
    32
  0
VERTEX
  8
0
  5
C4D
 10
4.32277
 20
0.319737
 30
0.000000
  70
    32
  0
VERTEX
  8
0
  5
C4E
 10
4.32303
 20
0.319661
 30
0.000000
  70
    32
  0
VERTEX
  8
0
  5
C4F
 10
4.32328
 20
0.319584
 30
0.000000
  70
    32
  0
VERTEX
  8
0
  5
C50
 10
4.32354
 20
0.319505
 30
0.000000
  70
    32
  0
VERTEX
  8
0
  5
C51
 10
4.32379
 20
0.319424
 30
0.000000
  70
    32
  0
VERTEX
  8
0
  5
C52
 10
4.32404
 20
0.319343
 30
0.000000
  70
    32
  0
VERTEX
  8
0
  5
C53
 10
4.32430
 20
0.319260
 30
0.000000
  70
    32
  0
VERTEX
  8
0
  5
C54
 10
4.32455
 20
0.319175
 30
0.000000
  70
    32
  0
VERTEX
  8
0
  5
C55
 10
4.32480
 20
0.319090
 30
0.000000
  70
    32
  0
VERTEX
  8
0
  5
C56
 10
4.32505
 20
0.319003
 30
0.000000
  70
    32
  0
VERTEX
  8
0
  5
C57
 10
4.32529
 20
0.318914
 30
0.000000
  70
    32
  0
VERTEX
  8
0
  5
C58
 10
4.32554
 20
0.318825
 30
0.000000
  70
    32
  0
VERTEX
  8
0
  5
C59
 10
4.32579
 20
0.318734
 30
0.000000
  70
    32
  0
VERTEX
  8
0
  5
C5A
 10
4.32603
 20
0.318641
 30
0.000000
  70
    32
  0
VERTEX
  8
0
  5
C5B
 10
4.32628
 20
0.318548
 30
0.000000
  70
    32
  0
VERTEX
  8
0
  5
C5C
 10
4.32652
 20
0.318453
 30
0.000000
  70
    32
  0
VERTEX
  8
0
  5
C5D
 10
4.32676
 20
0.318357
 30
0.000000
  70
    32
  0
VERTEX
  8
0
  5
C5E
 10
4.32701
 20
0.318259
 30
0.000000
  70
    32
  0
VERTEX
  8
0
  5
C5F
 10
4.32725
 20
0.318161
 30
0.000000
  70
    32
  0
VERTEX
  8
0
  5
C60
 10
4.32749
 20
0.318061
 30
0.000000
  70
    32
  0
VERTEX
  8
0
  5
C61
 10
4.32773
 20
0.317959
 30
0.000000
  70
    32
  0
VERTEX
  8
0
  5
C62
 10
4.32796
 20
0.317857
 30
0.000000
  70
    32
  0
VERTEX
  8
0
  5
C63
 10
4.32820
 20
0.317753
 30
0.000000
  70
    32
  0
VERTEX
  8
0
  5
C64
 10
4.32844
 20
0.317648
 30
0.000000
  70
    32
  0
VERTEX
  8
0
  5
C65
 10
4.32867
 20
0.317542
 30
0.000000
  70
    32
  0
VERTEX
  8
0
  5
C66
 10
4.32891
 20
0.317434
 30
0.000000
  70
    32
  0
VERTEX
  8
0
  5
C67
 10
4.32914
 20
0.317326
 30
0.000000
  70
    32
  0
VERTEX
  8
0
  5
C68
 10
4.32937
 20
0.317216
 30
0.000000
  70
    32
  0
VERTEX
  8
0
  5
C69
 10
4.32960
 20
0.317105
 30
0.000000
  70
    32
  0
VERTEX
  8
0
  5
C6A
 10
4.32983
 20
0.316992
 30
0.000000
  70
    32
  0
VERTEX
  8
0
  5
C6B
 10
4.33006
 20
0.316879
 30
0.000000
  70
    32
  0
VERTEX
  8
0
  5
C6C
 10
4.33029
 20
0.316764
 30
0.000000
  70
    32
  0
VERTEX
  8
0
  5
C6D
 10
4.33052
 20
0.316648
 30
0.000000
  70
    32
  0
VERTEX
  8
0
  5
C6E
 10
4.33074
 20
0.316531
 30
0.000000
  70
    32
  0
VERTEX
  8
0
  5
C6F
 10
4.33097
 20
0.316413
 30
0.000000
  70
    32
  0
VERTEX
  8
0
  5
C70
 10
4.33119
 20
0.316294
 30
0.000000
  70
    32
  0
VERTEX
  8
0
  5
C71
 10
4.33142
 20
0.316173
 30
0.000000
  70
    32
  0
VERTEX
  8
0
  5
C72
 10
4.33164
 20
0.316051
 30
0.000000
  70
    32
  0
VERTEX
  8
0
  5
C73
 10
4.33186
 20
0.315929
 30
0.000000
  70
    32
  0
VERTEX
  8
0
  5
C74
 10
4.33208
 20
0.315805
 30
0.000000
  70
    32
  0
VERTEX
  8
0
  5
C75
 10
4.33230
 20
0.315680
 30
0.000000
  70
    32
  0
VERTEX
  8
0
  5
C76
 10
4.33252
 20
0.315553
 30
0.000000
  70
    32
  0
VERTEX
  8
0
  5
C77
 10
4.33273
 20
0.315426
 30
0.000000
  70
    32
  0
VERTEX
  8
0
  5
C78
 10
4.33295
 20
0.315298
 30
0.000000
  70
    32
  0
VERTEX
  8
0
  5
C79
 10
4.33317
 20
0.315168
 30
0.000000
  70
    32
  0
VERTEX
  8
0
  5
C7A
 10
4.33338
 20
0.315037
 30
0.000000
  70
    32
  0
VERTEX
  8
0
  5
C7B
 10
4.33359
 20
0.314906
 30
0.000000
  70
    32
  0
VERTEX
  8
0
  5
C7C
 10
4.33380
 20
0.314773
 30
0.000000
  70
    32
  0
VERTEX
  8
0
  5
C7D
 10
4.33401
 20
0.314639
 30
0.000000
  70
    32
  0
VERTEX
  8
0
  5
C7E
 10
4.33422
 20
0.314504
 30
0.000000
  70
    32
  0
VERTEX
  8
0
  5
C7F
 10
4.33443
 20
0.314368
 30
0.000000
  70
    32
  0
VERTEX
  8
0
  5
C80
 10
4.33464
 20
0.314231
 30
0.000000
  70
    32
  0
VERTEX
  8
0
  5
C81
 10
4.33484
 20
0.314093
 30
0.000000
  70
    32
  0
VERTEX
  8
0
  5
C82
 10
4.33505
 20
0.313954
 30
0.000000
  70
    32
  0
VERTEX
  8
0
  5
C83
 10
4.33525
 20
0.313814
 30
0.000000
  70
    32
  0
SEQEND
  8
0
  5
C84
  0
POLYLINE
  8
0
  5
C85
  66
     1
 10
0.000000
 20
0.000000
 30
0.000000
  70
     8
  0
VERTEX
  8
0
  5
C86
 10
2.58604
 20
0.343306
 30
0.000000
  70
    32
  0
VERTEX
  8
0
  5
C87
 10
2.58709
 20
0.341870
 30
0.000000
  70
    32
  0
VERTEX
  8
0
  5
C88
 10
2.58818
 20
0.340432
 30
0.000000
  70
    32
  0
VERTEX
  8
0
  5
C89
 10
2.58930
 20
0.338992
 30
0.000000
  70
    32
  0
VERTEX
  8
0
  5
C8A
 10
2.59045
 20
0.337551
 30
0.000000
  70
    32
  0
VERTEX
  8
0
  5
C8B
 10
2.59164
 20
0.336109
 30
0.000000
  70
    32
  0
VERTEX
  8
0
  5
C8C
 10
2.59286
 20
0.334666
 30
0.000000
  70
    32
  0
VERTEX
  8
0
  5
C8D
 10
2.59411
 20
0.333223
 30
0.000000
  70
    32
  0
VERTEX
  8
0
  5
C8E
 10
2.59539
 20
0.331779
 30
0.000000
  70
    32
  0
VERTEX
  8
0
  5
C8F
 10
2.59671
 20
0.330334
 30
0.000000
  70
    32
  0
VERTEX
  8
0
  5
C90
 10
2.59806
 20
0.328890
 30
0.000000
  70
    32
  0
VERTEX
  8
0
  5
C91
 10
2.59944
 20
0.327447
 30
0.000000
  70
    32
  0
VERTEX
  8
0
  5
C92
 10
2.60086
 20
0.326003
 30
0.000000
  70
    32
  0
VERTEX
  8
0
  5
C93
 10
2.60231
 20
0.324561
 30
0.000000
  70
    32
  0
VERTEX
  8
0
  5
C94
 10
2.60379
 20
0.323120
 30
0.000000
  70
    32
  0
VERTEX
  8
0
  5
C95
 10
2.60530
 20
0.321681
 30
0.000000
  70
    32
  0
VERTEX
  8
0
  5
C96
 10
2.60685
 20
0.320243
 30
0.000000
  70
    32
  0
VERTEX
  8
0
  5
C97
 10
2.60842
 20
0.318806
 30
0.000000
  70
    32
  0
VERTEX
  8
0
  5
C98
 10
2.61003
 20
0.317372
 30
0.000000
  70
    32
  0
VERTEX
  8
0
  5
C99
 10
2.61168
 20
0.315941
 30
0.000000
  70
    32
  0
VERTEX
  8
0
  5
C9A
 10
2.61335
 20
0.314512
 30
0.000000
  70
    32
  0
VERTEX
  8
0
  5
C9B
 10
2.61505
 20
0.313086
 30
0.000000
  70
    32
  0
VERTEX
  8
0
  5
C9C
 10
2.61679
 20
0.311664
 30
0.000000
  70
    32
  0
VERTEX
  8
0
  5
C9D
 10
2.61856
 20
0.310244
 30
0.000000
  70
    32
  0
VERTEX
  8
0
  5
C9E
 10
2.62036
 20
0.308829
 30
0.000000
  70
    32
  0
VERTEX
  8
0
  5
C9F
 10
2.62219
 20
0.307417
 30
0.000000
  70
    32
  0
VERTEX
  8
0
  5
CA0
 10
2.62406
 20
0.306010
 30
0.000000
  70
    32
  0
VERTEX
  8
0
  5
CA1
 10
2.62595
 20
0.304607
 30
0.000000
  70
    32
  0
VERTEX
  8
0
  5
CA2
 10
2.62788
 20
0.303208
 30
0.000000
  70
    32
  0
VERTEX
  8
0
  5
CA3
 10
2.62984
 20
0.301815
 30
0.000000
  70
    32
  0
VERTEX
  8
0
  5
CA4
 10
2.63183
 20
0.300427
 30
0.000000
  70
    32
  0
VERTEX
  8
0
  5
CA5
 10
2.63385
 20
0.299045
 30
0.000000
  70
    32
  0
VERTEX
  8
0
  5
CA6
 10
2.63590
 20
0.297668
 30
0.000000
  70
    32
  0
VERTEX
  8
0
  5
CA7
 10
2.63798
 20
0.296297
 30
0.000000
  70
    32
  0
VERTEX
  8
0
  5
CA8
 10
2.64009
 20
0.294933
 30
0.000000
  70
    32
  0
VERTEX
  8
0
  5
CA9
 10
2.64224
 20
0.293575
 30
0.000000
  70
    32
  0
VERTEX
  8
0
  5
CAA
 10
2.64441
 20
0.292223
 30
0.000000
  70
    32
  0
VERTEX
  8
0
  5
CAB
 10
2.64662
 20
0.290879
 30
0.000000
  70
    32
  0
VERTEX
  8
0
  5
CAC
 10
2.64886
 20
0.289542
 30
0.000000
  70
    32
  0
VERTEX
  8
0
  5
CAD
 10
2.65112
 20
0.288213
 30
0.000000
  70
    32
  0
VERTEX
  8
0
  5
CAE
 10
2.65342
 20
0.286891
 30
0.000000
  70
    32
  0
VERTEX
  8
0
  5
CAF
 10
2.65575
 20
0.285578
 30
0.000000
  70
    32
  0
VERTEX
  8
0
  5
CB0
 10
2.65811
 20
0.284272
 30
0.000000
  70
    32
  0
VERTEX
  8
0
  5
CB1
 10
2.66049
 20
0.282975
 30
0.000000
  70
    32
  0
VERTEX
  8
0
  5
CB2
 10
2.66291
 20
0.281688
 30
0.000000
  70
    32
  0
VERTEX
  8
0
  5
CB3
 10
2.66536
 20
0.280409
 30
0.000000
  70
    32
  0
VERTEX
  8
0
  5
CB4
 10
2.66784
 20
0.279139
 30
0.000000
  70
    32
  0
VERTEX
  8
0
  5
CB5
 10
2.67035
 20
0.277879
 30
0.000000
  70
    32
  0
VERTEX
  8
0
  5
CB6
 10
2.67289
 20
0.276629
 30
0.000000
  70
    32
  0
VERTEX
  8
0
  5
CB7
 10
2.67545
 20
0.275389
 30
0.000000
  70
    32
  0
VERTEX
  8
0
  5
CB8
 10
2.67805
 20
0.274160
 30
0.000000
  70
    32
  0
VERTEX
  8
0
  5
CB9
 10
2.68068
 20
0.272940
 30
0.000000
  70
    32
  0
VERTEX
  8
0
  5
CBA
 10
2.68334
 20
0.271732
 30
0.000000
  70
    32
  0
VERTEX
  8
0
  5
CBB
 10
2.68602
 20
0.270535
 30
0.000000
  70
    32
  0
VERTEX
  8
0
  5
CBC
 10
2.68874
 20
0.269349
 30
0.000000
  70
    32
  0
VERTEX
  8
0
  5
CBD
 10
2.69149
 20
0.268175
 30
0.000000
  70
    32
  0
VERTEX
  8
0
  5
CBE
 10
2.69426
 20
0.267013
 30
0.000000
  70
    32
  0
VERTEX
  8
0
  5
CBF
 10
2.69706
 20
0.265863
 30
0.000000
  70
    32
  0
VERTEX
  8
0
  5
CC0
 10
2.69990
 20
0.264725
 30
0.000000
  70
    32
  0
VERTEX
  8
0
  5
CC1
 10
2.70276
 20
0.263600
 30
0.000000
  70
    32
  0
VERTEX
  8
0
  5
CC2
 10
2.70565
 20
0.262488
 30
0.000000
  70
    32
  0
VERTEX
  8
0
  5
CC3
 10
2.70857
 20
0.261389
 30
0.000000
  70
    32
  0
VERTEX
  8
0
  5
CC4
 10
2.71152
 20
0.260304
 30
0.000000
  70
    32
  0
VERTEX
  8
0
  5
CC5
 10
2.71450
 20
0.259232
 30
0.000000
  70
    32
  0
VERTEX
  8
0
  5
CC6
 10
2.71750
 20
0.258174
 30
0.000000
  70
    32
  0
VERTEX
  8
0
  5
CC7
 10
2.72054
 20
0.257130
 30
0.000000
  70
    32
  0
VERTEX
  8
0
  5
CC8
 10
2.72360
 20
0.256101
 30
0.000000
  70
    32
  0
VERTEX
  8
0
  5
CC9
 10
2.72669
 20
0.255086
 30
0.000000
  70
    32
  0
VERTEX
  8
0
  5
CCA
 10
2.72981
 20
0.254086
 30
0.000000
  70
    32
  0
VERTEX
  8
0
  5
CCB
 10
2.73296
 20
0.253102
 30
0.000000
  70
    32
  0
VERTEX
  8
0
  5
CCC
 10
2.73614
 20
0.252133
 30
0.000000
  70
    32
  0
VERTEX
  8
0
  5
CCD
 10
2.73934
 20
0.251179
 30
0.000000
  70
    32
  0
VERTEX
  8
0
  5
CCE
 10
2.74257
 20
0.250242
 30
0.000000
  70
    32
  0
VERTEX
  8
0
  5
CCF
 10
2.74584
 20
0.249321
 30
0.000000
  70
    32
  0
VERTEX
  8
0
  5
CD0
 10
2.74912
 20
0.248416
 30
0.000000
  70
    32
  0
VERTEX
  8
0
  5
CD1
 10
2.75244
 20
0.247528
 30
0.000000
  70
    32
  0
VERTEX
  8
0
  5
CD2
 10
2.75578
 20
0.246657
 30
0.000000
  70
    32
  0
VERTEX
  8
0
  5
CD3
 10
2.75916
 20
0.245804
 30
0.000000
  70
    32
  0
VERTEX
  8
0
  5
CD4
 10
2.76256
 20
0.244968
 30
0.000000
  70
    32
  0
VERTEX
  8
0
  5
CD5
 10
2.76598
 20
0.244149
 30
0.000000
  70
    32
  0
VERTEX
  8
0
  5
CD6
 10
2.76944
 20
0.243349
 30
0.000000
  70
    32
  0
VERTEX
  8
0
  5
CD7
 10
2.77292
 20
0.242567
 30
0.000000
  70
    32
  0
VERTEX
  8
0
  5
CD8
 10
2.77643
 20
0.241803
 30
0.000000
  70
    32
  0
VERTEX
  8
0
  5
CD9
 10
2.77997
 20
0.241058
 30
0.000000
  70
    32
  0
VERTEX
  8
0
  5
CDA
 10
2.78353
 20
0.240332
 30
0.000000
  70
    32
  0
VERTEX
  8
0
  5
CDB
 10
2.78712
 20
0.239626
 30
0.000000
  70
    32
  0
VERTEX
  8
0
  5
CDC
 10
2.79074
 20
0.238939
 30
0.000000
  70
    32
  0
VERTEX
  8
0
  5
CDD
 10
2.79438
 20
0.238272
 30
0.000000
  70
    32
  0
VERTEX
  8
0
  5
CDE
 10
2.79805
 20
0.237625
 30
0.000000
  70
    32
  0
VERTEX
  8
0
  5
CDF
 10
2.80175
 20
0.236998
 30
0.000000
  70
    32
  0
VERTEX
  8
0
  5
CE0
 10
2.80548
 20
0.236392
 30
0.000000
  70
    32
  0
VERTEX
  8
0
  5
CE1
 10
2.80923
 20
0.235807
 30
0.000000
  70
    32
  0
VERTEX
  8
0
  5
CE2
 10
2.81301
 20
0.235242
 30
0.000000
  70
    32
  0
VERTEX
  8
0
  5
CE3
 10
2.81681
 20
0.234700
 30
0.000000
  70
    32
  0
VERTEX
  8
0
  5
CE4
 10
2.82064
 20
0.234178
 30
0.000000
  70
    32
  0
VERTEX
  8
0
  5
CE5
 10
2.82450
 20
0.233679
 30
0.000000
  70
    32
  0
VERTEX
  8
0
  5
CE6
 10
2.82838
 20
0.233202
 30
0.000000
  70
    32
  0
VERTEX
  8
0
  5
CE7
 10
2.83229
 20
0.232747
 30
0.000000
  70
    32
  0
VERTEX
  8
0
  5
CE8
 10
2.83623
 20
0.232314
 30
0.000000
  70
    32
  0
VERTEX
  8
0
  5
CE9
 10
2.84019
 20
0.231905
 30
0.000000
  70
    32
  0
VERTEX
  8
0
  5
CEA
 10
2.84418
 20
0.231518
 30
0.000000
  70
    32
  0
VERTEX
  8
0
  5
CEB
 10
2.84819
 20
0.231155
 30
0.000000
  70
    32
  0
VERTEX
  8
0
  5
CEC
 10
2.85223
 20
0.230816
 30
0.000000
  70
    32
  0
VERTEX
  8
0
  5
CED
 10
2.85630
 20
0.230501
 30
0.000000
  70
    32
  0
VERTEX
  8
0
  5
CEE
 10
2.86039
 20
0.230209
 30
0.000000
  70
    32
  0
VERTEX
  8
0
  5
CEF
 10
2.86451
 20
0.229942
 30
0.000000
  70
    32
  0
VERTEX
  8
0
  5
CF0
 10
2.86865
 20
0.229700
 30
0.000000
  70
    32
  0
VERTEX
  8
0
  5
CF1
 10
2.87800
 20
0.229213
 30
0.000000
  70
    32
  0
VERTEX
  8
0
  5
CF2
 10
2.88989
 20
0.228653
 30
0.000000
  70
    32
  0
VERTEX
  8
0
  5
CF3
 10
2.90169
 20
0.228162
 30
0.000000
  70
    32
  0
VERTEX
  8
0
  5
CF4
 10
2.91342
 20
0.227737
 30
0.000000
  70
    32
  0
VERTEX
  8
0
  5
CF5
 10
2.92507
 20
0.227378
 30
0.000000
  70
    32
  0
VERTEX
  8
0
  5
CF6
 10
2.93664
 20
0.227084
 30
0.000000
  70
    32
  0
VERTEX
  8
0
  5
CF7
 10
2.94813
 20
0.226853
 30
0.000000
  70
    32
  0
VERTEX
  8
0
  5
CF8
 10
2.95955
 20
0.226685
 30
0.000000
  70
    32
  0
VERTEX
  8
0
  5
CF9
 10
2.97090
 20
0.226578
 30
0.000000
  70
    32
  0
VERTEX
  8
0
  5
CFA
 10
2.98217
 20
0.226532
 30
0.000000
  70
    32
  0
VERTEX
  8
0
  5
CFB
 10
2.99337
 20
0.226544
 30
0.000000
  70
    32
  0
VERTEX
  8
0
  5
CFC
 10
3.00450
 20
0.226614
 30
0.000000
  70
    32
  0
VERTEX
  8
0
  5
CFD
 10
3.01555
 20
0.226741
 30
0.000000
  70
    32
  0
VERTEX
  8
0
  5
CFE
 10
3.02654
 20
0.226923
 30
0.000000
  70
    32
  0
VERTEX
  8
0
  5
CFF
 10
3.03746
 20
0.227160
 30
0.000000
  70
    32
  0
VERTEX
  8
0
  5
D00
 10
3.04830
 20
0.227450
 30
0.000000
  70
    32
  0
VERTEX
  8
0
  5
D01
 10
3.05909
 20
0.227792
 30
0.000000
  70
    32
  0
VERTEX
  8
0
  5
D02
 10
3.06980
 20
0.228185
 30
0.000000
  70
    32
  0
VERTEX
  8
0
  5
D03
 10
3.08045
 20
0.228628
 30
0.000000
  70
    32
  0
VERTEX
  8
0
  5
D04
 10
3.09103
 20
0.229120
 30
0.000000
  70
    32
  0
VERTEX
  8
0
  5
D05
 10
3.10155
 20
0.229659
 30
0.000000
  70
    32
  0
VERTEX
  8
0
  5
D06
 10
3.11201
 20
0.230245
 30
0.000000
  70
    32
  0
VERTEX
  8
0
  5
D07
 10
3.12241
 20
0.230875
 30
0.000000
  70
    32
  0
VERTEX
  8
0
  5
D08
 10
3.13274
 20
0.231550
 30
0.000000
  70
    32
  0
VERTEX
  8
0
  5
D09
 10
3.14301
 20
0.232268
 30
0.000000
  70
    32
  0
VERTEX
  8
0
  5
D0A
 10
3.15322
 20
0.233027
 30
0.000000
  70
    32
  0
VERTEX
  8
0
  5
D0B
 10
3.16338
 20
0.233828
 30
0.000000
  70
    32
  0
VERTEX
  8
0
  5
D0C
 10
3.17347
 20
0.234667
 30
0.000000
  70
    32
  0
VERTEX
  8
0
  5
D0D
 10
3.18351
 20
0.235545
 30
0.000000
  70
    32
  0
VERTEX
  8
0
  5
D0E
 10
3.19350
 20
0.236461
 30
0.000000
  70
    32
  0
VERTEX
  8
0
  5
D0F
 10
3.20342
 20
0.237412
 30
0.000000
  70
    32
  0
VERTEX
  8
0
  5
D10
 10
3.21330
 20
0.238398
 30
0.000000
  70
    32
  0
VERTEX
  8
0
  5
D11
 10
3.22311
 20
0.239418
 30
0.000000
  70
    32
  0
VERTEX
  8
0
  5
D12
 10
3.23288
 20
0.240471
 30
0.000000
  70
    32
  0
VERTEX
  8
0
  5
D13
 10
3.24260
 20
0.241555
 30
0.000000
  70
    32
  0
VERTEX
  8
0
  5
D14
 10
3.25226
 20
0.242669
 30
0.000000
  70
    32
  0
VERTEX
  8
0
  5
D15
 10
3.26187
 20
0.243812
 30
0.000000
  70
    32
  0
VERTEX
  8
0
  5
D16
 10
3.27144
 20
0.244984
 30
0.000000
  70
    32
  0
VERTEX
  8
0
  5
D17
 10
3.28095
 20
0.246182
 30
0.000000
  70
    32
  0
VERTEX
  8
0
  5
D18
 10
3.29042
 20
0.247407
 30
0.000000
  70
    32
  0
VERTEX
  8
0
  5
D19
 10
3.29984
 20
0.248655
 30
0.000000
  70
    32
  0
VERTEX
  8
0
  5
D1A
 10
3.30921
 20
0.249927
 30
0.000000
  70
    32
  0
VERTEX
  8
0
  5
D1B
 10
3.31854
 20
0.251222
 30
0.000000
  70
    32
  0
VERTEX
  8
0
  5
D1C
 10
3.32783
 20
0.252537
 30
0.000000
  70
    32
  0
VERTEX
  8
0
  5
D1D
 10
3.33707
 20
0.253873
 30
0.000000
  70
    32
  0
VERTEX
  8
0
  5
D1E
 10
3.34627
 20
0.255228
 30
0.000000
  70
    32
  0
VERTEX
  8
0
  5
D1F
 10
3.35543
 20
0.256600
 30
0.000000
  70
    32
  0
VERTEX
  8
0
  5
D20
 10
3.36455
 20
0.257988
 30
0.000000
  70
    32
  0
VERTEX
  8
0
  5
D21
 10
3.37363
 20
0.259392
 30
0.000000
  70
    32
  0
VERTEX
  8
0
  5
D22
 10
3.38266
 20
0.260811
 30
0.000000
  70
    32
  0
VERTEX
  8
0
  5
D23
 10
3.39167
 20
0.262242
 30
0.000000
  70
    32
  0
VERTEX
  8
0
  5
D24
 10
3.40063
 20
0.263686
 30
0.000000
  70
    32
  0
VERTEX
  8
0
  5
D25
 10
3.40956
 20
0.265140
 30
0.000000
  70
    32
  0
VERTEX
  8
0
  5
D26
 10
3.41845
 20
0.266604
 30
0.000000
  70
    32
  0
VERTEX
  8
0
  5
D27
 10
3.42730
 20
0.268076
 30
0.000000
  70
    32
  0
VERTEX
  8
0
  5
D28
 10
3.43613
 20
0.269556
 30
0.000000
  70
    32
  0
VERTEX
  8
0
  5
D29
 10
3.44492
 20
0.271042
 30
0.000000
  70
    32
  0
VERTEX
  8
0
  5
D2A
 10
3.45368
 20
0.272534
 30
0.000000
  70
    32
  0
VERTEX
  8
0
  5
D2B
 10
3.46240
 20
0.274029
 30
0.000000
  70
    32
  0
VERTEX
  8
0
  5
D2C
 10
3.47110
 20
0.275527
 30
0.000000
  70
    32
  0
VERTEX
  8
0
  5
D2D
 10
3.47977
 20
0.277026
 30
0.000000
  70
    32
  0
VERTEX
  8
0
  5
D2E
 10
3.48840
 20
0.278526
 30
0.000000
  70
    32
  0
VERTEX
  8
0
  5
D2F
 10
3.49702
 20
0.280026
 30
0.000000
  70
    32
  0
VERTEX
  8
0
  5
D30
 10
3.50560
 20
0.281523
 30
0.000000
  70
    32
  0
VERTEX
  8
0
  5
D31
 10
3.51416
 20
0.283018
 30
0.000000
  70
    32
  0
VERTEX
  8
0
  5
D32
 10
3.52269
 20
0.284508
 30
0.000000
  70
    32
  0
VERTEX
  8
0
  5
D33
 10
3.53120
 20
0.285994
 30
0.000000
  70
    32
  0
VERTEX
  8
0
  5
D34
 10
3.53968
 20
0.287473
 30
0.000000
  70
    32
  0
VERTEX
  8
0
  5
D35
 10
3.54815
 20
0.288944
 30
0.000000
  70
    32
  0
VERTEX
  8
0
  5
D36
 10
3.55659
 20
0.290407
 30
0.000000
  70
    32
  0
VERTEX
  8
0
  5
D37
 10
3.56501
 20
0.291860
 30
0.000000
  70
    32
  0
VERTEX
  8
0
  5
D38
 10
3.57341
 20
0.293302
 30
0.000000
  70
    32
  0
VERTEX
  8
0
  5
D39
 10
3.58179
 20
0.294731
 30
0.000000
  70
    32
  0
VERTEX
  8
0
  5
D3A
 10
3.59015
 20
0.296148
 30
0.000000
  70
    32
  0
VERTEX
  8
0
  5
D3B
 10
3.59849
 20
0.297550
 30
0.000000
  70
    32
  0
VERTEX
  8
0
  5
D3C
 10
3.60682
 20
0.298937
 30
0.000000
  70
    32
  0
VERTEX
  8
0
  5
D3D
 10
3.61514
 20
0.300306
 30
0.000000
  70
    32
  0
VERTEX
  8
0
  5
D3E
 10
3.62343
 20
0.301658
 30
0.000000
  70
    32
  0
VERTEX
  8
0
  5
D3F
 10
3.63172
 20
0.302991
 30
0.000000
  70
    32
  0
VERTEX
  8
0
  5
D40
 10
3.63999
 20
0.304304
 30
0.000000
  70
    32
  0
VERTEX
  8
0
  5
D41
 10
3.64825
 20
0.305596
 30
0.000000
  70
    32
  0
VERTEX
  8
0
  5
D42
 10
3.65650
 20
0.306865
 30
0.000000
  70
    32
  0
VERTEX
  8
0
  5
D43
 10
3.66473
 20
0.308111
 30
0.000000
  70
    32
  0
VERTEX
  8
0
  5
D44
 10
3.67296
 20
0.309331
 30
0.000000
  70
    32
  0
VERTEX
  8
0
  5
D45
 10
3.68118
 20
0.310526
 30
0.000000
  70
    32
  0
VERTEX
  8
0
  5
D46
 10
3.68939
 20
0.311694
 30
0.000000
  70
    32
  0
VERTEX
  8
0
  5
D47
 10
3.69759
 20
0.312834
 30
0.000000
  70
    32
  0
VERTEX
  8
0
  5
D48
 10
3.70579
 20
0.313944
 30
0.000000
  70
    32
  0
VERTEX
  8
0
  5
D49
 10
3.71398
 20
0.315024
 30
0.000000
  70
    32
  0
VERTEX
  8
0
  5
D4A
 10
3.72217
 20
0.316072
 30
0.000000
  70
    32
  0
VERTEX
  8
0
  5
D4B
 10
3.73036
 20
0.317088
 30
0.000000
  70
    32
  0
VERTEX
  8
0
  5
D4C
 10
3.73854
 20
0.318070
 30
0.000000
  70
    32
  0
VERTEX
  8
0
  5
D4D
 10
3.74672
 20
0.319016
 30
0.000000
  70
    32
  0
VERTEX
  8
0
  5
D4E
 10
3.75490
 20
0.319926
 30
0.000000
  70
    32
  0
VERTEX
  8
0
  5
D4F
 10
3.76307
 20
0.320799
 30
0.000000
  70
    32
  0
VERTEX
  8
0
  5
D50
 10
3.77125
 20
0.321634
 30
0.000000
  70
    32
  0
VERTEX
  8
0
  5
D51
 10
3.77944
 20
0.322429
 30
0.000000
  70
    32
  0
VERTEX
  8
0
  5
D52
 10
3.78762
 20
0.323183
 30
0.000000
  70
    32
  0
VERTEX
  8
0
  5
D53
 10
3.79581
 20
0.323895
 30
0.000000
  70
    32
  0
VERTEX
  8
0
  5
D54
 10
3.80400
 20
0.324564
 30
0.000000
  70
    32
  0
VERTEX
  8
0
  5
D55
 10
3.81219
 20
0.325189
 30
0.000000
  70
    32
  0
VERTEX
  8
0
  5
D56
 10
3.82040
 20
0.325768
 30
0.000000
  70
    32
  0
VERTEX
  8
0
  5
D57
 10
3.82860
 20
0.326301
 30
0.000000
  70
    32
  0
VERTEX
  8
0
  5
D58
 10
3.83682
 20
0.326786
 30
0.000000
  70
    32
  0
VERTEX
  8
0
  5
D59
 10
3.84505
 20
0.327223
 30
0.000000
  70
    32
  0
VERTEX
  8
0
  5
D5A
 10
3.85328
 20
0.327609
 30
0.000000
  70
    32
  0
VERTEX
  8
0
  5
D5B
 10
3.86181
 20
0.327956
 30
0.000000
  70
    32
  0
VERTEX
  8
0
  5
D5C
 10
3.87083
 20
0.328284
 30
0.000000
  70
    32
  0
VERTEX
  8
0
  5
D5D
 10
3.87971
 20
0.328574
 30
0.000000
  70
    32
  0
VERTEX
  8
0
  5
D5E
 10
3.88848
 20
0.328828
 30
0.000000
  70
    32
  0
VERTEX
  8
0
  5
D5F
 10
3.89711
 20
0.329045
 30
0.000000
  70
    32
  0
VERTEX
  8
0
  5
D60
 10
3.90563
 20
0.329227
 30
0.000000
  70
    32
  0
VERTEX
  8
0
  5
D61
 10
3.91402
 20
0.329373
 30
0.000000
  70
    32
  0
VERTEX
  8
0
  5
D62
 10
3.92228
 20
0.329486
 30
0.000000
  70
    32
  0
VERTEX
  8
0
  5
D63
 10
3.93043
 20
0.329565
 30
0.000000
  70
    32
  0
VERTEX
  8
0
  5
D64
 10
3.93845
 20
0.329611
 30
0.000000
  70
    32
  0
VERTEX
  8
0
  5
D65
 10
3.94635
 20
0.329625
 30
0.000000
  70
    32
  0
VERTEX
  8
0
  5
D66
 10
3.95413
 20
0.329607
 30
0.000000
  70
    32
  0
VERTEX
  8
0
  5
D67
 10
3.96180
 20
0.329558
 30
0.000000
  70
    32
  0
VERTEX
  8
0
  5
D68
 10
3.96934
 20
0.329479
 30
0.000000
  70
    32
  0
VERTEX
  8
0
  5
D69
 10
3.97677
 20
0.329370
 30
0.000000
  70
    32
  0
VERTEX
  8
0
  5
D6A
 10
3.98408
 20
0.329233
 30
0.000000
  70
    32
  0
VERTEX
  8
0
  5
D6B
 10
3.99128
 20
0.329067
 30
0.000000
  70
    32
  0
VERTEX
  8
0
  5
D6C
 10
3.99835
 20
0.328873
 30
0.000000
  70
    32
  0
VERTEX
  8
0
  5
D6D
 10
4.00532
 20
0.328652
 30
0.000000
  70
    32
  0
VERTEX
  8
0
  5
D6E
 10
4.01217
 20
0.328405
 30
0.000000
  70
    32
  0
VERTEX
  8
0
  5
D6F
 10
4.01891
 20
0.328133
 30
0.000000
  70
    32
  0
VERTEX
  8
0
  5
D70
 10
4.02554
 20
0.327835
 30
0.000000
  70
    32
  0
VERTEX
  8
0
  5
D71
 10
4.03206
 20
0.327513
 30
0.000000
  70
    32
  0
VERTEX
  8
0
  5
D72
 10
4.03846
 20
0.327167
 30
0.000000
  70
    32
  0
VERTEX
  8
0
  5
D73
 10
4.04476
 20
0.326799
 30
0.000000
  70
    32
  0
VERTEX
  8
0
  5
D74
 10
4.05095
 20
0.326408
 30
0.000000
  70
    32
  0
VERTEX
  8
0
  5
D75
 10
4.05703
 20
0.325995
 30
0.000000
  70
    32
  0
VERTEX
  8
0
  5
D76
 10
4.06300
 20
0.325561
 30
0.000000
  70
    32
  0
VERTEX
  8
0
  5
D77
 10
4.06887
 20
0.325107
 30
0.000000
  70
    32
  0
VERTEX
  8
0
  5
D78
 10
4.07463
 20
0.324633
 30
0.000000
  70
    32
  0
VERTEX
  8
0
  5
D79
 10
4.08029
 20
0.324139
 30
0.000000
  70
    32
  0
VERTEX
  8
0
  5
D7A
 10
4.08584
 20
0.323628
 30
0.000000
  70
    32
  0
VERTEX
  8
0
  5
D7B
 10
4.09129
 20
0.323098
 30
0.000000
  70
    32
  0
VERTEX
  8
0
  5
D7C
 10
4.09664
 20
0.322552
 30
0.000000
  70
    32
  0
VERTEX
  8
0
  5
D7D
 10
4.10188
 20
0.321989
 30
0.000000
  70
    32
  0
VERTEX
  8
0
  5
D7E
 10
4.10703
 20
0.321410
 30
0.000000
  70
    32
  0
VERTEX
  8
0
  5
D7F
 10
4.11207
 20
0.320817
 30
0.000000
  70
    32
  0
VERTEX
  8
0
  5
D80
 10
4.11702
 20
0.320208
 30
0.000000
  70
    32
  0
VERTEX
  8
0
  5
D81
 10
4.12186
 20
0.319586
 30
0.000000
  70
    32
  0
VERTEX
  8
0
  5
D82
 10
4.12661
 20
0.318951
 30
0.000000
  70
    32
  0
VERTEX
  8
0
  5
D83
 10
4.13127
 20
0.318303
 30
0.000000
  70
    32
  0
VERTEX
  8
0
  5
D84
 10
4.13582
 20
0.317644
 30
0.000000
  70
    32
  0
VERTEX
  8
0
  5
D85
 10
4.14029
 20
0.316973
 30
0.000000
  70
    32
  0
VERTEX
  8
0
  5
D86
 10
4.14465
 20
0.316292
 30
0.000000
  70
    32
  0
VERTEX
  8
0
  5
D87
 10
4.14893
 20
0.315600
 30
0.000000
  70
    32
  0
VERTEX
  8
0
  5
D88
 10
4.15311
 20
0.314900
 30
0.000000
  70
    32
  0
VERTEX
  8
0
  5
D89
 10
4.15720
 20
0.314191
 30
0.000000
  70
    32
  0
VERTEX
  8
0
  5
D8A
 10
4.16119
 20
0.313474
 30
0.000000
  70
    32
  0
VERTEX
  8
0
  5
D8B
 10
4.16510
 20
0.312750
 30
0.000000
  70
    32
  0
VERTEX
  8
0
  5
D8C
 10
4.16892
 20
0.312020
 30
0.000000
  70
    32
  0
VERTEX
  8
0
  5
D8D
 10
4.17265
 20
0.311283
 30
0.000000
  70
    32
  0
VERTEX
  8
0
  5
D8E
 10
4.17629
 20
0.310542
 30
0.000000
  70
    32
  0
VERTEX
  8
0
  5
D8F
 10
4.17984
 20
0.309795
 30
0.000000
  70
    32
  0
VERTEX
  8
0
  5
D90
 10
4.18331
 20
0.309045
 30
0.000000
  70
    32
  0
VERTEX
  8
0
  5
D91
 10
4.18669
 20
0.308292
 30
0.000000
  70
    32
  0
VERTEX
  8
0
  5
D92
 10
4.18999
 20
0.307535
 30
0.000000
  70
    32
  0
VERTEX
  8
0
  5
D93
 10
4.19320
 20
0.306777
 30
0.000000
  70
    32
  0
VERTEX
  8
0
  5
D94
 10
4.19633
 20
0.306018
 30
0.000000
  70
    32
  0
VERTEX
  8
0
  5
D95
 10
4.19938
 20
0.305258
 30
0.000000
  70
    32
  0
VERTEX
  8
0
  5
D96
 10
4.20234
 20
0.304498
 30
0.000000
  70
    32
  0
VERTEX
  8
0
  5
D97
 10
4.20523
 20
0.303739
 30
0.000000
  70
    32
  0
VERTEX
  8
0
  5
D98
 10
4.20803
 20
0.302981
 30
0.000000
  70
    32
  0
VERTEX
  8
0
  5
D99
 10
4.21076
 20
0.302225
 30
0.000000
  70
    32
  0
VERTEX
  8
0
  5
D9A
 10
4.21340
 20
0.301471
 30
0.000000
  70
    32
  0
VERTEX
  8
0
  5
D9B
 10
4.21597
 20
0.300721
 30
0.000000
  70
    32
  0
VERTEX
  8
0
  5
D9C
 10
4.21846
 20
0.299975
 30
0.000000
  70
    32
  0
VERTEX
  8
0
  5
D9D
 10
4.22088
 20
0.299234
 30
0.000000
  70
    32
  0
VERTEX
  8
0
  5
D9E
 10
4.22322
 20
0.298498
 30
0.000000
  70
    32
  0
VERTEX
  8
0
  5
D9F
 10
4.22548
 20
0.297768
 30
0.000000
  70
    32
  0
VERTEX
  8
0
  5
DA0
 10
4.22768
 20
0.297044
 30
0.000000
  70
    32
  0
VERTEX
  8
0
  5
DA1
 10
4.22979
 20
0.296328
 30
0.000000
  70
    32
  0
VERTEX
  8
0
  5
DA2
 10
4.23184
 20
0.295619
 30
0.000000
  70
    32
  0
VERTEX
  8
0
  5
DA3
 10
4.23382
 20
0.294920
 30
0.000000
  70
    32
  0
VERTEX
  8
0
  5
DA4
 10
4.23572
 20
0.294229
 30
0.000000
  70
    32
  0
VERTEX
  8
0
  5
DA5
 10
4.23756
 20
0.293549
 30
0.000000
  70
    32
  0
VERTEX
  8
0
  5
DA6
 10
4.23932
 20
0.292879
 30
0.000000
  70
    32
  0
VERTEX
  8
0
  5
DA7
 10
4.24102
 20
0.292220
 30
0.000000
  70
    32
  0
VERTEX
  8
0
  5
DA8
 10
4.24265
 20
0.291573
 30
0.000000
  70
    32
  0
VERTEX
  8
0
  5
DA9
 10
4.24422
 20
0.290938
 30
0.000000
  70
    32
  0
VERTEX
  8
0
  5
DAA
 10
4.24571
 20
0.290317
 30
0.000000
  70
    32
  0
VERTEX
  8
0
  5
DAB
 10
4.24715
 20
0.289710
 30
0.000000
  70
    32
  0
VERTEX
  8
0
  5
DAC
 10
4.24852
 20
0.289117
 30
0.000000
  70
    32
  0
VERTEX
  8
0
  5
DAD
 10
4.24982
 20
0.288540
 30
0.000000
  70
    32
  0
VERTEX
  8
0
  5
DAE
 10
4.25106
 20
0.287978
 30
0.000000
  70
    32
  0
VERTEX
  8
0
  5
DAF
 10
4.25225
 20
0.287432
 30
0.000000
  70
    32
  0
VERTEX
  8
0
  5
DB0
 10
4.25337
 20
0.286904
 30
0.000000
  70
    32
  0
VERTEX
  8
0
  5
DB1
 10
4.25443
 20
0.286394
 30
0.000000
  70
    32
  0
VERTEX
  8
0
  5
DB2
 10
4.25543
 20
0.285902
 30
0.000000
  70
    32
  0
VERTEX
  8
0
  5
DB3
 10
4.25637
 20
0.285429
 30
0.000000
  70
    32
  0
VERTEX
  8
0
  5
DB4
 10
4.25725
 20
0.284976
 30
0.000000
  70
    32
  0
VERTEX
  8
0
  5
DB5
 10
4.25808
 20
0.284544
 30
0.000000
  70
    32
  0
VERTEX
  8
0
  5
DB6
 10
4.25885
 20
0.284133
 30
0.000000
  70
    32
  0
VERTEX
  8
0
  5
DB7
 10
4.25956
 20
0.283743
 30
0.000000
  70
    32
  0
VERTEX
  8
0
  5
DB8
 10
4.26022
 20
0.283376
 30
0.000000
  70
    32
  0
VERTEX
  8
0
  5
DB9
 10
4.26083
 20
0.283032
 30
0.000000
  70
    32
  0
VERTEX
  8
0
  5
DBA
 10
4.26138
 20
0.282711
 30
0.000000
  70
    32
  0
VERTEX
  8
0
  5
DBB
 10
4.26189
 20
0.282415
 30
0.000000
  70
    32
  0
VERTEX
  8
0
  5
DBC
 10
4.26234
 20
0.282144
 30
0.000000
  70
    32
  0
VERTEX
  8
0
  5
DBD
 10
4.26273
 20
0.281899
 30
0.000000
  70
    32
  0
VERTEX
  8
0
  5
DBE
 10
4.26308
 20
0.281680
 30
0.000000
  70
    32
  0
VERTEX
  8
0
  5
DBF
 10
4.26338
 20
0.281489
 30
0.000000
  70
    32
  0
VERTEX
  8
0
  5
DC0
 10
4.26364
 20
0.281325
 30
0.000000
  70
    32
  0
VERTEX
  8
0
  5
DC1
 10
4.26384
 20
0.281189
 30
0.000000
  70
    32
  0
VERTEX
  8
0
  5
DC2
 10
4.26400
 20
0.281082
 30
0.000000
  70
    32
  0
VERTEX
  8
0
  5
DC3
 10
4.26411
 20
0.281005
 30
0.000000
  70
    32
  0
VERTEX
  8
0
  5
DC4
 10
4.26417
 20
0.280958
 30
0.000000
  70
    32
  0
VERTEX
  8
0
  5
DC5
 10
4.26420
 20
0.280943
 30
0.000000
  70
    32
  0
SEQEND
  8
0
  5
DC6
  0
POLYLINE
  8
0
  5
DC7
  66
     1
 10
0.000000
 20
0.000000
 30
0.000000
  70
     8
  0
VERTEX
  8
0
  5
DC8
 10
4.33181
 20
0.314616
 30
0.000000
  70
    32
  0
VERTEX
  8
0
  5
DC9
 10
4.33347
 20
0.314193
 30
0.000000
  70
    32
  0
VERTEX
  8
0
  5
DCA
 10
4.33515
 20
0.313745
 30
0.000000
  70
    32
  0
VERTEX
  8
0
  5
DCB
 10
4.33683
 20
0.313272
 30
0.000000
  70
    32
  0
VERTEX
  8
0
  5
DCC
 10
4.33852
 20
0.312773
 30
0.000000
  70
    32
  0
VERTEX
  8
0
  5
DCD
 10
4.34022
 20
0.312248
 30
0.000000
  70
    32
  0
VERTEX
  8
0
  5
DCE
 10
4.34193
 20
0.311698
 30
0.000000
  70
    32
  0
VERTEX
  8
0
  5
DCF
 10
4.34364
 20
0.311120
 30
0.000000
  70
    32
  0
VERTEX
  8
0
  5
DD0
 10
4.34536
 20
0.310516
 30
0.000000
  70
    32
  0
VERTEX
  8
0
  5
DD1
 10
4.34709
 20
0.309884
 30
0.000000
  70
    32
  0
VERTEX
  8
0
  5
DD2
 10
4.34882
 20
0.309225
 30
0.000000
  70
    32
  0
VERTEX
  8
0
  5
DD3
 10
4.35056
 20
0.308539
 30
0.000000
  70
    32
  0
VERTEX
  8
0
  5
DD4
 10
4.35230
 20
0.307824
 30
0.000000
  70
    32
  0
VERTEX
  8
0
  5
DD5
 10
4.35405
 20
0.307080
 30
0.000000
  70
    32
  0
VERTEX
  8
0
  5
DD6
 10
4.35580
 20
0.306308
 30
0.000000
  70
    32
  0
VERTEX
  8
0
  5
DD7
 10
4.35755
 20
0.305507
 30
0.000000
  70
    32
  0
VERTEX
  8
0
  5
DD8
 10
4.35931
 20
0.304676
 30
0.000000
  70
    32
  0
VERTEX
  8
0
  5
DD9
 10
4.36107
 20
0.303816
 30
0.000000
  70
    32
  0
VERTEX
  8
0
  5
DDA
 10
4.36283
 20
0.302925
 30
0.000000
  70
    32
  0
VERTEX
  8
0
  5
DDB
 10
4.36459
 20
0.302004
 30
0.000000
  70
    32
  0
VERTEX
  8
0
  5
DDC
 10
4.36636
 20
0.301053
 30
0.000000
  70
    32
  0
VERTEX
  8
0
  5
DDD
 10
4.36812
 20
0.300070
 30
0.000000
  70
    32
  0
VERTEX
  8
0
  5
DDE
 10
4.36989
 20
0.299056
 30
0.000000
  70
    32
  0
VERTEX
  8
0
  5
DDF
 10
4.37165
 20
0.298011
 30
0.000000
  70
    32
  0
VERTEX
  8
0
  5
DE0
 10
4.37342
 20
0.296933
 30
0.000000
  70
    32
  0
VERTEX
  8
0
  5
DE1
 10
4.37518
 20
0.295823
 30
0.000000
  70
    32
  0
VERTEX
  8
0
  5
DE2
 10
4.37695
 20
0.294681
 30
0.000000
  70
    32
  0
VERTEX
  8
0
  5
DE3
 10
4.37871
 20
0.293506
 30
0.000000
  70
    32
  0
VERTEX
  8
0
  5
DE4
 10
4.38046
 20
0.292297
 30
0.000000
  70
    32
  0
VERTEX
  8
0
  5
DE5
 10
4.38222
 20
0.291055
 30
0.000000
  70
    32
  0
VERTEX
  8
0
  5
DE6
 10
4.38397
 20
0.289779
 30
0.000000
  70
    32
  0
VERTEX
  8
0
  5
DE7
 10
4.38572
 20
0.288469
 30
0.000000
  70
    32
  0
VERTEX
  8
0
  5
DE8
 10
4.38747
 20
0.287124
 30
0.000000
  70
    32
  0
VERTEX
  8
0
  5
DE9
 10
4.38921
 20
0.285744
 30
0.000000
  70
    32
  0
VERTEX
  8
0
  5
DEA
 10
4.39094
 20
0.284330
 30
0.000000
  70
    32
  0
VERTEX
  8
0
  5
DEB
 10
4.39267
 20
0.282880
 30
0.000000
  70
    32
  0
VERTEX
  8
0
  5
DEC
 10
4.39440
 20
0.281394
 30
0.000000
  70
    32
  0
VERTEX
  8
0
  5
DED
 10
4.39611
 20
0.279871
 30
0.000000
  70
    32
  0
VERTEX
  8
0
  5
DEE
 10
4.39783
 20
0.278313
 30
0.000000
  70
    32
  0
VERTEX
  8
0
  5
DEF
 10
4.39953
 20
0.276718
 30
0.000000
  70
    32
  0
VERTEX
  8
0
  5
DF0
 10
4.40123
 20
0.275085
 30
0.000000
  70
    32
  0
VERTEX
  8
0
  5
DF1
 10
4.40291
 20
0.273416
 30
0.000000
  70
    32
  0
VERTEX
  8
0
  5
DF2
 10
4.40459
 20
0.271708
 30
0.000000
  70
    32
  0
VERTEX
  8
0
  5
DF3
 10
4.40627
 20
0.269963
 30
0.000000
  70
    32
  0
VERTEX
  8
0
  5
DF4
 10
4.40793
 20
0.268179
 30
0.000000
  70
    32
  0
VERTEX
  8
0
  5
DF5
 10
4.40958
 20
0.266356
 30
0.000000
  70
    32
  0
VERTEX
  8
0
  5
DF6
 10
4.41122
 20
0.264495
 30
0.000000
  70
    32
  0
VERTEX
  8
0
  5
DF7
 10
4.41285
 20
0.262594
 30
0.000000
  70
    32
  0
VERTEX
  8
0
  5
DF8
 10
4.41447
 20
0.260654
 30
0.000000
  70
    32
  0
VERTEX
  8
0
  5
DF9
 10
4.41608
 20
0.258674
 30
0.000000
  70
    32
  0
VERTEX
  8
0
  5
DFA
 10
4.41768
 20
0.256653
 30
0.000000
  70
    32
  0
VERTEX
  8
0
  5
DFB
 10
4.41926
 20
0.254592
 30
0.000000
  70
    32
  0
VERTEX
  8
0
  5
DFC
 10
4.42083
 20
0.252490
 30
0.000000
  70
    32
  0
VERTEX
  8
0
  5
DFD
 10
4.42239
 20
0.250347
 30
0.000000
  70
    32
  0
VERTEX
  8
0
  5
DFE
 10
4.42393
 20
0.248162
 30
0.000000
  70
    32
  0
VERTEX
  8
0
  5
DFF
 10
4.42546
 20
0.245936
 30
0.000000
  70
    32
  0
VERTEX
  8
0
  5
E00
 10
4.42698
 20
0.243667
 30
0.000000
  70
    32
  0
VERTEX
  8
0
  5
E01
 10
4.42848
 20
0.241356
 30
0.000000
  70
    32
  0
VERTEX
  8
0
  5
E02
 10
4.42996
 20
0.239001
 30
0.000000
  70
    32
  0
VERTEX
  8
0
  5
E03
 10
4.43143
 20
0.236604
 30
0.000000
  70
    32
  0
VERTEX
  8
0
  5
E04
 10
4.43288
 20
0.234164
 30
0.000000
  70
    32
  0
VERTEX
  8
0
  5
E05
 10
4.43432
 20
0.231679
 30
0.000000
  70
    32
  0
VERTEX
  8
0
  5
E06
 10
4.43573
 20
0.229151
 30
0.000000
  70
    32
  0
VERTEX
  8
0
  5
E07
 10
4.43713
 20
0.226578
 30
0.000000
  70
    32
  0
VERTEX
  8
0
  5
E08
 10
4.43852
 20
0.223960
 30
0.000000
  70
    32
  0
VERTEX
  8
0
  5
E09
 10
4.43988
 20
0.221298
 30
0.000000
  70
    32
  0
VERTEX
  8
0
  5
E0A
 10
4.44122
 20
0.218590
 30
0.000000
  70
    32
  0
VERTEX
  8
0
  5
E0B
 10
4.44255
 20
0.215836
 30
0.000000
  70
    32
  0
VERTEX
  8
0
  5
E0C
 10
4.44385
 20
0.213037
 30
0.000000
  70
    32
  0
VERTEX
  8
0
  5
E0D
 10
4.44514
 20
0.210191
 30
0.000000
  70
    32
  0
VERTEX
  8
0
  5
E0E
 10
4.44640
 20
0.207298
 30
0.000000
  70
    32
  0
VERTEX
  8
0
  5
E0F
 10
4.44764
 20
0.204359
 30
0.000000
  70
    32
  0
VERTEX
  8
0
  5
E10
 10
4.44886
 20
0.201372
 30
0.000000
  70
    32
  0
VERTEX
  8
0
  5
E11
 10
4.45006
 20
0.198337
 30
0.000000
  70
    32
  0
VERTEX
  8
0
  5
E12
 10
4.45124
 20
0.195255
 30
0.000000
  70
    32
  0
VERTEX
  8
0
  5
E13
 10
4.45239
 20
0.192125
 30
0.000000
  70
    32
  0
VERTEX
  8
0
  5
E14
 10
4.45352
 20
0.188946
 30
0.000000
  70
    32
  0
VERTEX
  8
0
  5
E15
 10
4.45462
 20
0.185718
 30
0.000000
  70
    32
  0
VERTEX
  8
0
  5
E16
 10
4.45570
 20
0.182441
 30
0.000000
  70
    32
  0
VERTEX
  8
0
  5
E17
 10
4.45676
 20
0.179114
 30
0.000000
  70
    32
  0
VERTEX
  8
0
  5
E18
 10
4.45779
 20
0.175738
 30
0.000000
  70
    32
  0
VERTEX
  8
0
  5
E19
 10
4.45880
 20
0.172311
 30
0.000000
  70
    32
  0
VERTEX
  8
0
  5
E1A
 10
4.45978
 20
0.168834
 30
0.000000
  70
    32
  0
VERTEX
  8
0
  5
E1B
 10
4.46073
 20
0.165307
 30
0.000000
  70
    32
  0
VERTEX
  8
0
  5
E1C
 10
4.46165
 20
0.161728
 30
0.000000
  70
    32
  0
VERTEX
  8
0
  5
E1D
 10
4.46255
 20
0.158097
 30
0.000000
  70
    32
  0
VERTEX
  8
0
  5
E1E
 10
4.46342
 20
0.154415
 30
0.000000
  70
    32
  0
VERTEX
  8
0
  5
E1F
 10
4.46426
 20
0.150681
 30
0.000000
  70
    32
  0
VERTEX
  8
0
  5
E20
 10
4.46508
 20
0.146895
 30
0.000000
  70
    32
  0
VERTEX
  8
0
  5
E21
 10
4.46586
 20
0.143056
 30
0.000000
  70
    32
  0
VERTEX
  8
0
  5
E22
 10
4.46661
 20
0.139164
 30
0.000000
  70
    32
  0
VERTEX
  8
0
  5
E23
 10
4.46734
 20
0.135218
 30
0.000000
  70
    32
  0
VERTEX
  8
0
  5
E24
 10
4.46803
 20
0.131219
 30
0.000000
  70
    32
  0
VERTEX
  8
0
  5
E25
 10
4.46869
 20
0.127166
 30
0.000000
  70
    32
  0
VERTEX
  8
0
  5
E26
 10
4.46932
 20
0.123059
 30
0.000000
  70
    32
  0
VERTEX
  8
0
  5
E27
 10
4.46992
 20
0.118897
 30
0.000000
  70
    32
  0
VERTEX
  8
0
  5
E28
 10
4.47049
 20
0.114680
 30
0.000000
  70
    32
  0
VERTEX
  8
0
  5
E29
 10
4.47102
 20
0.110408
 30
0.000000
  70
    32
  0
VERTEX
  8
0
  5
E2A
 10
4.47152
 20
0.106081
 30
0.000000
  70
    32
  0
VERTEX
  8
0
  5
E2B
 10
4.47199
 20
0.101697
 30
0.000000
  70
    32
  0
VERTEX
  8
0
  5
E2C
 10
4.47242
 20
0.0972576
 30
0.000000
  70
    32
  0
VERTEX
  8
0
  5
E2D
 10
4.47282
 20
0.0927615
 30
0.000000
  70
    32
  0
VERTEX
  8
0
  5
E2E
 10
4.47319
 20
0.0882085
 30
0.000000
  70
    32
  0
VERTEX
  8
0
  5
E2F
 10
4.47351
 20
0.0835983
 30
0.000000
  70
    32
  0
VERTEX
  8
0
  5
E30
 10
4.47381
 20
0.0789307
 30
0.000000
  70
    32
  0
VERTEX
  8
0
  5
E31
 10
4.47406
 20
0.0742053
 30
0.000000
  70
    32
  0
VERTEX
  8
0
  5
E32
 10
4.47428
 20
0.0694218
 30
0.000000
  70
    32
  0
VERTEX
  8
0
  5
E33
 10
4.47446
 20
0.0645799
 30
0.000000
  70
    32
  0
VERTEX
  8
0
  5
E34
 10
4.47461
 20
0.0596792
 30
0.000000
  70
    32
  0
VERTEX
  8
0
  5
E35
 10
4.47472
 20
0.0547195
 30
0.000000
  70
    32
  0
VERTEX
  8
0
  5
E36
 10
4.47478
 20
0.0497004
 30
0.000000
  70
    32
  0
VERTEX
  8
0
  5
E37
 10
4.47481
 20
0.0446215
 30
0.000000
  70
    32
  0
VERTEX
  8
0
  5
E38
 10
4.47480
 20
0.0394966
 30
0.000000
  70
    32
  0
VERTEX
  8
0
  5
E39
 10
4.47477
 20
0.0344094
 30
0.000000
  70
    32
  0
VERTEX
  8
0
  5
E3A
 10
4.47470
 20
0.0293737
 30
0.000000
  70
    32
  0
VERTEX
  8
0
  5
E3B
 10
4.47459
 20
0.0243893
 30
0.000000
  70
    32
  0
VERTEX
  8
0
  5
E3C
 10
4.47446
 20
0.0194560
 30
0.000000
  70
    32
  0
VERTEX
  8
0
  5
E3D
 10
4.47430
 20
0.0145734
 30
0.000000
  70
    32
  0
VERTEX
  8
0
  5
E3E
 10
4.47411
 20
0.00974130
 30
0.000000
  70
    32
  0
VERTEX
  8
0
  5
E3F
 10
4.47388
 20
0.00495936
 30
0.000000
  70
    32
  0
VERTEX
  8
0
  5
E40
 10
4.47363
 20
0.000227323
 30
0.000000
  70
    32
  0
VERTEX
  8
0
  5
E41
 10
4.47334
 20
-0.00445509
 30
0.000000
  70
    32
  0
VERTEX
  8
0
  5
E42
 10
4.47303
 20
-0.00908816
 30
0.000000
  70
    32
  0
VERTEX
  8
0
  5
E43
 10
4.47269
 20
-0.0136722
 30
0.000000
  70
    32
  0
VERTEX
  8
0
  5
E44
 10
4.47232
 20
-0.0182074
 30
0.000000
  70
    32
  0
VERTEX
  8
0
  5
E45
 10
4.47192
 20
-0.0226941
 30
0.000000
  70
    32
  0
VERTEX
  8
0
  5
E46
 10
4.47149
 20
-0.0271326
 30
0.000000
  70
    32
  0
VERTEX
  8
0
  5
E47
 10
4.47103
 20
-0.0315232
 30
0.000000
  70
    32
  0
VERTEX
  8
0
  5
E48
 10
4.47055
 20
-0.0358661
 30
0.000000
  70
    32
  0
VERTEX
  8
0
  5
E49
 10
4.47004
 20
-0.0401616
 30
0.000000
  70
    32
  0
VERTEX
  8
0
  5
E4A
 10
4.46950
 20
-0.0444100
 30
0.000000
  70
    32
  0
VERTEX
  8
0
  5
E4B
 10
4.46893
 20
-0.0486116
 30
0.000000
  70
    32
  0
VERTEX
  8
0
  5
E4C
 10
4.46834
 20
-0.0527667
 30
0.000000
  70
    32
  0
VERTEX
  8
0
  5
E4D
 10
4.46772
 20
-0.0568755
 30
0.000000
  70
    32
  0
VERTEX
  8
0
  5
E4E
 10
4.46707
 20
-0.0609383
 30
0.000000
  70
    32
  0
VERTEX
  8
0
  5
E4F
 10
4.46640
 20
-0.0649554
 30
0.000000
  70
    32
  0
VERTEX
  8
0
  5
E50
 10
4.46570
 20
-0.0689271
 30
0.000000
  70
    32
  0
VERTEX
  8
0
  5
E51
 10
4.46498
 20
-0.0728537
 30
0.000000
  70
    32
  0
VERTEX
  8
0
  5
E52
 10
4.46423
 20
-0.0767354
 30
0.000000
  70
    32
  0
VERTEX
  8
0
  5
E53
 10
4.46346
 20
-0.0805725
 30
0.000000
  70
    32
  0
VERTEX
  8
0
  5
E54
 10
4.46266
 20
-0.0843654
 30
0.000000
  70
    32
  0
VERTEX
  8
0
  5
E55
 10
4.46184
 20
-0.0881142
 30
0.000000
  70
    32
  0
VERTEX
  8
0
  5
E56
 10
4.46099
 20
-0.0918193
 30
0.000000
  70
    32
  0
VERTEX
  8
0
  5
E57
 10
4.46012
 20
-0.0954809
 30
0.000000
  70
    32
  0
VERTEX
  8
0
  5
E58
 10
4.45923
 20
-0.0990993
 30
0.000000
  70
    32
  0
VERTEX
  8
0
  5
E59
 10
4.45831
 20
-0.102675
 30
0.000000
  70
    32
  0
VERTEX
  8
0
  5
E5A
 10
4.45737
 20
-0.106208
 30
0.000000
  70
    32
  0
VERTEX
  8
0
  5
E5B
 10
4.45641
 20
-0.109698
 30
0.000000
  70
    32
  0
VERTEX
  8
0
  5
E5C
 10
4.45542
 20
-0.113147
 30
0.000000
  70
    32
  0
VERTEX
  8
0
  5
E5D
 10
4.45441
 20
-0.116554
 30
0.000000
  70
    32
  0
VERTEX
  8
0
  5
E5E
 10
4.45338
 20
-0.119919
 30
0.000000
  70
    32
  0
VERTEX
  8
0
  5
E5F
 10
4.45233
 20
-0.123243
 30
0.000000
  70
    32
  0
VERTEX
  8
0
  5
E60
 10
4.45126
 20
-0.126526
 30
0.000000
  70
    32
  0
VERTEX
  8
0
  5
E61
 10
4.45016
 20
-0.129769
 30
0.000000
  70
    32
  0
VERTEX
  8
0
  5
E62
 10
4.44905
 20
-0.132971
 30
0.000000
  70
    32
  0
VERTEX
  8
0
  5
E63
 10
4.44791
 20
-0.136133
 30
0.000000
  70
    32
  0
VERTEX
  8
0
  5
E64
 10
4.44676
 20
-0.139255
 30
0.000000
  70
    32
  0
VERTEX
  8
0
  5
E65
 10
4.44558
 20
-0.142338
 30
0.000000
  70
    32
  0
VERTEX
  8
0
  5
E66
 10
4.44438
 20
-0.145381
 30
0.000000
  70
    32
  0
VERTEX
  8
0
  5
E67
 10
4.44317
 20
-0.148385
 30
0.000000
  70
    32
  0
VERTEX
  8
0
  5
E68
 10
4.44193
 20
-0.151351
 30
0.000000
  70
    32
  0
VERTEX
  8
0
  5
E69
 10
4.44068
 20
-0.154279
 30
0.000000
  70
    32
  0
VERTEX
  8
0
  5
E6A
 10
4.43940
 20
-0.157168
 30
0.000000
  70
    32
  0
VERTEX
  8
0
  5
E6B
 10
4.43811
 20
-0.160019
 30
0.000000
  70
    32
  0
VERTEX
  8
0
  5
E6C
 10
4.43680
 20
-0.162833
 30
0.000000
  70
    32
  0
VERTEX
  8
0
  5
E6D
 10
4.43547
 20
-0.165609
 30
0.000000
  70
    32
  0
VERTEX
  8
0
  5
E6E
 10
4.43412
 20
-0.168349
 30
0.000000
  70
    32
  0
VERTEX
  8
0
  5
E6F
 10
4.43276
 20
-0.171052
 30
0.000000
  70
    32
  0
VERTEX
  8
0
  5
E70
 10
4.43138
 20
-0.173718
 30
0.000000
  70
    32
  0
VERTEX
  8
0
  5
E71
 10
4.42998
 20
-0.176348
 30
0.000000
  70
    32
  0
VERTEX
  8
0
  5
E72
 10
4.42856
 20
-0.178942
 30
0.000000
  70
    32
  0
VERTEX
  8
0
  5
E73
 10
4.42713
 20
-0.181501
 30
0.000000
  70
    32
  0
VERTEX
  8
0
  5
E74
 10
4.42569
 20
-0.184024
 30
0.000000
  70
    32
  0
VERTEX
  8
0
  5
E75
 10
4.42422
 20
-0.186512
 30
0.000000
  70
    32
  0
VERTEX
  8
0
  5
E76
 10
4.42274
 20
-0.188966
 30
0.000000
  70
    32
  0
VERTEX
  8
0
  5
E77
 10
4.42125
 20
-0.191385
 30
0.000000
  70
    32
  0
VERTEX
  8
0
  5
E78
 10
4.41974
 20
-0.193770
 30
0.000000
  70
    32
  0
VERTEX
  8
0
  5
E79
 10
4.41821
 20
-0.196121
 30
0.000000
  70
    32
  0
VERTEX
  8
0
  5
E7A
 10
4.41667
 20
-0.198438
 30
0.000000
  70
    32
  0
VERTEX
  8
0
  5
E7B
 10
4.41512
 20
-0.200722
 30
0.000000
  70
    32
  0
VERTEX
  8
0
  5
E7C
 10
4.41355
 20
-0.202972
 30
0.000000
  70
    32
  0
VERTEX
  8
0
  5
E7D
 10
4.41197
 20
-0.205190
 30
0.000000
  70
    32
  0
VERTEX
  8
0
  5
E7E
 10
4.41038
 20
-0.207376
 30
0.000000
  70
    32
  0
VERTEX
  8
0
  5
E7F
 10
4.40877
 20
-0.209529
 30
0.000000
  70
    32
  0
VERTEX
  8
0
  5
E80
 10
4.40715
 20
-0.211650
 30
0.000000
  70
    32
  0
VERTEX
  8
0
  5
E81
 10
4.40551
 20
-0.213740
 30
0.000000
  70
    32
  0
VERTEX
  8
0
  5
E82
 10
4.40386
 20
-0.215798
 30
0.000000
  70
    32
  0
VERTEX
  8
0
  5
E83
 10
4.40221
 20
-0.217825
 30
0.000000
  70
    32
  0
VERTEX
  8
0
  5
E84
 10
4.40053
 20
-0.219821
 30
0.000000
  70
    32
  0
VERTEX
  8
0
  5
E85
 10
4.39885
 20
-0.221787
 30
0.000000
  70
    32
  0
VERTEX
  8
0
  5
E86
 10
4.39716
 20
-0.223722
 30
0.000000
  70
    32
  0
VERTEX
  8
0
  5
E87
 10
4.39545
 20
-0.225627
 30
0.000000
  70
    32
  0
VERTEX
  8
0
  5
E88
 10
4.39374
 20
-0.227503
 30
0.000000
  70
    32
  0
VERTEX
  8
0
  5
E89
 10
4.39201
 20
-0.229349
 30
0.000000
  70
    32
  0
VERTEX
  8
0
  5
E8A
 10
4.39027
 20
-0.231166
 30
0.000000
  70
    32
  0
VERTEX
  8
0
  5
E8B
 10
4.38852
 20
-0.232954
 30
0.000000
  70
    32
  0
VERTEX
  8
0
  5
E8C
 10
4.38677
 20
-0.234714
 30
0.000000
  70
    32
  0
VERTEX
  8
0
  5
E8D
 10
4.38500
 20
-0.236445
 30
0.000000
  70
    32
  0
VERTEX
  8
0
  5
E8E
 10
4.38322
 20
-0.238148
 30
0.000000
  70
    32
  0
VERTEX
  8
0
  5
E8F
 10
4.38144
 20
-0.239824
 30
0.000000
  70
    32
  0
VERTEX
  8
0
  5
E90
 10
4.37964
 20
-0.241472
 30
0.000000
  70
    32
  0
VERTEX
  8
0
  5
E91
 10
4.37784
 20
-0.243092
 30
0.000000
  70
    32
  0
VERTEX
  8
0
  5
E92
 10
4.37603
 20
-0.244686
 30
0.000000
  70
    32
  0
VERTEX
  8
0
  5
E93
 10
4.37421
 20
-0.246253
 30
0.000000
  70
    32
  0
VERTEX
  8
0
  5
E94
 10
4.37239
 20
-0.247794
 30
0.000000
  70
    32
  0
VERTEX
  8
0
  5
E95
 10
4.37055
 20
-0.249309
 30
0.000000
  70
    32
  0
VERTEX
  8
0
  5
E96
 10
4.36871
 20
-0.250798
 30
0.000000
  70
    32
  0
VERTEX
  8
0
  5
E97
 10
4.36686
 20
-0.252261
 30
0.000000
  70
    32
  0
VERTEX
  8
0
  5
E98
 10
4.36501
 20
-0.253699
 30
0.000000
  70
    32
  0
VERTEX
  8
0
  5
E99
 10
4.36315
 20
-0.255112
 30
0.000000
  70
    32
  0
VERTEX
  8
0
  5
E9A
 10
4.36128
 20
-0.256501
 30
0.000000
  70
    32
  0
VERTEX
  8
0
  5
E9B
 10
4.35940
 20
-0.257865
 30
0.000000
  70
    32
  0
VERTEX
  8
0
  5
E9C
 10
4.35753
 20
-0.259205
 30
0.000000
  70
    32
  0
VERTEX
  8
0
  5
E9D
 10
4.35564
 20
-0.260521
 30
0.000000
  70
    32
  0
VERTEX
  8
0
  5
E9E
 10
4.35375
 20
-0.261814
 30
0.000000
  70
    32
  0
VERTEX
  8
0
  5
E9F
 10
4.35186
 20
-0.263083
 30
0.000000
  70
    32
  0
VERTEX
  8
0
  5
EA0
 10
4.34996
 20
-0.264330
 30
0.000000
  70
    32
  0
VERTEX
  8
0
  5
EA1
 10
4.34806
 20
-0.265553
 30
0.000000
  70
    32
  0
VERTEX
  8
0
  5
EA2
 10
4.34615
 20
-0.266754
 30
0.000000
  70
    32
  0
VERTEX
  8
0
  5
EA3
 10
4.34424
 20
-0.267934
 30
0.000000
  70
    32
  0
VERTEX
  8
0
  5
EA4
 10
4.34232
 20
-0.269091
 30
0.000000
  70
    32
  0
VERTEX
  8
0
  5
EA5
 10
4.34041
 20
-0.270226
 30
0.000000
  70
    32
  0
VERTEX
  8
0
  5
EA6
 10
4.33849
 20
-0.271341
 30
0.000000
  70
    32
  0
VERTEX
  8
0
  5
EA7
 10
4.33656
 20
-0.272434
 30
0.000000
  70
    32
  0
SEQEND
  8
0
  5
EA8
  0
POLYLINE
  8
0
  5
EA9
  66
     1
 10
0.000000
 20
0.000000
 30
0.000000
  70
     8
  0
VERTEX
  8
0
  5
EAA
 10
2.51510
 20
-0.319284
 30
0.000000
  70
    32
  0
VERTEX
  8
0
  5
EAB
 10
2.51510
 20
-0.320326
 30
0.000000
  70
    32
  0
VERTEX
  8
0
  5
EAC
 10
2.51510
 20
-0.321222
 30
0.000000
  70
    32
  0
VERTEX
  8
0
  5
EAD
 10
2.51510
 20
-0.321968
 30
0.000000
  70
    32
  0
VERTEX
  8
0
  5
EAE
 10
2.51510
 20
-0.322563
 30
0.000000
  70
    32
  0
VERTEX
  8
0
  5
EAF
 10
2.51510
 20
-0.323005
 30
0.000000
  70
    32
  0
VERTEX
  8
0
  5
EB0
 10
2.51510
 20
-0.323291
 30
0.000000
  70
    32
  0
VERTEX
  8
0
  5
EB1
 10
2.51510
 20
-0.323421
 30
0.000000
  70
    32
  0
VERTEX
  8
0
  5
EB2
 10
2.51510
 20
-0.323702
 30
0.000000
  70
    32
  0
VERTEX
  8
0
  5
EB3
 10
2.51511
 20
-0.324099
 30
0.000000
  70
    32
  0
VERTEX
  8
0
  5
EB4
 10
2.51511
 20
-0.324495
 30
0.000000
  70
    32
  0
VERTEX
  8
0
  5
EB5
 10
2.51513
 20
-0.324890
 30
0.000000
  70
    32
  0
VERTEX
  8
0
  5
EB6
 10
2.51514
 20
-0.325284
 30
0.000000
  70
    32
  0
VERTEX
  8
0
  5
EB7
 10
2.51516
 20
-0.325677
 30
0.000000
  70
    32
  0
VERTEX
  8
0
  5
EB8
 10
2.51519
 20
-0.326069
 30
0.000000
  70
    32
  0
VERTEX
  8
0
  5
EB9
 10
2.51521
 20
-0.326459
 30
0.000000
  70
    32
  0
VERTEX
  8
0
  5
EBA
 10
2.51525
 20
-0.326849
 30
0.000000
  70
    32
  0
VERTEX
  8
0
  5
EBB
 10
2.51528
 20
-0.327237
 30
0.000000
  70
    32
  0
VERTEX
  8
0
  5
EBC
 10
2.51532
 20
-0.327625
 30
0.000000
  70
    32
  0
VERTEX
  8
0
  5
EBD
 10
2.51537
 20
-0.328011
 30
0.000000
  70
    32
  0
VERTEX
  8
0
  5
EBE
 10
2.51542
 20
-0.328396
 30
0.000000
  70
    32
  0
VERTEX
  8
0
  5
EBF
 10
2.51547
 20
-0.328779
 30
0.000000
  70
    32
  0
VERTEX
  8
0
  5
EC0
 10
2.51553
 20
-0.329162
 30
0.000000
  70
    32
  0
VERTEX
  8
0
  5
EC1
 10
2.51559
 20
-0.329543
 30
0.000000
  70
    32
  0
VERTEX
  8
0
  5
EC2
 10
2.51565
 20
-0.329923
 30
0.000000
  70
    32
  0
VERTEX
  8
0
  5
EC3
 10
2.51572
 20
-0.330302
 30
0.000000
  70
    32
  0
VERTEX
  8
0
  5
EC4
 10
2.51579
 20
-0.330679
 30
0.000000
  70
    32
  0
VERTEX
  8
0
  5
EC5
 10
2.51587
 20
-0.331055
 30
0.000000
  70
    32
  0
VERTEX
  8
0
  5
EC6
 10
2.51595
 20
-0.331430
 30
0.000000
  70
    32
  0
VERTEX
  8
0
  5
EC7
 10
2.51604
 20
-0.331803
 30
0.000000
  70
    32
  0
VERTEX
  8
0
  5
EC8
 10
2.51612
 20
-0.332175
 30
0.000000
  70
    32
  0
VERTEX
  8
0
  5
EC9
 10
2.51622
 20
-0.332545
 30
0.000000
  70
    32
  0
VERTEX
  8
0
  5
ECA
 10
2.51631
 20
-0.332914
 30
0.000000
  70
    32
  0
VERTEX
  8
0
  5
ECB
 10
2.51641
 20
-0.333282
 30
0.000000
  70
    32
  0
VERTEX
  8
0
  5
ECC
 10
2.51651
 20
-0.333648
 30
0.000000
  70
    32
  0
VERTEX
  8
0
  5
ECD
 10
2.51662
 20
-0.334012
 30
0.000000
  70
    32
  0
VERTEX
  8
0
  5
ECE
 10
2.51673
 20
-0.334375
 30
0.000000
  70
    32
  0
VERTEX
  8
0
  5
ECF
 10
2.51685
 20
-0.334737
 30
0.000000
  70
    32
  0
VERTEX
  8
0
  5
ED0
 10
2.51696
 20
-0.335097
 30
0.000000
  70
    32
  0
VERTEX
  8
0
  5
ED1
 10
2.51708
 20
-0.335455
 30
0.000000
  70
    32
  0
VERTEX
  8
0
  5
ED2
 10
2.51721
 20
-0.335812
 30
0.000000
  70
    32
  0
VERTEX
  8
0
  5
ED3
 10
2.51734
 20
-0.336167
 30
0.000000
  70
    32
  0
VERTEX
  8
0
  5
ED4
 10
2.51747
 20
-0.336520
 30
0.000000
  70
    32
  0
VERTEX
  8
0
  5
ED5
 10
2.51761
 20
-0.336872
 30
0.000000
  70
    32
  0
VERTEX
  8
0
  5
ED6
 10
2.51775
 20
-0.337222
 30
0.000000
  70
    32
  0
VERTEX
  8
0
  5
ED7
 10
2.51789
 20
-0.337570
 30
0.000000
  70
    32
  0
VERTEX
  8
0
  5
ED8
 10
2.51804
 20
-0.337917
 30
0.000000
  70
    32
  0
VERTEX
  8
0
  5
ED9
 10
2.51819
 20
-0.338262
 30
0.000000
  70
    32
  0
VERTEX
  8
0
  5
EDA
 10
2.51834
 20
-0.338605
 30
0.000000
  70
    32
  0
VERTEX
  8
0
  5
EDB
 10
2.51850
 20
-0.338946
 30
0.000000
  70
    32
  0
VERTEX
  8
0
  5
EDC
 10
2.51866
 20
-0.339286
 30
0.000000
  70
    32
  0
VERTEX
  8
0
  5
EDD
 10
2.51882
 20
-0.339623
 30
0.000000
  70
    32
  0
VERTEX
  8
0
  5
EDE
 10
2.51899
 20
-0.339959
 30
0.000000
  70
    32
  0
VERTEX
  8
0
  5
EDF
 10
2.51916
 20
-0.340293
 30
0.000000
  70
    32
  0
VERTEX
  8
0
  5
EE0
 10
2.51933
 20
-0.340625
 30
0.000000
  70
    32
  0
VERTEX
  8
0
  5
EE1
 10
2.51951
 20
-0.340955
 30
0.000000
  70
    32
  0
VERTEX
  8
0
  5
EE2
 10
2.51969
 20
-0.341284
 30
0.000000
  70
    32
  0
VERTEX
  8
0
  5
EE3
 10
2.51987
 20
-0.341610
 30
0.000000
  70
    32
  0
VERTEX
  8
0
  5
EE4
 10
2.52006
 20
-0.341934
 30
0.000000
  70
    32
  0
VERTEX
  8
0
  5
EE5
 10
2.52025
 20
-0.342257
 30
0.000000
  70
    32
  0
VERTEX
  8
0
  5
EE6
 10
2.52044
 20
-0.342577
 30
0.000000
  70
    32
  0
VERTEX
  8
0
  5
EE7
 10
2.52064
 20
-0.342895
 30
0.000000
  70
    32
  0
VERTEX
  8
0
  5
EE8
 10
2.52084
 20
-0.343211
 30
0.000000
  70
    32
  0
VERTEX
  8
0
  5
EE9
 10
2.52104
 20
-0.343525
 30
0.000000
  70
    32
  0
VERTEX
  8
0
  5
EEA
 10
2.52125
 20
-0.343838
 30
0.000000
  70
    32
  0
VERTEX
  8
0
  5
EEB
 10
2.52146
 20
-0.344147
 30
0.000000
  70
    32
  0
VERTEX
  8
0
  5
EEC
 10
2.52167
 20
-0.344455
 30
0.000000
  70
    32
  0
VERTEX
  8
0
  5
EED
 10
2.52188
 20
-0.344761
 30
0.000000
  70
    32
  0
VERTEX
  8
0
  5
EEE
 10
2.52210
 20
-0.345064
 30
0.000000
  70
    32
  0
VERTEX
  8
0
  5
EEF
 10
2.52232
 20
-0.345366
 30
0.000000
  70
    32
  0
VERTEX
  8
0
  5
EF0
 10
2.52255
 20
-0.345665
 30
0.000000
  70
    32
  0
VERTEX
  8
0
  5
EF1
 10
2.52277
 20
-0.345962
 30
0.000000
  70
    32
  0
VERTEX
  8
0
  5
EF2
 10
2.52300
 20
-0.346256
 30
0.000000
  70
    32
  0
VERTEX
  8
0
  5
EF3
 10
2.52324
 20
-0.346548
 30
0.000000
  70
    32
  0
VERTEX
  8
0
  5
EF4
 10
2.52347
 20
-0.346838
 30
0.000000
  70
    32
  0
VERTEX
  8
0
  5
EF5
 10
2.52371
 20
-0.347126
 30
0.000000
  70
    32
  0
VERTEX
  8
0
  5
EF6
 10
2.52395
 20
-0.347411
 30
0.000000
  70
    32
  0
VERTEX
  8
0
  5
EF7
 10
2.52420
 20
-0.347694
 30
0.000000
  70
    32
  0
VERTEX
  8
0
  5
EF8
 10
2.52445
 20
-0.347975
 30
0.000000
  70
    32
  0
VERTEX
  8
0
  5
EF9
 10
2.52470
 20
-0.348253
 30
0.000000
  70
    32
  0
VERTEX
  8
0
  5
EFA
 10
2.52495
 20
-0.348529
 30
0.000000
  70
    32
  0
VERTEX
  8
0
  5
EFB
 10
2.52520
 20
-0.348802
 30
0.000000
  70
    32
  0
VERTEX
  8
0
  5
EFC
 10
2.52546
 20
-0.349073
 30
0.000000
  70
    32
  0
VERTEX
  8
0
  5
EFD
 10
2.52572
 20
-0.349342
 30
0.000000
  70
    32
  0
VERTEX
  8
0
  5
EFE
 10
2.52599
 20
-0.349607
 30
0.000000
  70
    32
  0
VERTEX
  8
0
  5
EFF
 10
2.52626
 20
-0.349871
 30
0.000000
  70
    32
  0
VERTEX
  8
0
  5
F00
 10
2.52652
 20
-0.350132
 30
0.000000
  70
    32
  0
VERTEX
  8
0
  5
F01
 10
2.52680
 20
-0.350390
 30
0.000000
  70
    32
  0
VERTEX
  8
0
  5
F02
 10
2.52707
 20
-0.350646
 30
0.000000
  70
    32
  0
VERTEX
  8
0
  5
F03
 10
2.52735
 20
-0.350899
 30
0.000000
  70
    32
  0
VERTEX
  8
0
  5
F04
 10
2.52763
 20
-0.351149
 30
0.000000
  70
    32
  0
VERTEX
  8
0
  5
F05
 10
2.52791
 20
-0.351397
 30
0.000000
  70
    32
  0
VERTEX
  8
0
  5
F06
 10
2.52819
 20
-0.351642
 30
0.000000
  70
    32
  0
VERTEX
  8
0
  5
F07
 10
2.52848
 20
-0.351885
 30
0.000000
  70
    32
  0
VERTEX
  8
0
  5
F08
 10
2.52877
 20
-0.352124
 30
0.000000
  70
    32
  0
VERTEX
  8
0
  5
F09
 10
2.52906
 20
-0.352361
 30
0.000000
  70
    32
  0
VERTEX
  8
0
  5
F0A
 10
2.52936
 20
-0.352596
 30
0.000000
  70
    32
  0
VERTEX
  8
0
  5
F0B
 10
2.52966
 20
-0.352827
 30
0.000000
  70
    32
  0
VERTEX
  8
0
  5
F0C
 10
2.52996
 20
-0.353056
 30
0.000000
  70
    32
  0
VERTEX
  8
0
  5
F0D
 10
2.53026
 20
-0.353282
 30
0.000000
  70
    32
  0
VERTEX
  8
0
  5
F0E
 10
2.53056
 20
-0.353505
 30
0.000000
  70
    32
  0
VERTEX
  8
0
  5
F0F
 10
2.53087
 20
-0.353725
 30
0.000000
  70
    32
  0
VERTEX
  8
0
  5
F10
 10
2.53118
 20
-0.353943
 30
0.000000
  70
    32
  0
VERTEX
  8
0
  5
F11
 10
2.53149
 20
-0.354157
 30
0.000000
  70
    32
  0
VERTEX
  8
0
  5
F12
 10
2.53180
 20
-0.354369
 30
0.000000
  70
    32
  0
VERTEX
  8
0
  5
F13
 10
2.53212
 20
-0.354577
 30
0.000000
  70
    32
  0
VERTEX
  8
0
  5
F14
 10
2.53244
 20
-0.354783
 30
0.000000
  70
    32
  0
VERTEX
  8
0
  5
F15
 10
2.53276
 20
-0.354986
 30
0.000000
  70
    32
  0
VERTEX
  8
0
  5
F16
 10
2.53308
 20
-0.355186
 30
0.000000
  70
    32
  0
VERTEX
  8
0
  5
F17
 10
2.53341
 20
-0.355382
 30
0.000000
  70
    32
  0
VERTEX
  8
0
  5
F18
 10
2.53373
 20
-0.355576
 30
0.000000
  70
    32
  0
VERTEX
  8
0
  5
F19
 10
2.53406
 20
-0.355767
 30
0.000000
  70
    32
  0
VERTEX
  8
0
  5
F1A
 10
2.53439
 20
-0.355954
 30
0.000000
  70
    32
  0
VERTEX
  8
0
  5
F1B
 10
2.53473
 20
-0.356139
 30
0.000000
  70
    32
  0
VERTEX
  8
0
  5
F1C
 10
2.53506
 20
-0.356320
 30
0.000000
  70
    32
  0
VERTEX
  8
0
  5
F1D
 10
2.53540
 20
-0.356499
 30
0.000000
  70
    32
  0
VERTEX
  8
0
  5
F1E
 10
2.53574
 20
-0.356674
 30
0.000000
  70
    32
  0
VERTEX
  8
0
  5
F1F
 10
2.53608
 20
-0.356846
 30
0.000000
  70
    32
  0
VERTEX
  8
0
  5
F20
 10
2.53642
 20
-0.357014
 30
0.000000
  70
    32
  0
VERTEX
  8
0
  5
F21
 10
2.53677
 20
-0.357180
 30
0.000000
  70
    32
  0
VERTEX
  8
0
  5
F22
 10
2.53712
 20
-0.357342
 30
0.000000
  70
    32
  0
VERTEX
  8
0
  5
F23
 10
2.53747
 20
-0.357501
 30
0.000000
  70
    32
  0
VERTEX
  8
0
  5
F24
 10
2.53782
 20
-0.357657
 30
0.000000
  70
    32
  0
VERTEX
  8
0
  5
F25
 10
2.53817
 20
-0.357810
 30
0.000000
  70
    32
  0
VERTEX
  8
0
  5
F26
 10
2.53853
 20
-0.357959
 30
0.000000
  70
    32
  0
VERTEX
  8
0
  5
F27
 10
2.53888
 20
-0.358105
 30
0.000000
  70
    32
  0
VERTEX
  8
0
  5
F28
 10
2.53924
 20
-0.358247
 30
0.000000
  70
    32
  0
VERTEX
  8
0
  5
F29
 10
2.53960
 20
-0.358386
 30
0.000000
  70
    32
  0
VERTEX
  8
0
  5
F2A
 10
2.53996
 20
-0.358522
 30
0.000000
  70
    32
  0
VERTEX
  8
0
  5
F2B
 10
2.54033
 20
-0.358654
 30
0.000000
  70
    32
  0
VERTEX
  8
0
  5
F2C
 10
2.54069
 20
-0.358783
 30
0.000000
  70
    32
  0
VERTEX
  8
0
  5
F2D
 10
2.54106
 20
-0.358908
 30
0.000000
  70
    32
  0
VERTEX
  8
0
  5
F2E
 10
2.54143
 20
-0.359030
 30
0.000000
  70
    32
  0
VERTEX
  8
0
  5
F2F
 10
2.54180
 20
-0.359149
 30
0.000000
  70
    32
  0
VERTEX
  8
0
  5
F30
 10
2.54217
 20
-0.359264
 30
0.000000
  70
    32
  0
VERTEX
  8
0
  5
F31
 10
2.54255
 20
-0.359375
 30
0.000000
  70
    32
  0
VERTEX
  8
0
  5
F32
 10
2.54292
 20
-0.359483
 30
0.000000
  70
    32
  0
VERTEX
  8
0
  5
F33
 10
2.54330
 20
-0.359587
 30
0.000000
  70
    32
  0
VERTEX
  8
0
  5
F34
 10
2.54368
 20
-0.359687
 30
0.000000
  70
    32
  0
VERTEX
  8
0
  5
F35
 10
2.54406
 20
-0.359784
 30
0.000000
  70
    32
  0
VERTEX
  8
0
  5
F36
 10
2.54444
 20
-0.359878
 30
0.000000
  70
    32
  0
VERTEX
  8
0
  5
F37
 10
2.54483
 20
-0.359968
 30
0.000000
  70
    32
  0
VERTEX
  8
0
  5
F38
 10
2.54521
 20
-0.360054
 30
0.000000
  70
    32
  0
VERTEX
  8
0
  5
F39
 10
2.54560
 20
-0.360136
 30
0.000000
  70
    32
  0
VERTEX
  8
0
  5
F3A
 10
2.54599
 20
-0.360214
 30
0.000000
  70
    32
  0
VERTEX
  8
0
  5
F3B
 10
2.54638
 20
-0.360289
 30
0.000000
  70
    32
  0
VERTEX
  8
0
  5
F3C
 10
2.54677
 20
-0.360360
 30
0.000000
  70
    32
  0
VERTEX
  8
0
  5
F3D
 10
2.54716
 20
-0.360428
 30
0.000000
  70
    32
  0
VERTEX
  8
0
  5
F3E
 10
2.54755
 20
-0.360491
 30
0.000000
  70
    32
  0
VERTEX
  8
0
  5
F3F
 10
2.54795
 20
-0.360551
 30
0.000000
  70
    32
  0
VERTEX
  8
0
  5
F40
 10
2.54835
 20
-0.360607
 30
0.000000
  70
    32
  0
VERTEX
  8
0
  5
F41
 10
2.54874
 20
-0.360659
 30
0.000000
  70
    32
  0
VERTEX
  8
0
  5
F42
 10
2.54914
 20
-0.360707
 30
0.000000
  70
    32
  0
VERTEX
  8
0
  5
F43
 10
2.54954
 20
-0.360751
 30
0.000000
  70
    32
  0
VERTEX
  8
0
  5
F44
 10
2.54994
 20
-0.360791
 30
0.000000
  70
    32
  0
VERTEX
  8
0
  5
F45
 10
2.55035
 20
-0.360827
 30
0.000000
  70
    32
  0
VERTEX
  8
0
  5
F46
 10
2.55075
 20
-0.360860
 30
0.000000
  70
    32
  0
VERTEX
  8
0
  5
F47
 10
2.55116
 20
-0.360888
 30
0.000000
  70
    32
  0
VERTEX
  8
0
  5
F48
 10
2.55156
 20
-0.360912
 30
0.000000
  70
    32
  0
VERTEX
  8
0
  5
F49
 10
2.55197
 20
-0.360933
 30
0.000000
  70
    32
  0
VERTEX
  8
0
  5
F4A
 10
2.55238
 20
-0.360949
 30
0.000000
  70
    32
  0
VERTEX
  8
0
  5
F4B
 10
2.55279
 20
-0.360961
 30
0.000000
  70
    32
  0
VERTEX
  8
0
  5
F4C
 10
2.55320
 20
-0.360969
 30
0.000000
  70
    32
  0
VERTEX
  8
0
  5
F4D
 10
2.55361
 20
-0.360973
 30
0.000000
  70
    32
  0
VERTEX
  8
0
  5
F4E
 10
2.55391
 20
-0.360972
 30
0.000000
  70
    32
  0
VERTEX
  8
0
  5
F4F
 10
2.55420
 20
-0.360969
 30
0.000000
  70
    32
  0
VERTEX
  8
0
  5
F50
 10
2.55448
 20
-0.360964
 30
0.000000
  70
    32
  0
VERTEX
  8
0
  5
F51
 10
2.55476
 20
-0.360957
 30
0.000000
  70
    32
  0
VERTEX
  8
0
  5
F52
 10
2.55504
 20
-0.360948
 30
0.000000
  70
    32
  0
VERTEX
  8
0
  5
F53
 10
2.55532
 20
-0.360937
 30
0.000000
  70
    32
  0
VERTEX
  8
0
  5
F54
 10
2.55560
 20
-0.360924
 30
0.000000
  70
    32
  0
VERTEX
  8
0
  5
F55
 10
2.55587
 20
-0.360909
 30
0.000000
  70
    32
  0
VERTEX
  8
0
  5
F56
 10
2.55615
 20
-0.360892
 30
0.000000
  70
    32
  0
VERTEX
  8
0
  5
F57
 10
2.55643
 20
-0.360874
 30
0.000000
  70
    32
  0
VERTEX
  8
0
  5
F58
 10
2.55671
 20
-0.360853
 30
0.000000
  70
    32
  0
VERTEX
  8
0
  5
F59
 10
2.55698
 20
-0.360831
 30
0.000000
  70
    32
  0
VERTEX
  8
0
  5
F5A
 10
2.55726
 20
-0.360806
 30
0.000000
  70
    32
  0
VERTEX
  8
0
  5
F5B
 10
2.55753
 20
-0.360780
 30
0.000000
  70
    32
  0
VERTEX
  8
0
  5
F5C
 10
2.55781
 20
-0.360752
 30
0.000000
  70
    32
  0
VERTEX
  8
0
  5
F5D
 10
2.55808
 20
-0.360722
 30
0.000000
  70
    32
  0
VERTEX
  8
0
  5
F5E
 10
2.55836
 20
-0.360690
 30
0.000000
  70
    32
  0
VERTEX
  8
0
  5
F5F
 10
2.55863
 20
-0.360656
 30
0.000000
  70
    32
  0
VERTEX
  8
0
  5
F60
 10
2.55890
 20
-0.360621
 30
0.000000
  70
    32
  0
VERTEX
  8
0
  5
F61
 10
2.55917
 20
-0.360583
 30
0.000000
  70
    32
  0
VERTEX
  8
0
  5
F62
 10
2.55945
 20
-0.360544
 30
0.000000
  70
    32
  0
VERTEX
  8
0
  5
F63
 10
2.55972
 20
-0.360503
 30
0.000000
  70
    32
  0
VERTEX
  8
0
  5
F64
 10
2.55999
 20
-0.360460
 30
0.000000
  70
    32
  0
VERTEX
  8
0
  5
F65
 10
2.56026
 20
-0.360415
 30
0.000000
  70
    32
  0
VERTEX
  8
0
  5
F66
 10
2.56052
 20
-0.360369
 30
0.000000
  70
    32
  0
VERTEX
  8
0
  5
F67
 10
2.56079
 20
-0.360321
 30
0.000000
  70
    32
  0
VERTEX
  8
0
  5
F68
 10
2.56106
 20
-0.360271
 30
0.000000
  70
    32
  0
VERTEX
  8
0
  5
F69
 10
2.56133
 20
-0.360219
 30
0.000000
  70
    32
  0
VERTEX
  8
0
  5
F6A
 10
2.56159
 20
-0.360165
 30
0.000000
  70
    32
  0
VERTEX
  8
0
  5
F6B
 10
2.56186
 20
-0.360110
 30
0.000000
  70
    32
  0
VERTEX
  8
0
  5
F6C
 10
2.56212
 20
-0.360052
 30
0.000000
  70
    32
  0
VERTEX
  8
0
  5
F6D
 10
2.56239
 20
-0.359993
 30
0.000000
  70
    32
  0
VERTEX
  8
0
  5
F6E
 10
2.56265
 20
-0.359933
 30
0.000000
  70
    32
  0
VERTEX
  8
0
  5
F6F
 10
2.56291
 20
-0.359870
 30
0.000000
  70
    32
  0
VERTEX
  8
0
  5
F70
 10
2.56318
 20
-0.359806
 30
0.000000
  70
    32
  0
VERTEX
  8
0
  5
F71
 10
2.56344
 20
-0.359740
 30
0.000000
  70
    32
  0
VERTEX
  8
0
  5
F72
 10
2.56370
 20
-0.359672
 30
0.000000
  70
    32
  0
VERTEX
  8
0
  5
F73
 10
2.56396
 20
-0.359603
 30
0.000000
  70
    32
  0
VERTEX
  8
0
  5
F74
 10
2.56422
 20
-0.359532
 30
0.000000
  70
    32
  0
VERTEX
  8
0
  5
F75
 10
2.56447
 20
-0.359459
 30
0.000000
  70
    32
  0
VERTEX
  8
0
  5
F76
 10
2.56473
 20
-0.359384
 30
0.000000
  70
    32
  0
VERTEX
  8
0
  5
F77
 10
2.56499
 20
-0.359308
 30
0.000000
  70
    32
  0
VERTEX
  8
0
  5
F78
 10
2.56524
 20
-0.359230
 30
0.000000
  70
    32
  0
VERTEX
  8
0
  5
F79
 10
2.56550
 20
-0.359151
 30
0.000000
  70
    32
  0
VERTEX
  8
0
  5
F7A
 10
2.56575
 20
-0.359070
 30
0.000000
  70
    32
  0
VERTEX
  8
0
  5
F7B
 10
2.56601
 20
-0.358987
 30
0.000000
  70
    32
  0
VERTEX
  8
0
  5
F7C
 10
2.56626
 20
-0.358902
 30
0.000000
  70
    32
  0
VERTEX
  8
0
  5
F7D
 10
2.56651
 20
-0.358816
 30
0.000000
  70
    32
  0
VERTEX
  8
0
  5
F7E
 10
2.56676
 20
-0.358728
 30
0.000000
  70
    32
  0
VERTEX
  8
0
  5
F7F
 10
2.56701
 20
-0.358638
 30
0.000000
  70
    32
  0
VERTEX
  8
0
  5
F80
 10
2.56726
 20
-0.358547
 30
0.000000
  70
    32
  0
VERTEX
  8
0
  5
F81
 10
2.56751
 20
-0.358454
 30
0.000000
  70
    32
  0
VERTEX
  8
0
  5
F82
 10
2.56776
 20
-0.358360
 30
0.000000
  70
    32
  0
VERTEX
  8
0
  5
F83
 10
2.56801
 20
-0.358264
 30
0.000000
  70
    32
  0
VERTEX
  8
0
  5
F84
 10
2.56826
 20
-0.358166
 30
0.000000
  70
    32
  0
VERTEX
  8
0
  5
F85
 10
2.56850
 20
-0.358067
 30
0.000000
  70
    32
  0
VERTEX
  8
0
  5
F86
 10
2.56875
 20
-0.357966
 30
0.000000
  70
    32
  0
VERTEX
  8
0
  5
F87
 10
2.56899
 20
-0.357864
 30
0.000000
  70
    32
  0
VERTEX
  8
0
  5
F88
 10
2.56923
 20
-0.357760
 30
0.000000
  70
    32
  0
VERTEX
  8
0
  5
F89
 10
2.56947
 20
-0.357655
 30
0.000000
  70
    32
  0
VERTEX
  8
0
  5
F8A
 10
2.56971
 20
-0.357548
 30
0.000000
  70
    32
  0
VERTEX
  8
0
  5
F8B
 10
2.56995
 20
-0.357439
 30
0.000000
  70
    32
  0
VERTEX
  8
0
  5
F8C
 10
2.57019
 20
-0.357329
 30
0.000000
  70
    32
  0
VERTEX
  8
0
  5
F8D
 10
2.57043
 20
-0.357217
 30
0.000000
  70
    32
  0
VERTEX
  8
0
  5
F8E
 10
2.57067
 20
-0.357104
 30
0.000000
  70
    32
  0
VERTEX
  8
0
  5
F8F
 10
2.57091
 20
-0.356989
 30
0.000000
  70
    32
  0
VERTEX
  8
0
  5
F90
 10
2.57114
 20
-0.356872
 30
0.000000
  70
    32
  0
VERTEX
  8
0
  5
F91
 10
2.57138
 20
-0.356755
 30
0.000000
  70
    32
  0
VERTEX
  8
0
  5
F92
 10
2.57161
 20
-0.356635
 30
0.000000
  70
    32
  0
VERTEX
  8
0
  5
F93
 10
2.57184
 20
-0.356514
 30
0.000000
  70
    32
  0
VERTEX
  8
0
  5
F94
 10
2.57207
 20
-0.356392
 30
0.000000
  70
    32
  0
VERTEX
  8
0
  5
F95
 10
2.57231
 20
-0.356268
 30
0.000000
  70
    32
  0
VERTEX
  8
0
  5
F96
 10
2.57254
 20
-0.356143
 30
0.000000
  70
    32
  0
VERTEX
  8
0
  5
F97
 10
2.57276
 20
-0.356016
 30
0.000000
  70
    32
  0
VERTEX
  8
0
  5
F98
 10
2.57299
 20
-0.355888
 30
0.000000
  70
    32
  0
VERTEX
  8
0
  5
F99
 10
2.57322
 20
-0.355758
 30
0.000000
  70
    32
  0
VERTEX
  8
0
  5
F9A
 10
2.57344
 20
-0.355627
 30
0.000000
  70
    32
  0
VERTEX
  8
0
  5
F9B
 10
2.57367
 20
-0.355494
 30
0.000000
  70
    32
  0
VERTEX
  8
0
  5
F9C
 10
2.57389
 20
-0.355360
 30
0.000000
  70
    32
  0
VERTEX
  8
0
  5
F9D
 10
2.57412
 20
-0.355224
 30
0.000000
  70
    32
  0
VERTEX
  8
0
  5
F9E
 10
2.57434
 20
-0.355087
 30
0.000000
  70
    32
  0
VERTEX
  8
0
  5
F9F
 10
2.57456
 20
-0.354949
 30
0.000000
  70
    32
  0
VERTEX
  8
0
  5
FA0
 10
2.57478
 20
-0.354809
 30
0.000000
  70
    32
  0
VERTEX
  8
0
  5
FA1
 10
2.57500
 20
-0.354668
 30
0.000000
  70
    32
  0
VERTEX
  8
0
  5
FA2
 10
2.57521
 20
-0.354525
 30
0.000000
  70
    32
  0
VERTEX
  8
0
  5
FA3
 10
2.57543
 20
-0.354381
 30
0.000000
  70
    32
  0
VERTEX
  8
0
  5
FA4
 10
2.57565
 20
-0.354236
 30
0.000000
  70
    32
  0
VERTEX
  8
0
  5
FA5
 10
2.57586
 20
-0.354089
 30
0.000000
  70
    32
  0
VERTEX
  8
0
  5
FA6
 10
2.57607
 20
-0.353941
 30
0.000000
  70
    32
  0
VERTEX
  8
0
  5
FA7
 10
2.57629
 20
-0.353791
 30
0.000000
  70
    32
  0
VERTEX
  8
0
  5
FA8
 10
2.57650
 20
-0.353641
 30
0.000000
  70
    32
  0
VERTEX
  8
0
  5
FA9
 10
2.57671
 20
-0.353488
 30
0.000000
  70
    32
  0
VERTEX
  8
0
  5
FAA
 10
2.57692
 20
-0.353335
 30
0.000000
  70
    32
  0
VERTEX
  8
0
  5
FAB
 10
2.57712
 20
-0.353180
 30
0.000000
  70
    32
  0
VERTEX
  8
0
  5
FAC
 10
2.57733
 20
-0.353024
 30
0.000000
  70
    32
  0
VERTEX
  8
0
  5
FAD
 10
2.57753
 20
-0.352866
 30
0.000000
  70
    32
  0
VERTEX
  8
0
  5
FAE
 10
2.57774
 20
-0.352707
 30
0.000000
  70
    32
  0
VERTEX
  8
0
  5
FAF
 10
2.57794
 20
-0.352547
 30
0.000000
  70
    32
  0
VERTEX
  8
0
  5
FB0
 10
2.57814
 20
-0.352385
 30
0.000000
  70
    32
  0
VERTEX
  8
0
  5
FB1
 10
2.57834
 20
-0.352222
 30
0.000000
  70
    32
  0
VERTEX
  8
0
  5
FB2
 10
2.57854
 20
-0.352058
 30
0.000000
  70
    32
  0
VERTEX
  8
0
  5
FB3
 10
2.57874
 20
-0.351893
 30
0.000000
  70
    32
  0
VERTEX
  8
0
  5
FB4
 10
2.57894
 20
-0.351726
 30
0.000000
  70
    32
  0
VERTEX
  8
0
  5
FB5
 10
2.57914
 20
-0.351558
 30
0.000000
  70
    32
  0
VERTEX
  8
0
  5
FB6
 10
2.57933
 20
-0.351389
 30
0.000000
  70
    32
  0
VERTEX
  8
0
  5
FB7
 10
2.57952
 20
-0.351218
 30
0.000000
  70
    32
  0
VERTEX
  8
0
  5
FB8
 10
2.57972
 20
-0.351047
 30
0.000000
  70
    32
  0
VERTEX
  8
0
  5
FB9
 10
2.57991
 20
-0.350874
 30
0.000000
  70
    32
  0
VERTEX
  8
0
  5
FBA
 10
2.58010
 20
-0.350699
 30
0.000000
  70
    32
  0
VERTEX
  8
0
  5
FBB
 10
2.58029
 20
-0.350524
 30
0.000000
  70
    32
  0
VERTEX
  8
0
  5
FBC
 10
2.58047
 20
-0.350347
 30
0.000000
  70
    32
  0
VERTEX
  8
0
  5
FBD
 10
2.58066
 20
-0.350169
 30
0.000000
  70
    32
  0
VERTEX
  8
0
  5
FBE
 10
2.58084
 20
-0.349990
 30
0.000000
  70
    32
  0
VERTEX
  8
0
  5
FBF
 10
2.58103
 20
-0.349810
 30
0.000000
  70
    32
  0
VERTEX
  8
0
  5
FC0
 10
2.58121
 20
-0.349628
 30
0.000000
  70
    32
  0
VERTEX
  8
0
  5
FC1
 10
2.58139
 20
-0.349446
 30
0.000000
  70
    32
  0
VERTEX
  8
0
  5
FC2
 10
2.58157
 20
-0.349262
 30
0.000000
  70
    32
  0
VERTEX
  8
0
  5
FC3
 10
2.58175
 20
-0.349077
 30
0.000000
  70
    32
  0
VERTEX
  8
0
  5
FC4
 10
2.58193
 20
-0.348890
 30
0.000000
  70
    32
  0
VERTEX
  8
0
  5
FC5
 10
2.58210
 20
-0.348703
 30
0.000000
  70
    32
  0
VERTEX
  8
0
  5
FC6
 10
2.58228
 20
-0.348514
 30
0.000000
  70
    32
  0
VERTEX
  8
0
  5
FC7
 10
2.58245
 20
-0.348325
 30
0.000000
  70
    32
  0
VERTEX
  8
0
  5
FC8
 10
2.58262
 20
-0.348134
 30
0.000000
  70
    32
  0
VERTEX
  8
0
  5
FC9
 10
2.58279
 20
-0.347942
 30
0.000000
  70
    32
  0
VERTEX
  8
0
  5
FCA
 10
2.58296
 20
-0.347748
 30
0.000000
  70
    32
  0
VERTEX
  8
0
  5
FCB
 10
2.58313
 20
-0.347554
 30
0.000000
  70
    32
  0
VERTEX
  8
0
  5
FCC
 10
2.58329
 20
-0.347359
 30
0.000000
  70
    32
  0
VERTEX
  8
0
  5
FCD
 10
2.58346
 20
-0.347162
 30
0.000000
  70
    32
  0
VERTEX
  8
0
  5
FCE
 10
2.58362
 20
-0.346965
 30
0.000000
  70
    32
  0
VERTEX
  8
0
  5
FCF
 10
2.58379
 20
-0.346766
 30
0.000000
  70
    32
  0
VERTEX
  8
0
  5
FD0
 10
2.58395
 20
-0.346566
 30
0.000000
  70
    32
  0
VERTEX
  8
0
  5
FD1
 10
2.58411
 20
-0.346365
 30
0.000000
  70
    32
  0
VERTEX
  8
0
  5
FD2
 10
2.58426
 20
-0.346163
 30
0.000000
  70
    32
  0
VERTEX
  8
0
  5
FD3
 10
2.58442
 20
-0.345960
 30
0.000000
  70
    32
  0
VERTEX
  8
0
  5
FD4
 10
2.58458
 20
-0.345756
 30
0.000000
  70
    32
  0
VERTEX
  8
0
  5
FD5
 10
2.58473
 20
-0.345551
 30
0.000000
  70
    32
  0
VERTEX
  8
0
  5
FD6
 10
2.58488
 20
-0.345345
 30
0.000000
  70
    32
  0
VERTEX
  8
0
  5
FD7
 10
2.58503
 20
-0.345137
 30
0.000000
  70
    32
  0
VERTEX
  8
0
  5
FD8
 10
2.58518
 20
-0.344929
 30
0.000000
  70
    32
  0
VERTEX
  8
0
  5
FD9
 10
2.58533
 20
-0.344720
 30
0.000000
  70
    32
  0
VERTEX
  8
0
  5
FDA
 10
2.58548
 20
-0.344509
 30
0.000000
  70
    32
  0
VERTEX
  8
0
  5
FDB
 10
2.58562
 20
-0.344298
 30
0.000000
  70
    32
  0
VERTEX
  8
0
  5
FDC
 10
2.58577
 20
-0.344086
 30
0.000000
  70
    32
  0
VERTEX
  8
0
  5
FDD
 10
2.58591
 20
-0.343872
 30
0.000000
  70
    32
  0
VERTEX
  8
0
  5
FDE
 10
2.58605
 20
-0.343658
 30
0.000000
  70
    32
  0
VERTEX
  8
0
  5
FDF
 10
2.58619
 20
-0.343443
 30
0.000000
  70
    32
  0
VERTEX
  8
0
  5
FE0
 10
2.58633
 20
-0.343226
 30
0.000000
  70
    32
  0
VERTEX
  8
0
  5
FE1
 10
2.58646
 20
-0.343009
 30
0.000000
  70
    32
  0
VERTEX
  8
0
  5
FE2
 10
2.58660
 20
-0.342791
 30
0.000000
  70
    32
  0
VERTEX
  8
0
  5
FE3
 10
2.58673
 20
-0.342571
 30
0.000000
  70
    32
  0
VERTEX
  8
0
  5
FE4
 10
2.58686
 20
-0.342351
 30
0.000000
  70
    32
  0
VERTEX
  8
0
  5
FE5
 10
2.58699
 20
-0.342130
 30
0.000000
  70
    32
  0
VERTEX
  8
0
  5
FE6
 10
2.58712
 20
-0.341908
 30
0.000000
  70
    32
  0
VERTEX
  8
0
  5
FE7
 10
2.58725
 20
-0.341685
 30
0.000000
  70
    32
  0
VERTEX
  8
0
  5
FE8
 10
2.58737
 20
-0.341461
 30
0.000000
  70
    32
  0
VERTEX
  8
0
  5
FE9
 10
2.58750
 20
-0.341236
 30
0.000000
  70
    32
  0
SEQEND
  8
0
  5
FEA
  0
POLYLINE
  8
0
  5
FEB
  66
     1
 10
0.000000
 20
0.000000
 30
0.000000
  70
     8
  0
VERTEX
  8
0
  5
FEC
 10
2.58604
 20
-0.343306
 30
0.000000
  70
    32
  0
VERTEX
  8
0
  5
FED
 10
2.58709
 20
-0.341870
 30
0.000000
  70
    32
  0
VERTEX
  8
0
  5
FEE
 10
2.58818
 20
-0.340432
 30
0.000000
  70
    32
  0
VERTEX
  8
0
  5
FEF
 10
2.58930
 20
-0.338992
 30
0.000000
  70
    32
  0
VERTEX
  8
0
  5
FF0
 10
2.59045
 20
-0.337551
 30
0.000000
  70
    32
  0
VERTEX
  8
0
  5
FF1
 10
2.59164
 20
-0.336109
 30
0.000000
  70
    32
  0
VERTEX
  8
0
  5
FF2
 10
2.59286
 20
-0.334666
 30
0.000000
  70
    32
  0
VERTEX
  8
0
  5
FF3
 10
2.59411
 20
-0.333223
 30
0.000000
  70
    32
  0
VERTEX
  8
0
  5
FF4
 10
2.59539
 20
-0.331779
 30
0.000000
  70
    32
  0
VERTEX
  8
0
  5
FF5
 10
2.59671
 20
-0.330334
 30
0.000000
  70
    32
  0
VERTEX
  8
0
  5
FF6
 10
2.59806
 20
-0.328890
 30
0.000000
  70
    32
  0
VERTEX
  8
0
  5
FF7
 10
2.59944
 20
-0.327447
 30
0.000000
  70
    32
  0
VERTEX
  8
0
  5
FF8
 10
2.60086
 20
-0.326003
 30
0.000000
  70
    32
  0
VERTEX
  8
0
  5
FF9
 10
2.60231
 20
-0.324561
 30
0.000000
  70
    32
  0
VERTEX
  8
0
  5
FFA
 10
2.60379
 20
-0.323120
 30
0.000000
  70
    32
  0
VERTEX
  8
0
  5
FFB
 10
2.60530
 20
-0.321681
 30
0.000000
  70
    32
  0
VERTEX
  8
0
  5
FFC
 10
2.60685
 20
-0.320243
 30
0.000000
  70
    32
  0
VERTEX
  8
0
  5
FFD
 10
2.60842
 20
-0.318806
 30
0.000000
  70
    32
  0
VERTEX
  8
0
  5
FFE
 10
2.61003
 20
-0.317372
 30
0.000000
  70
    32
  0
VERTEX
  8
0
  5
FFF
 10
2.61168
 20
-0.315941
 30
0.000000
  70
    32
  0
VERTEX
  8
0
  5
1000
 10
2.61335
 20
-0.314512
 30
0.000000
  70
    32
  0
VERTEX
  8
0
  5
1001
 10
2.61505
 20
-0.313086
 30
0.000000
  70
    32
  0
VERTEX
  8
0
  5
1002
 10
2.61679
 20
-0.311664
 30
0.000000
  70
    32
  0
VERTEX
  8
0
  5
1003
 10
2.61856
 20
-0.310244
 30
0.000000
  70
    32
  0
VERTEX
  8
0
  5
1004
 10
2.62036
 20
-0.308829
 30
0.000000
  70
    32
  0
VERTEX
  8
0
  5
1005
 10
2.62219
 20
-0.307417
 30
0.000000
  70
    32
  0
VERTEX
  8
0
  5
1006
 10
2.62406
 20
-0.306010
 30
0.000000
  70
    32
  0
VERTEX
  8
0
  5
1007
 10
2.62595
 20
-0.304607
 30
0.000000
  70
    32
  0
VERTEX
  8
0
  5
1008
 10
2.62788
 20
-0.303208
 30
0.000000
  70
    32
  0
VERTEX
  8
0
  5
1009
 10
2.62984
 20
-0.301815
 30
0.000000
  70
    32
  0
VERTEX
  8
0
  5
100A
 10
2.63183
 20
-0.300427
 30
0.000000
  70
    32
  0
VERTEX
  8
0
  5
100B
 10
2.63385
 20
-0.299045
 30
0.000000
  70
    32
  0
VERTEX
  8
0
  5
100C
 10
2.63590
 20
-0.297668
 30
0.000000
  70
    32
  0
VERTEX
  8
0
  5
100D
 10
2.63798
 20
-0.296297
 30
0.000000
  70
    32
  0
VERTEX
  8
0
  5
100E
 10
2.64009
 20
-0.294933
 30
0.000000
  70
    32
  0
VERTEX
  8
0
  5
100F
 10
2.64224
 20
-0.293575
 30
0.000000
  70
    32
  0
VERTEX
  8
0
  5
1010
 10
2.64441
 20
-0.292223
 30
0.000000
  70
    32
  0
VERTEX
  8
0
  5
1011
 10
2.64662
 20
-0.290879
 30
0.000000
  70
    32
  0
VERTEX
  8
0
  5
1012
 10
2.64886
 20
-0.289542
 30
0.000000
  70
    32
  0
VERTEX
  8
0
  5
1013
 10
2.65112
 20
-0.288213
 30
0.000000
  70
    32
  0
VERTEX
  8
0
  5
1014
 10
2.65342
 20
-0.286891
 30
0.000000
  70
    32
  0
VERTEX
  8
0
  5
1015
 10
2.65575
 20
-0.285578
 30
0.000000
  70
    32
  0
VERTEX
  8
0
  5
1016
 10
2.65811
 20
-0.284272
 30
0.000000
  70
    32
  0
VERTEX
  8
0
  5
1017
 10
2.66049
 20
-0.282975
 30
0.000000
  70
    32
  0
VERTEX
  8
0
  5
1018
 10
2.66291
 20
-0.281688
 30
0.000000
  70
    32
  0
VERTEX
  8
0
  5
1019
 10
2.66536
 20
-0.280409
 30
0.000000
  70
    32
  0
VERTEX
  8
0
  5
101A
 10
2.66784
 20
-0.279139
 30
0.000000
  70
    32
  0
VERTEX
  8
0
  5
101B
 10
2.67035
 20
-0.277879
 30
0.000000
  70
    32
  0
VERTEX
  8
0
  5
101C
 10
2.67289
 20
-0.276629
 30
0.000000
  70
    32
  0
VERTEX
  8
0
  5
101D
 10
2.67545
 20
-0.275389
 30
0.000000
  70
    32
  0
VERTEX
  8
0
  5
101E
 10
2.67805
 20
-0.274160
 30
0.000000
  70
    32
  0
VERTEX
  8
0
  5
101F
 10
2.68068
 20
-0.272940
 30
0.000000
  70
    32
  0
VERTEX
  8
0
  5
1020
 10
2.68334
 20
-0.271732
 30
0.000000
  70
    32
  0
VERTEX
  8
0
  5
1021
 10
2.68602
 20
-0.270535
 30
0.000000
  70
    32
  0
VERTEX
  8
0
  5
1022
 10
2.68874
 20
-0.269349
 30
0.000000
  70
    32
  0
VERTEX
  8
0
  5
1023
 10
2.69149
 20
-0.268175
 30
0.000000
  70
    32
  0
VERTEX
  8
0
  5
1024
 10
2.69426
 20
-0.267013
 30
0.000000
  70
    32
  0
VERTEX
  8
0
  5
1025
 10
2.69706
 20
-0.265863
 30
0.000000
  70
    32
  0
VERTEX
  8
0
  5
1026
 10
2.69990
 20
-0.264725
 30
0.000000
  70
    32
  0
VERTEX
  8
0
  5
1027
 10
2.70276
 20
-0.263600
 30
0.000000
  70
    32
  0
VERTEX
  8
0
  5
1028
 10
2.70565
 20
-0.262488
 30
0.000000
  70
    32
  0
VERTEX
  8
0
  5
1029
 10
2.70857
 20
-0.261389
 30
0.000000
  70
    32
  0
VERTEX
  8
0
  5
102A
 10
2.71152
 20
-0.260304
 30
0.000000
  70
    32
  0
VERTEX
  8
0
  5
102B
 10
2.71450
 20
-0.259232
 30
0.000000
  70
    32
  0
VERTEX
  8
0
  5
102C
 10
2.71750
 20
-0.258174
 30
0.000000
  70
    32
  0
VERTEX
  8
0
  5
102D
 10
2.72054
 20
-0.257130
 30
0.000000
  70
    32
  0
VERTEX
  8
0
  5
102E
 10
2.72360
 20
-0.256101
 30
0.000000
  70
    32
  0
VERTEX
  8
0
  5
102F
 10
2.72669
 20
-0.255086
 30
0.000000
  70
    32
  0
VERTEX
  8
0
  5
1030
 10
2.72981
 20
-0.254086
 30
0.000000
  70
    32
  0
VERTEX
  8
0
  5
1031
 10
2.73296
 20
-0.253102
 30
0.000000
  70
    32
  0
VERTEX
  8
0
  5
1032
 10
2.73614
 20
-0.252133
 30
0.000000
  70
    32
  0
VERTEX
  8
0
  5
1033
 10
2.73934
 20
-0.251179
 30
0.000000
  70
    32
  0
VERTEX
  8
0
  5
1034
 10
2.74257
 20
-0.250242
 30
0.000000
  70
    32
  0
VERTEX
  8
0
  5
1035
 10
2.74584
 20
-0.249321
 30
0.000000
  70
    32
  0
VERTEX
  8
0
  5
1036
 10
2.74912
 20
-0.248416
 30
0.000000
  70
    32
  0
VERTEX
  8
0
  5
1037
 10
2.75244
 20
-0.247528
 30
0.000000
  70
    32
  0
VERTEX
  8
0
  5
1038
 10
2.75578
 20
-0.246657
 30
0.000000
  70
    32
  0
VERTEX
  8
0
  5
1039
 10
2.75916
 20
-0.245804
 30
0.000000
  70
    32
  0
VERTEX
  8
0
  5
103A
 10
2.76256
 20
-0.244968
 30
0.000000
  70
    32
  0
VERTEX
  8
0
  5
103B
 10
2.76598
 20
-0.244149
 30
0.000000
  70
    32
  0
VERTEX
  8
0
  5
103C
 10
2.76944
 20
-0.243349
 30
0.000000
  70
    32
  0
VERTEX
  8
0
  5
103D
 10
2.77292
 20
-0.242567
 30
0.000000
  70
    32
  0
VERTEX
  8
0
  5
103E
 10
2.77643
 20
-0.241803
 30
0.000000
  70
    32
  0
VERTEX
  8
0
  5
103F
 10
2.77997
 20
-0.241058
 30
0.000000
  70
    32
  0
VERTEX
  8
0
  5
1040
 10
2.78353
 20
-0.240332
 30
0.000000
  70
    32
  0
VERTEX
  8
0
  5
1041
 10
2.78712
 20
-0.239626
 30
0.000000
  70
    32
  0
VERTEX
  8
0
  5
1042
 10
2.79074
 20
-0.238939
 30
0.000000
  70
    32
  0
VERTEX
  8
0
  5
1043
 10
2.79438
 20
-0.238272
 30
0.000000
  70
    32
  0
VERTEX
  8
0
  5
1044
 10
2.79805
 20
-0.237625
 30
0.000000
  70
    32
  0
VERTEX
  8
0
  5
1045
 10
2.80175
 20
-0.236998
 30
0.000000
  70
    32
  0
VERTEX
  8
0
  5
1046
 10
2.80548
 20
-0.236392
 30
0.000000
  70
    32
  0
VERTEX
  8
0
  5
1047
 10
2.80923
 20
-0.235807
 30
0.000000
  70
    32
  0
VERTEX
  8
0
  5
1048
 10
2.81301
 20
-0.235242
 30
0.000000
  70
    32
  0
VERTEX
  8
0
  5
1049
 10
2.81681
 20
-0.234700
 30
0.000000
  70
    32
  0
VERTEX
  8
0
  5
104A
 10
2.82064
 20
-0.234178
 30
0.000000
  70
    32
  0
VERTEX
  8
0
  5
104B
 10
2.82450
 20
-0.233679
 30
0.000000
  70
    32
  0
VERTEX
  8
0
  5
104C
 10
2.82838
 20
-0.233202
 30
0.000000
  70
    32
  0
VERTEX
  8
0
  5
104D
 10
2.83229
 20
-0.232747
 30
0.000000
  70
    32
  0
VERTEX
  8
0
  5
104E
 10
2.83623
 20
-0.232314
 30
0.000000
  70
    32
  0
VERTEX
  8
0
  5
104F
 10
2.84019
 20
-0.231905
 30
0.000000
  70
    32
  0
VERTEX
  8
0
  5
1050
 10
2.84418
 20
-0.231518
 30
0.000000
  70
    32
  0
VERTEX
  8
0
  5
1051
 10
2.84819
 20
-0.231155
 30
0.000000
  70
    32
  0
VERTEX
  8
0
  5
1052
 10
2.85223
 20
-0.230816
 30
0.000000
  70
    32
  0
VERTEX
  8
0
  5
1053
 10
2.85630
 20
-0.230501
 30
0.000000
  70
    32
  0
VERTEX
  8
0
  5
1054
 10
2.86039
 20
-0.230209
 30
0.000000
  70
    32
  0
VERTEX
  8
0
  5
1055
 10
2.86451
 20
-0.229942
 30
0.000000
  70
    32
  0
VERTEX
  8
0
  5
1056
 10
2.86865
 20
-0.229700
 30
0.000000
  70
    32
  0
VERTEX
  8
0
  5
1057
 10
2.87800
 20
-0.229213
 30
0.000000
  70
    32
  0
VERTEX
  8
0
  5
1058
 10
2.88989
 20
-0.228653
 30
0.000000
  70
    32
  0
VERTEX
  8
0
  5
1059
 10
2.90169
 20
-0.228162
 30
0.000000
  70
    32
  0
VERTEX
  8
0
  5
105A
 10
2.91342
 20
-0.227737
 30
0.000000
  70
    32
  0
VERTEX
  8
0
  5
105B
 10
2.92507
 20
-0.227378
 30
0.000000
  70
    32
  0
VERTEX
  8
0
  5
105C
 10
2.93664
 20
-0.227084
 30
0.000000
  70
    32
  0
VERTEX
  8
0
  5
105D
 10
2.94813
 20
-0.226853
 30
0.000000
  70
    32
  0
VERTEX
  8
0
  5
105E
 10
2.95955
 20
-0.226685
 30
0.000000
  70
    32
  0
VERTEX
  8
0
  5
105F
 10
2.97090
 20
-0.226578
 30
0.000000
  70
    32
  0
VERTEX
  8
0
  5
1060
 10
2.98217
 20
-0.226532
 30
0.000000
  70
    32
  0
VERTEX
  8
0
  5
1061
 10
2.99337
 20
-0.226544
 30
0.000000
  70
    32
  0
VERTEX
  8
0
  5
1062
 10
3.00450
 20
-0.226614
 30
0.000000
  70
    32
  0
VERTEX
  8
0
  5
1063
 10
3.01555
 20
-0.226741
 30
0.000000
  70
    32
  0
VERTEX
  8
0
  5
1064
 10
3.02654
 20
-0.226923
 30
0.000000
  70
    32
  0
VERTEX
  8
0
  5
1065
 10
3.03746
 20
-0.227160
 30
0.000000
  70
    32
  0
VERTEX
  8
0
  5
1066
 10
3.04830
 20
-0.227450
 30
0.000000
  70
    32
  0
VERTEX
  8
0
  5
1067
 10
3.05909
 20
-0.227792
 30
0.000000
  70
    32
  0
VERTEX
  8
0
  5
1068
 10
3.06980
 20
-0.228185
 30
0.000000
  70
    32
  0
VERTEX
  8
0
  5
1069
 10
3.08045
 20
-0.228628
 30
0.000000
  70
    32
  0
VERTEX
  8
0
  5
106A
 10
3.09103
 20
-0.229120
 30
0.000000
  70
    32
  0
VERTEX
  8
0
  5
106B
 10
3.10155
 20
-0.229659
 30
0.000000
  70
    32
  0
VERTEX
  8
0
  5
106C
 10
3.11201
 20
-0.230245
 30
0.000000
  70
    32
  0
VERTEX
  8
0
  5
106D
 10
3.12241
 20
-0.230875
 30
0.000000
  70
    32
  0
VERTEX
  8
0
  5
106E
 10
3.13274
 20
-0.231550
 30
0.000000
  70
    32
  0
VERTEX
  8
0
  5
106F
 10
3.14301
 20
-0.232268
 30
0.000000
  70
    32
  0
VERTEX
  8
0
  5
1070
 10
3.15322
 20
-0.233027
 30
0.000000
  70
    32
  0
VERTEX
  8
0
  5
1071
 10
3.16338
 20
-0.233828
 30
0.000000
  70
    32
  0
VERTEX
  8
0
  5
1072
 10
3.17347
 20
-0.234667
 30
0.000000
  70
    32
  0
VERTEX
  8
0
  5
1073
 10
3.18351
 20
-0.235545
 30
0.000000
  70
    32
  0
VERTEX
  8
0
  5
1074
 10
3.19350
 20
-0.236461
 30
0.000000
  70
    32
  0
VERTEX
  8
0
  5
1075
 10
3.20342
 20
-0.237412
 30
0.000000
  70
    32
  0
VERTEX
  8
0
  5
1076
 10
3.21330
 20
-0.238398
 30
0.000000
  70
    32
  0
VERTEX
  8
0
  5
1077
 10
3.22311
 20
-0.239418
 30
0.000000
  70
    32
  0
VERTEX
  8
0
  5
1078
 10
3.23288
 20
-0.240471
 30
0.000000
  70
    32
  0
VERTEX
  8
0
  5
1079
 10
3.24260
 20
-0.241555
 30
0.000000
  70
    32
  0
VERTEX
  8
0
  5
107A
 10
3.25226
 20
-0.242669
 30
0.000000
  70
    32
  0
VERTEX
  8
0
  5
107B
 10
3.26187
 20
-0.243812
 30
0.000000
  70
    32
  0
VERTEX
  8
0
  5
107C
 10
3.27144
 20
-0.244984
 30
0.000000
  70
    32
  0
VERTEX
  8
0
  5
107D
 10
3.28095
 20
-0.246182
 30
0.000000
  70
    32
  0
VERTEX
  8
0
  5
107E
 10
3.29042
 20
-0.247407
 30
0.000000
  70
    32
  0
VERTEX
  8
0
  5
107F
 10
3.29984
 20
-0.248655
 30
0.000000
  70
    32
  0
VERTEX
  8
0
  5
1080
 10
3.30921
 20
-0.249927
 30
0.000000
  70
    32
  0
VERTEX
  8
0
  5
1081
 10
3.31854
 20
-0.251222
 30
0.000000
  70
    32
  0
VERTEX
  8
0
  5
1082
 10
3.32783
 20
-0.252537
 30
0.000000
  70
    32
  0
VERTEX
  8
0
  5
1083
 10
3.33707
 20
-0.253873
 30
0.000000
  70
    32
  0
VERTEX
  8
0
  5
1084
 10
3.34627
 20
-0.255228
 30
0.000000
  70
    32
  0
VERTEX
  8
0
  5
1085
 10
3.35543
 20
-0.256600
 30
0.000000
  70
    32
  0
VERTEX
  8
0
  5
1086
 10
3.36455
 20
-0.257988
 30
0.000000
  70
    32
  0
VERTEX
  8
0
  5
1087
 10
3.37363
 20
-0.259392
 30
0.000000
  70
    32
  0
VERTEX
  8
0
  5
1088
 10
3.38266
 20
-0.260811
 30
0.000000
  70
    32
  0
VERTEX
  8
0
  5
1089
 10
3.39167
 20
-0.262242
 30
0.000000
  70
    32
  0
VERTEX
  8
0
  5
108A
 10
3.40063
 20
-0.263686
 30
0.000000
  70
    32
  0
VERTEX
  8
0
  5
108B
 10
3.40956
 20
-0.265140
 30
0.000000
  70
    32
  0
VERTEX
  8
0
  5
108C
 10
3.41845
 20
-0.266604
 30
0.000000
  70
    32
  0
VERTEX
  8
0
  5
108D
 10
3.42730
 20
-0.268076
 30
0.000000
  70
    32
  0
VERTEX
  8
0
  5
108E
 10
3.43613
 20
-0.269556
 30
0.000000
  70
    32
  0
VERTEX
  8
0
  5
108F
 10
3.44492
 20
-0.271042
 30
0.000000
  70
    32
  0
VERTEX
  8
0
  5
1090
 10
3.45368
 20
-0.272534
 30
0.000000
  70
    32
  0
VERTEX
  8
0
  5
1091
 10
3.46240
 20
-0.274029
 30
0.000000
  70
    32
  0
VERTEX
  8
0
  5
1092
 10
3.47110
 20
-0.275527
 30
0.000000
  70
    32
  0
VERTEX
  8
0
  5
1093
 10
3.47977
 20
-0.277026
 30
0.000000
  70
    32
  0
VERTEX
  8
0
  5
1094
 10
3.48840
 20
-0.278526
 30
0.000000
  70
    32
  0
VERTEX
  8
0
  5
1095
 10
3.49702
 20
-0.280026
 30
0.000000
  70
    32
  0
VERTEX
  8
0
  5
1096
 10
3.50560
 20
-0.281523
 30
0.000000
  70
    32
  0
VERTEX
  8
0
  5
1097
 10
3.51416
 20
-0.283018
 30
0.000000
  70
    32
  0
VERTEX
  8
0
  5
1098
 10
3.52269
 20
-0.284508
 30
0.000000
  70
    32
  0
VERTEX
  8
0
  5
1099
 10
3.53120
 20
-0.285994
 30
0.000000
  70
    32
  0
VERTEX
  8
0
  5
109A
 10
3.53968
 20
-0.287473
 30
0.000000
  70
    32
  0
VERTEX
  8
0
  5
109B
 10
3.54815
 20
-0.288944
 30
0.000000
  70
    32
  0
VERTEX
  8
0
  5
109C
 10
3.55659
 20
-0.290407
 30
0.000000
  70
    32
  0
VERTEX
  8
0
  5
109D
 10
3.56501
 20
-0.291860
 30
0.000000
  70
    32
  0
VERTEX
  8
0
  5
109E
 10
3.57341
 20
-0.293302
 30
0.000000
  70
    32
  0
VERTEX
  8
0
  5
109F
 10
3.58179
 20
-0.294731
 30
0.000000
  70
    32
  0
VERTEX
  8
0
  5
10A0
 10
3.59015
 20
-0.296148
 30
0.000000
  70
    32
  0
VERTEX
  8
0
  5
10A1
 10
3.59849
 20
-0.297550
 30
0.000000
  70
    32
  0
VERTEX
  8
0
  5
10A2
 10
3.60682
 20
-0.298937
 30
0.000000
  70
    32
  0
VERTEX
  8
0
  5
10A3
 10
3.61514
 20
-0.300306
 30
0.000000
  70
    32
  0
VERTEX
  8
0
  5
10A4
 10
3.62343
 20
-0.301658
 30
0.000000
  70
    32
  0
VERTEX
  8
0
  5
10A5
 10
3.63172
 20
-0.302991
 30
0.000000
  70
    32
  0
VERTEX
  8
0
  5
10A6
 10
3.63999
 20
-0.304304
 30
0.000000
  70
    32
  0
VERTEX
  8
0
  5
10A7
 10
3.64825
 20
-0.305596
 30
0.000000
  70
    32
  0
VERTEX
  8
0
  5
10A8
 10
3.65650
 20
-0.306865
 30
0.000000
  70
    32
  0
VERTEX
  8
0
  5
10A9
 10
3.66473
 20
-0.308111
 30
0.000000
  70
    32
  0
VERTEX
  8
0
  5
10AA
 10
3.67296
 20
-0.309331
 30
0.000000
  70
    32
  0
VERTEX
  8
0
  5
10AB
 10
3.68118
 20
-0.310526
 30
0.000000
  70
    32
  0
VERTEX
  8
0
  5
10AC
 10
3.68939
 20
-0.311694
 30
0.000000
  70
    32
  0
VERTEX
  8
0
  5
10AD
 10
3.69759
 20
-0.312834
 30
0.000000
  70
    32
  0
VERTEX
  8
0
  5
10AE
 10
3.70579
 20
-0.313944
 30
0.000000
  70
    32
  0
VERTEX
  8
0
  5
10AF
 10
3.71398
 20
-0.315024
 30
0.000000
  70
    32
  0
VERTEX
  8
0
  5
10B0
 10
3.72217
 20
-0.316072
 30
0.000000
  70
    32
  0
VERTEX
  8
0
  5
10B1
 10
3.73036
 20
-0.317088
 30
0.000000
  70
    32
  0
VERTEX
  8
0
  5
10B2
 10
3.73854
 20
-0.318070
 30
0.000000
  70
    32
  0
VERTEX
  8
0
  5
10B3
 10
3.74672
 20
-0.319016
 30
0.000000
  70
    32
  0
VERTEX
  8
0
  5
10B4
 10
3.75490
 20
-0.319926
 30
0.000000
  70
    32
  0
VERTEX
  8
0
  5
10B5
 10
3.76307
 20
-0.320799
 30
0.000000
  70
    32
  0
VERTEX
  8
0
  5
10B6
 10
3.77125
 20
-0.321634
 30
0.000000
  70
    32
  0
VERTEX
  8
0
  5
10B7
 10
3.77944
 20
-0.322429
 30
0.000000
  70
    32
  0
VERTEX
  8
0
  5
10B8
 10
3.78762
 20
-0.323183
 30
0.000000
  70
    32
  0
VERTEX
  8
0
  5
10B9
 10
3.79581
 20
-0.323895
 30
0.000000
  70
    32
  0
VERTEX
  8
0
  5
10BA
 10
3.80400
 20
-0.324564
 30
0.000000
  70
    32
  0
VERTEX
  8
0
  5
10BB
 10
3.81219
 20
-0.325189
 30
0.000000
  70
    32
  0
VERTEX
  8
0
  5
10BC
 10
3.82040
 20
-0.325768
 30
0.000000
  70
    32
  0
VERTEX
  8
0
  5
10BD
 10
3.82860
 20
-0.326301
 30
0.000000
  70
    32
  0
VERTEX
  8
0
  5
10BE
 10
3.83682
 20
-0.326786
 30
0.000000
  70
    32
  0
VERTEX
  8
0
  5
10BF
 10
3.84505
 20
-0.327223
 30
0.000000
  70
    32
  0
VERTEX
  8
0
  5
10C0
 10
3.85328
 20
-0.327609
 30
0.000000
  70
    32
  0
VERTEX
  8
0
  5
10C1
 10
3.86181
 20
-0.327956
 30
0.000000
  70
    32
  0
VERTEX
  8
0
  5
10C2
 10
3.87083
 20
-0.328284
 30
0.000000
  70
    32
  0
VERTEX
  8
0
  5
10C3
 10
3.87971
 20
-0.328574
 30
0.000000
  70
    32
  0
VERTEX
  8
0
  5
10C4
 10
3.88848
 20
-0.328828
 30
0.000000
  70
    32
  0
VERTEX
  8
0
  5
10C5
 10
3.89711
 20
-0.329045
 30
0.000000
  70
    32
  0
VERTEX
  8
0
  5
10C6
 10
3.90563
 20
-0.329227
 30
0.000000
  70
    32
  0
VERTEX
  8
0
  5
10C7
 10
3.91402
 20
-0.329373
 30
0.000000
  70
    32
  0
VERTEX
  8
0
  5
10C8
 10
3.92228
 20
-0.329486
 30
0.000000
  70
    32
  0
VERTEX
  8
0
  5
10C9
 10
3.93043
 20
-0.329565
 30
0.000000
  70
    32
  0
VERTEX
  8
0
  5
10CA
 10
3.93845
 20
-0.329611
 30
0.000000
  70
    32
  0
VERTEX
  8
0
  5
10CB
 10
3.94635
 20
-0.329625
 30
0.000000
  70
    32
  0
VERTEX
  8
0
  5
10CC
 10
3.95413
 20
-0.329607
 30
0.000000
  70
    32
  0
VERTEX
  8
0
  5
10CD
 10
3.96180
 20
-0.329558
 30
0.000000
  70
    32
  0
VERTEX
  8
0
  5
10CE
 10
3.96934
 20
-0.329479
 30
0.000000
  70
    32
  0
VERTEX
  8
0
  5
10CF
 10
3.97677
 20
-0.329370
 30
0.000000
  70
    32
  0
VERTEX
  8
0
  5
10D0
 10
3.98408
 20
-0.329233
 30
0.000000
  70
    32
  0
VERTEX
  8
0
  5
10D1
 10
3.99128
 20
-0.329067
 30
0.000000
  70
    32
  0
VERTEX
  8
0
  5
10D2
 10
3.99835
 20
-0.328873
 30
0.000000
  70
    32
  0
VERTEX
  8
0
  5
10D3
 10
4.00532
 20
-0.328652
 30
0.000000
  70
    32
  0
VERTEX
  8
0
  5
10D4
 10
4.01217
 20
-0.328405
 30
0.000000
  70
    32
  0
VERTEX
  8
0
  5
10D5
 10
4.01891
 20
-0.328133
 30
0.000000
  70
    32
  0
VERTEX
  8
0
  5
10D6
 10
4.02554
 20
-0.327835
 30
0.000000
  70
    32
  0
VERTEX
  8
0
  5
10D7
 10
4.03206
 20
-0.327513
 30
0.000000
  70
    32
  0
VERTEX
  8
0
  5
10D8
 10
4.03846
 20
-0.327167
 30
0.000000
  70
    32
  0
VERTEX
  8
0
  5
10D9
 10
4.04476
 20
-0.326799
 30
0.000000
  70
    32
  0
VERTEX
  8
0
  5
10DA
 10
4.05095
 20
-0.326408
 30
0.000000
  70
    32
  0
VERTEX
  8
0
  5
10DB
 10
4.05703
 20
-0.325995
 30
0.000000
  70
    32
  0
VERTEX
  8
0
  5
10DC
 10
4.06300
 20
-0.325561
 30
0.000000
  70
    32
  0
VERTEX
  8
0
  5
10DD
 10
4.06887
 20
-0.325107
 30
0.000000
  70
    32
  0
VERTEX
  8
0
  5
10DE
 10
4.07463
 20
-0.324633
 30
0.000000
  70
    32
  0
VERTEX
  8
0
  5
10DF
 10
4.08029
 20
-0.324139
 30
0.000000
  70
    32
  0
VERTEX
  8
0
  5
10E0
 10
4.08584
 20
-0.323628
 30
0.000000
  70
    32
  0
VERTEX
  8
0
  5
10E1
 10
4.09129
 20
-0.323098
 30
0.000000
  70
    32
  0
VERTEX
  8
0
  5
10E2
 10
4.09664
 20
-0.322552
 30
0.000000
  70
    32
  0
VERTEX
  8
0
  5
10E3
 10
4.10188
 20
-0.321989
 30
0.000000
  70
    32
  0
VERTEX
  8
0
  5
10E4
 10
4.10703
 20
-0.321410
 30
0.000000
  70
    32
  0
VERTEX
  8
0
  5
10E5
 10
4.11207
 20
-0.320817
 30
0.000000
  70
    32
  0
VERTEX
  8
0
  5
10E6
 10
4.11702
 20
-0.320208
 30
0.000000
  70
    32
  0
VERTEX
  8
0
  5
10E7
 10
4.12186
 20
-0.319586
 30
0.000000
  70
    32
  0
VERTEX
  8
0
  5
10E8
 10
4.12661
 20
-0.318951
 30
0.000000
  70
    32
  0
VERTEX
  8
0
  5
10E9
 10
4.13127
 20
-0.318303
 30
0.000000
  70
    32
  0
VERTEX
  8
0
  5
10EA
 10
4.13582
 20
-0.317644
 30
0.000000
  70
    32
  0
VERTEX
  8
0
  5
10EB
 10
4.14029
 20
-0.316973
 30
0.000000
  70
    32
  0
VERTEX
  8
0
  5
10EC
 10
4.14465
 20
-0.316292
 30
0.000000
  70
    32
  0
VERTEX
  8
0
  5
10ED
 10
4.14893
 20
-0.315600
 30
0.000000
  70
    32
  0
VERTEX
  8
0
  5
10EE
 10
4.15311
 20
-0.314900
 30
0.000000
  70
    32
  0
VERTEX
  8
0
  5
10EF
 10
4.15720
 20
-0.314191
 30
0.000000
  70
    32
  0
VERTEX
  8
0
  5
10F0
 10
4.16119
 20
-0.313474
 30
0.000000
  70
    32
  0
VERTEX
  8
0
  5
10F1
 10
4.16510
 20
-0.312750
 30
0.000000
  70
    32
  0
VERTEX
  8
0
  5
10F2
 10
4.16892
 20
-0.312020
 30
0.000000
  70
    32
  0
VERTEX
  8
0
  5
10F3
 10
4.17265
 20
-0.311283
 30
0.000000
  70
    32
  0
VERTEX
  8
0
  5
10F4
 10
4.17629
 20
-0.310542
 30
0.000000
  70
    32
  0
VERTEX
  8
0
  5
10F5
 10
4.17984
 20
-0.309795
 30
0.000000
  70
    32
  0
VERTEX
  8
0
  5
10F6
 10
4.18331
 20
-0.309045
 30
0.000000
  70
    32
  0
VERTEX
  8
0
  5
10F7
 10
4.18669
 20
-0.308292
 30
0.000000
  70
    32
  0
VERTEX
  8
0
  5
10F8
 10
4.18999
 20
-0.307535
 30
0.000000
  70
    32
  0
VERTEX
  8
0
  5
10F9
 10
4.19320
 20
-0.306777
 30
0.000000
  70
    32
  0
VERTEX
  8
0
  5
10FA
 10
4.19633
 20
-0.306018
 30
0.000000
  70
    32
  0
VERTEX
  8
0
  5
10FB
 10
4.19938
 20
-0.305258
 30
0.000000
  70
    32
  0
VERTEX
  8
0
  5
10FC
 10
4.20234
 20
-0.304498
 30
0.000000
  70
    32
  0
VERTEX
  8
0
  5
10FD
 10
4.20523
 20
-0.303739
 30
0.000000
  70
    32
  0
VERTEX
  8
0
  5
10FE
 10
4.20803
 20
-0.302981
 30
0.000000
  70
    32
  0
VERTEX
  8
0
  5
10FF
 10
4.21076
 20
-0.302225
 30
0.000000
  70
    32
  0
VERTEX
  8
0
  5
1100
 10
4.21340
 20
-0.301471
 30
0.000000
  70
    32
  0
VERTEX
  8
0
  5
1101
 10
4.21597
 20
-0.300721
 30
0.000000
  70
    32
  0
VERTEX
  8
0
  5
1102
 10
4.21846
 20
-0.299975
 30
0.000000
  70
    32
  0
VERTEX
  8
0
  5
1103
 10
4.22088
 20
-0.299234
 30
0.000000
  70
    32
  0
VERTEX
  8
0
  5
1104
 10
4.22322
 20
-0.298498
 30
0.000000
  70
    32
  0
VERTEX
  8
0
  5
1105
 10
4.22548
 20
-0.297768
 30
0.000000
  70
    32
  0
VERTEX
  8
0
  5
1106
 10
4.22768
 20
-0.297044
 30
0.000000
  70
    32
  0
VERTEX
  8
0
  5
1107
 10
4.22979
 20
-0.296328
 30
0.000000
  70
    32
  0
VERTEX
  8
0
  5
1108
 10
4.23184
 20
-0.295619
 30
0.000000
  70
    32
  0
VERTEX
  8
0
  5
1109
 10
4.23382
 20
-0.294920
 30
0.000000
  70
    32
  0
VERTEX
  8
0
  5
110A
 10
4.23572
 20
-0.294229
 30
0.000000
  70
    32
  0
VERTEX
  8
0
  5
110B
 10
4.23756
 20
-0.293549
 30
0.000000
  70
    32
  0
VERTEX
  8
0
  5
110C
 10
4.23932
 20
-0.292879
 30
0.000000
  70
    32
  0
VERTEX
  8
0
  5
110D
 10
4.24102
 20
-0.292220
 30
0.000000
  70
    32
  0
VERTEX
  8
0
  5
110E
 10
4.24265
 20
-0.291573
 30
0.000000
  70
    32
  0
VERTEX
  8
0
  5
110F
 10
4.24422
 20
-0.290938
 30
0.000000
  70
    32
  0
VERTEX
  8
0
  5
1110
 10
4.24571
 20
-0.290317
 30
0.000000
  70
    32
  0
VERTEX
  8
0
  5
1111
 10
4.24715
 20
-0.289710
 30
0.000000
  70
    32
  0
VERTEX
  8
0
  5
1112
 10
4.24852
 20
-0.289117
 30
0.000000
  70
    32
  0
VERTEX
  8
0
  5
1113
 10
4.24982
 20
-0.288540
 30
0.000000
  70
    32
  0
VERTEX
  8
0
  5
1114
 10
4.25106
 20
-0.287978
 30
0.000000
  70
    32
  0
VERTEX
  8
0
  5
1115
 10
4.25225
 20
-0.287432
 30
0.000000
  70
    32
  0
VERTEX
  8
0
  5
1116
 10
4.25337
 20
-0.286904
 30
0.000000
  70
    32
  0
VERTEX
  8
0
  5
1117
 10
4.25443
 20
-0.286394
 30
0.000000
  70
    32
  0
VERTEX
  8
0
  5
1118
 10
4.25543
 20
-0.285902
 30
0.000000
  70
    32
  0
VERTEX
  8
0
  5
1119
 10
4.25637
 20
-0.285429
 30
0.000000
  70
    32
  0
VERTEX
  8
0
  5
111A
 10
4.25725
 20
-0.284976
 30
0.000000
  70
    32
  0
VERTEX
  8
0
  5
111B
 10
4.25808
 20
-0.284544
 30
0.000000
  70
    32
  0
VERTEX
  8
0
  5
111C
 10
4.25885
 20
-0.284133
 30
0.000000
  70
    32
  0
VERTEX
  8
0
  5
111D
 10
4.25956
 20
-0.283743
 30
0.000000
  70
    32
  0
VERTEX
  8
0
  5
111E
 10
4.26022
 20
-0.283376
 30
0.000000
  70
    32
  0
VERTEX
  8
0
  5
111F
 10
4.26083
 20
-0.283032
 30
0.000000
  70
    32
  0
VERTEX
  8
0
  5
1120
 10
4.26138
 20
-0.282711
 30
0.000000
  70
    32
  0
VERTEX
  8
0
  5
1121
 10
4.26189
 20
-0.282415
 30
0.000000
  70
    32
  0
VERTEX
  8
0
  5
1122
 10
4.26234
 20
-0.282144
 30
0.000000
  70
    32
  0
VERTEX
  8
0
  5
1123
 10
4.26273
 20
-0.281899
 30
0.000000
  70
    32
  0
VERTEX
  8
0
  5
1124
 10
4.26308
 20
-0.281680
 30
0.000000
  70
    32
  0
VERTEX
  8
0
  5
1125
 10
4.26338
 20
-0.281489
 30
0.000000
  70
    32
  0
VERTEX
  8
0
  5
1126
 10
4.26364
 20
-0.281325
 30
0.000000
  70
    32
  0
VERTEX
  8
0
  5
1127
 10
4.26384
 20
-0.281189
 30
0.000000
  70
    32
  0
VERTEX
  8
0
  5
1128
 10
4.26400
 20
-0.281082
 30
0.000000
  70
    32
  0
VERTEX
  8
0
  5
1129
 10
4.26411
 20
-0.281005
 30
0.000000
  70
    32
  0
VERTEX
  8
0
  5
112A
 10
4.26417
 20
-0.280958
 30
0.000000
  70
    32
  0
VERTEX
  8
0
  5
112B
 10
4.26420
 20
-0.280943
 30
0.000000
  70
    32
  0
SEQEND
  8
0
  5
112C
  0
ARC
  5
85
  8
0
 10
2.0000000000836868
 20
0.0
 30
0.0
 40
0.5870578899287651
 50
32.160129498337241
 51
327.83984835182952
  0
POLYLINE
  5
86
  8
0
 66
     1
 10
0.0
 20
0.0
 30
0.0
  0
VERTEX
  5
ED
  8
0
 10
-0.5819112987220194
 20
-1.1764503773723931
 30
0.0
 42
-0.0031292496247251
  0
VERTEX
  5
EE
  8
0
 10
-0.5965909090909065
 20
-1.1690746499646989
 30
0.0
 42
0.2404082057734586
  0
VERTEX
  5
EF
  8
0
 10
-1.278409090909093
 20
-1.1690746499646989
 30
0.0
 42
-0.5027412838769445
  0
VERTEX
  5
F0
  8
0
 10
-3.1664577868269812
 20
-0.2340791209056441
 30
0.0
 42
-0.5027412838769445
  0
SEQEND
  5
F1
  8
0
  0
POLYLINE
  5
87
  8
0
 66
     1
 10
0.0
 20
0.0
 30
0.0
  0
VERTEX
  5
F2
  8
0
 10
-3.1664577868269879
 20
0.2340791209056441
 30
0.0
 42
-0.5027412838769458
  0
VERTEX
  5
F3
  8
0
 10
-1.278409090909093
 20
1.169074649964702
 30
0.0
 42
0.2404082057734574
  0
VERTEX
  5
F4
  8
0
 10
-0.5965909090909065
 20
1.1690746499646989
 30
0.0
 42
-0.240408205773457
  0
VERTEX
  5
F5
  8
0
 10
0.5965909090909065
 20
1.1690746499646989
 30
0.0
 42
0.2404082057734574
  0
VERTEX
  5
F6
  8
0
 10
1.278409090909093
 20
1.1690746499646989
 30
0.0
 42
-0.5027412838785935
  0
VERTEX
  5
F7
  8
0
 10
3.1664577868282171
 20
0.2340791208988477
 30
0.0
  0
SEQEND
  5
F8
  8
0
  0
POLYLINE
  5
88
  8
0
 66
     1
 10
0.0
 20
0.0
 30
0.0
  0
VERTEX
  5
F9
  8
0
 10
3.16645778682821
 20
-0.2340791208988548
 30
0.0
 42
-0.5027412838785911
  0
VERTEX
  5
FA
  8
0
 10
1.278409090909093
 20
-1.1690746499646989
 30
0.0
 42
0.2404082057734586
  0
VERTEX
  5
FB
  8
0
 10
0.5965909090909065
 20
-1.1690746499646989
 30
0.0
 42
-0.0031292496247272
  0
VERTEX
  5
FC
  8
0
 10
0.5819112987220194
 20
-1.1764503773723971
 30
0.0
  0
SEQEND
  5
FD
  8
0
  0
POLYLINE
  5
89
  8
0
 66
     1
 10
0.0
 20
0.0
 30
0.0
  0
VERTEX
  5
FE
  8
0
 10
-0.5937567737292185
 20
-1.0706705741744209
 30
0.0
 42
0.2271550563182812
  0
VERTEX
  5
FF
  8
0
 10
-1.3193181818181821
 20
-1.0889095311099759
 30
0.0
 42
-0.5000323496069795
  0
VERTEX
  5
100
  8
0
 10
-3.0759677124466971
 20
-0.2284355569094529
 30
0.0
 42
-0.5000323496069795
  0
SEQEND
  5
101
  8
0
  0
POLYLINE
  5
8A
  8
0
 66
     1
 10
0.0
 20
0.0
 30
0.0
  0
VERTEX
  5
102
  8
0
 10
-3.0759677124466971
 20
0.22843555690946
 30
0.0
 42
-0.5000323496069802
  0
VERTEX
  5
103
  8
0
 10
-1.319318181818175
 20
1.088909531109983
 30
0.0
 42
0.240408205773457
  0
VERTEX
  5
104
  8
0
 10
-0.5556818181818173
 20
1.0889095311099759
 30
0.0
 42
-0.2404082057734564
  0
VERTEX
  5
105
  8
0
 10
0.5556818181818173
 20
1.0889095311099759
 30
0.0
 42
0.2404082057734572
  0
VERTEX
  5
106
  8
0
 10
1.3193181818181821
 20
1.0889095311099759
 30
0.0
 42
-0.5000323496078887
  0
VERTEX
  5
107
  8
0
 10
3.075967712447365
 20
0.2284355569059677
 30
0.0
  0
SEQEND
  5
108
  8
0
  0
POLYLINE
  5
8B
  8
0
 66
     1
 10
0.0
 20
0.0
 30
0.0
  0
VERTEX
  5
109
  8
0
 10
3.075967712447365
 20
-0.2284355569059713
 30
0.0
 42
-0.5000323496078881
  0
VERTEX
  5
10A
  8
0
 10
1.3193181818181821
 20
-1.0889095311099759
 30
0.0
 42
0.2271550563182887
  0
VERTEX
  5
10B
  8
0
 10
0.5937567737291971
 20
-1.070670574174428
 30
0.0
  0
SEQEND
  5
10C
  8
0
  0
POLYLINE
  5
8C
  8
0
 66
     1
 10
0.0
 20
0.0
 30
0.0
  0
VERTEX
  5
10D
  8
0
 10
0.6578175879149342
 20
-0.767155084513572
 30
0.0
 42
-0.026256641438194
  0
VERTEX
  5
10E
  8
0
 10
0.8347975589992202
 20
-0.6987698690402909
 30
0.0
 42
0.1371534621900658
  0
VERTEX
  5
10F
  8
0
 10
0.9451182427960347
 20
-0.5770970330640637
 30
0.0
 42
0.0498612283900958
  0
VERTEX
  5
110
  8
0
 10
1.0248568296778151
 20
0.0
 30
0.0
 42
0.132037680304377
  0
VERTEX
  5
111
  8
0
 10
0.7246832823534817
 20
0.7246832901880396
 30
0.0
 42
0.1834668159034174
  0
VERTEX
  5
112
  8
0
 10
0.0
 20
1.037083355238962
 30
0.0
 42
0.1834668159034173
  0
VERTEX
  5
113
  8
0
 10
-0.7246832823534888
 20
0.7246832901880396
 30
0.0
 42
0.132037680304377
  0
VERTEX
  5
114
  8
0
 10
-1.02485682967783
 20
0.0
 30
0.0
 42
0.0498612283900959
  0
VERTEX
  5
115
  8
0
 10
-0.945118242796049
 20
-0.5770970330640637
 30
0.0
 42
0.1371534621900654
  0
VERTEX
  5
116
  8
0
 10
-0.8347975589992344
 20
-0.6987698690402909
 30
0.0
 42
-0.0262566414381925
  0
VERTEX
  5
117
  8
0
 10
-0.6578175879149626
 20
-0.7671550845135684
 30
0.0
 42
-0.0262566414381925
  0
SEQEND
  5
118
  8
0
  0
POLYLINE
  5
8D
  8
0
 66
     1
 10
0.0
 20
0.0
 30
0.0
  0
VERTEX
  5
119
  8
0
 10
0.0
 20
-5.2628966960795474
 30
0.0
 42
-0.4151851178719315
  0
VERTEX
  5
11A
  8
0
 10
-0.6029476478772438
 20
-4.661945089821141
 30
0.0
 42
0.0664963806488832
  0
VERTEX
  5
11B
  8
0
 10
-0.5732305579241057
 20
-1.245288273348965
 30
0.0
 42
-0.0114811018973093
  0
VERTEX
  5
11C
  8
0
 10
-0.6044733716518635
 20
-0.9570625412539648
 30
0.0
 42
0.0433505399929773
  0
VERTEX
  5
11D
  8
0
 10
-0.7673939050663705
 20
-0.4764692447357391
 30
0.0
  0
SEQEND
  5
11E
  8
0
  0
POLYLINE
  5
8E
  8
0
 66
     1
 10
0.0
 20
0.0
 30
0.0
  0
VERTEX
  5
11F
  8
0
 10
0.0
 20
-5.2628966960795474
 30
0.0
 42
0.4151851178719315
  0
VERTEX
  5
120
  8
0
 10
0.6029476478772438
 20
-4.661945089821141
 30
0.0
 42
-0.0664963806488832
  0
VERTEX
  5
121
  8
0
 10
0.5732305579241057
 20
-1.245288273348965
 30
0.0
 42
0.0114811018973093
  0
VERTEX
  5
122
  8
0
 10
0.6044733716518635
 20
-0.9570625412539648
 30
0.0
 42
-0.0433505399929773
  0
VERTEX
  5
123
  8
0
 10
0.7673939050663777
 20
-0.4764692447357391
 30
0.0
  0
SEQEND
  5
124
  8
0
  0
CIRCLE
  5
8F
  8
0
 10
0.0
 20
0.2517541619758319
 30
0.0
 40
0.2841
  0
ATTDEF
  5
90
  8
DEFPOINTS
 10
0.0
 20
-0.005
 30
0.0
 40
0.001
  1
METAL
  3

  2
MATERIAL
 70
     8
1001
AcDbAttr
1070
     0
1070
     1
  0
ATTDEF
  5
92
  8
DEFPOINTS
 10
0.0
 20
-0.0033333333333333
 30
0.0
 40
0.001
  1
FAUCET
  3

  2
PRODUCT
 70
     8
1001
AcDbAttr
1070
     0
1070
     1
  0
ATTDEF
  5
93
  8
DEFPOINTS
 10
0.0
 20
-0.0016666666666667
 30
0.0
 40
0.001
  1
DEVONSHIRE
  3

  2
TRADENAME
 70
     8
1001
AcDbAttr
1070
     0
1070
     1
  0
ATTDEF
  5
94
  8
DEFPOINTS
 10
0.0
 20
0.0
 30
0.0
 40
0.001
  1
K-393-NA
  3

  2
MODELNUMBER
 70
     8
1001
AcDbAttr
1070
     0
1070
     1
  0
ENDSEC
  0
EOF
