  0
SECTION
  2
HEADER
  9
$ACADVER
  1
AC1009
  9
$INSBASE
 10
4.9432044093903906
 20
43.556421956442328
 30
0.0
  9
$EXTMIN
 10
-2.2865814162000282
 20
16.723395309899999
 30
0.0
  9
$EXTMAX
 10
12.1711744899
 20
43.566023114601222
 30
0.0
  9
$LIMMIN
 10
0.0
 20
0.0
  9
$LIMMAX
 10
11.692913385800001
 20
8.2677165353999982
  9
$ORTHOMODE
 70
     0
  9
$REGENMODE
 70
     1
  9
$FILLMODE
 70
     1
  9
$QTEXTMODE
 70
     0
  9
$MIRRTEXT
 70
     0
  9
$DRAGMODE
 70
     2
  9
$LTSCALE
 40
0.6431102362
  9
$OSMODE
 70
    39
  9
$ATTMODE
 70
     1
  9
$TEXTSIZE
 40
0.2
  9
$TRACEWID
 40
0.05
  9
$TEXTSTYLE
  7
STANDARD
  9
$CLAYER
  8
0
  9
$CELTYPE
  6
BYLAYER
  9
$CECOLOR
 62
   256
  9
$DIMSCALE
 40
1.0
  9
$DIMASZ
 40
0.1875
  9
$DIMEXO
 40
0.0625
  9
$DIMDLI
 40
0.4443307087
  9
$DIMRND
 40
0.0
  9
$DIMDLE
 40
0.0
  9
$DIMEXE
 40
0.125
  9
$DIMTP
 40
0.0
  9
$DIMTM
 40
0.0
  9
$DIMTXT
 40
0.15625
  9
$DIMCEN
 40
0.1052362205
  9
$DIMTSZ
 40
0.0
  9
$DIMTOL
 70
     0
  9
$DIMLIM
 70
     0
  9
$DIMTIH
 70
     1
  9
$DIMTOH
 70
     1
  9
$DIMSE1
 70
     0
  9
$DIMSE2
 70
     0
  9
$DIMTAD
 70
     0
  9
$DIMZIN
 70
     0
  9
$DIMBLK
  1

  9
$DIMASO
 70
     1
  9
$DIMSHO
 70
     1
  9
$DIMPOST
  1

  9
$DIMAPOST
  1

  9
$DIMALT
 70
     0
  9
$DIMALTD
 70
     2
  9
$DIMALTF
 40
25.399999999999999
  9
$DIMLFAC
 40
1.0
  9
$DIMTOFL
 70
     0
  9
$DIMTVP
 40
0.0
  9
$DIMTIX
 70
     0
  9
$DIMSOXD
 70
     0
  9
$DIMSAH
 70
     0
  9
$DIMBLK1
  1

  9
$DIMBLK2
  1

  9
$DIMSTYLE
  2
STANDARD
  9
$DIMCLRD
 70
     0
  9
$DIMCLRE
 70
     0
  9
$DIMCLRT
 70
     0
  9
$DIMTFAC
 40
1.0
  9
$DIMGAP
 40
0.09
  9
$LUNITS
 70
     2
  9
$LUPREC
 70
     4
  9
$SKETCHINC
 40
0.1
  9
$FILLETRAD
 40
0.0
  9
$AUNITS
 70
     0
  9
$AUPREC
 70
     0
  9
$MENU
  1
.
  9
$ELEVATION
 40
0.0
  9
$PELEVATION
 40
0.0
  9
$THICKNESS
 40
0.0
  9
$LIMCHECK
 70
     0
  9
$BLIPMODE
 70
     0
  9
$CHAMFERA
 40
0.0
  9
$CHAMFERB
 40
0.0
  9
$SKPOLY
 70
     0
  9
$TDCREATE
 40
2457478.5346229519
  9
$TDUPDATE
 40
2457478.6231208802
  9
$TDINDWG
 40
0.0760604861
  9
$TDUSRTIMER
 40
0.0760604861
  9
$USRTIMER
 70
     1
  9
$ANGBASE
 50
0.0
  9
$ANGDIR
 70
     0
  9
$PDMODE
 70
     0
  9
$PDSIZE
 40
0.3125
  9
$PLINEWID
 40
0.0
  9
$COORDS
 70
     1
  9
$SPLFRAME
 70
     0
  9
$SPLINETYPE
 70
     6
  9
$SPLINESEGS
 70
     8
  9
$ATTDIA
 70
     1
  9
$ATTREQ
 70
     1
  9
$HANDLING
 70
     1
  9
$HANDSEED
  5
1DC4
  9
$SURFTAB1
 70
     6
  9
$SURFTAB2
 70
     6
  9
$SURFTYPE
 70
     6
  9
$SURFU
 70
     6
  9
$SURFV
 70
     6
  9
$UCSNAME
  2

  9
$UCSORG
 10
0.0
 20
0.0
 30
0.0
  9
$UCSXDIR
 10
1.0
 20
0.0
 30
0.0
  9
$UCSYDIR
 10
0.0
 20
1.0
 30
0.0
  9
$PUCSNAME
  2

  9
$PUCSORG
 10
0.0
 20
0.0
 30
0.0
  9
$PUCSXDIR
 10
1.0
 20
0.0
 30
0.0
  9
$PUCSYDIR
 10
0.0
 20
1.0
 30
0.0
  9
$USERI1
 70
     0
  9
$USERI2
 70
     0
  9
$USERI3
 70
     0
  9
$USERI4
 70
     0
  9
$USERI5
 70
     0
  9
$USERR1
 40
0.0
  9
$USERR2
 40
0.0
  9
$USERR3
 40
0.0
  9
$USERR4
 40
0.0
  9
$USERR5
 40
0.0
  9
$WORLDVIEW
 70
     1
  9
$SHADEDGE
 70
     3
  9
$SHADEDIF
 70
    70
  9
$TILEMODE
 70
     1
  9
$MAXACTVP
 70
    48
  9
$PLIMCHECK
 70
     0
  9
$PEXTMIN
 10
1.0000000000000000E+020
 20
1.0000000000000000E+020
 30
1.0000000000000000E+020
  9
$PEXTMAX
 10
-1.0000000000000000E+020
 20
-1.0000000000000000E+020
 30
-1.0000000000000000E+020
  9
$PLIMMIN
 10
0.0
 20
0.0
  9
$PLIMMAX
 10
12.0
 20
9.0
  9
$UNITMODE
 70
     0
  9
$VISRETAIN
 70
     1
  9
$PLINEGEN
 70
     0
  9
$PSLTSCALE
 70
     1
  0
ENDSEC
  0
SECTION
  2
TABLES
  0
TABLE
  2
VPORT
 70
     1
  0
VPORT
  2
*ACTIVE
 70
     0
 10
0.0
 20
0.0
 11
1.0
 21
1.0
 12
28.192098395277839
 22
13.59995668762383
 13
0.0
 23
0.0
 14
1.0
 24
1.0
 15
0.0
 25
0.0
 16
0.0
 26
0.0
 36
1.0
 17
0.0
 27
0.0
 37
0.0
 40
147.41366301586331
 41
1.9127972819932051
 42
50.0
 43
0.0
 44
0.0
 50
0.0
 51
0.0
 71
     0
 72
   100
 73
     1
 74
     1
 75
     0
 76
     0
 77
     0
 78
     0
  0
ENDTAB
  0
TABLE
  2
LTYPE
 70
     2
  0
LTYPE
  2
CONTINUOUS
 70
     0
  3
Solid line
 72
    65
 73
     0
 40
0.0
  0
ENDTAB
  0
TABLE
  2
LAYER
 70
     3
  0
LAYER
  2
0
 70
     0
 62
     7
  6
CONTINUOUS
  0
LAYER
  2
DEFPOINTS
 70
     0
 62
     7
  6
CONTINUOUS
  0
ENDTAB
  0
TABLE
  2
STYLE
 70
     1
  0
STYLE
  2
STANDARD
 70
     0
 40
0.0
 41
0.8
 50
0.0
 71
     0
 42
0.2
  3
txt
  4

  0
ENDTAB
  0
TABLE
  2
VIEW
 70
     6
  0
ENDTAB
  0
TABLE
  2
UCS
 70
     0
  0
ENDTAB
  0
TABLE
  2
APPID
 70
     4
  0
APPID
  2
ACAD
 70
     0
  0
APPID
  2
ACAD_MLEADERVER
 70
     0
  0
APPID
  2
ACAD_NAV_VCDISPLAY
 70
     0
  0
APPID
  2
ACAD_EXEMPT_FROM_CAD_STANDARDS
 70
     0
  0
ENDTAB
  0
TABLE
  2
DIMSTYLE
 70
     2
  0
DIMSTYLE
  2
STANDARD
 70
     0
  3

  4

  5

  6

  7

 40
1.0
 41
0.1875
 42
0.0625
 43
0.38
 44
0.125
 45
0.0
 46
0.0
 47
1.5
 48
1.5
140
0.15625
141
0.09
142
0.0
143
25.399999999999999
144
1.0
145
0.0
146
1.0
147
0.09
 71
     0
 72
     0
 73
     1
 74
     1
 75
     0
 76
     0
 77
     0
 78
     4
170
     0
171
     2
172
     0
173
     0
174
     0
175
     0
176
     0
177
     0
178
     0
  0
ENDTAB
  0
ENDSEC
  0
SECTION
  2
BLOCKS
  0
BLOCK
  8
0
  2
$MODEL_SPACE
 70
     0
 10
0.0
 20
0.0
 30
0.0
  3
$MODEL_SPACE
  1

  0
ENDBLK
  5
21
  8
0
  0
BLOCK
 67
     1
  8
0
  2
$PAPER_SPACE
 70
     0
 10
0.0
 20
0.0
 30
0.0
  3
$PAPER_SPACE
  1

  0
ENDBLK
  5
1D
 67
     1
  8
0
  0
ENDSEC
  0
SECTION
  2
ENTITIES
  0
LINE
  5
E75
  8
0
 10
-1.0809372544
 20
42.3204519445
 30
0.0
 11
-1.0817323458999999
 21
34.496832875400003
 31
0.0
  0
LINE
  5
EED
  8
0
 10
3.4422842006000001
 20
34.496375628499997
 30
0.0
 11
3.4430993773999998
 21
42.517204323599991
 31
0.0
  0
LINE
  5
FE9
  8
0
 10
11.951174247100001
 20
34.495515626600003
 30
0.0
 11
-2.0665284316999988
 21
34.496932409700001
 31
0.0
  0
LINE
  5
10A3
  8
0
 10
10.9663065165
 20
42.319227618099987
 30
0.0
 11
10.965818181194591
 21
34.495615217513979
 31
0.0
  0
LINE
  5
1118
  8
0
 10
10.7155122112
 20
42.555473685499997
 30
0.0
 11
6.6094404349999989
 21
42.5558909736
 31
0.0
  0
LINE
  5
1119
  8
0
 10
3.2766903782999992
 20
42.556229671300002
 30
0.0
 11
-0.8293813987000001
 21
42.5566469595
 31
0.0
  0
LINE
  5
111E
  8
0
 10
3.4824734563999988
 20
42.556570401099997
 30
0.0
 11
6.4037332203999986
 21
42.556273521999998
 31
0.0
  0
ARC
  5
1AA8
  8
0
 10
6.4037292190999988
 20
42.516903443399997
 30
0.0
 40
0.0393700787
 50
359.99417758390001
 51
89.994176886899993
  0
ARC
  5
1CA2
  8
0
 10
-2.0672343669295712
 20
16.94450552126958
 30
0.0
 40
0.2192624819458498
 50
180.23239296049979
 51
266.5634038978485
  0
ARC
  5
1CA3
  8
0
 10
-2.066498327424644
 20
16.944817671062982
 30
0.0
 40
0.2199999987091874
 50
180.31290966334871
 51
269.74751119367022
  0
LINE
  5
1CA4
  8
0
 10
-2.0670512899000002
 20
16.724818268163801
 30
0.0
 11
11.9484610643
 21
16.723395309899999
 31
0.0
  0
ARC
  5
1CA5
  8
0
 10
11.94641836209002
 20
16.944536498951091
 30
0.0
 40
0.2211505832047942
 50
270.5281216934622
 51
359.38459211818508
  0
LINE
  5
1CA6
  8
0
 10
12.16755596285879
 20
16.942140256464981
 30
0.0
 11
12.1711744899
 21
34.3153026126
 31
0.0
  0
ARC
  5
1CA7
  8
0
 10
11.98487970670881
 20
34.311799733370748
 30
0.0
 40
0.1863274623362134
 50
1.077202136795496
 51
100.42193021314171
  0
ARC
  5
1CA8
  8
0
 10
-2.0988074473762222
 20
34.311889503705551
 30
0.0
 40
0.187837195230063
 50
80.104850252577265
 51
178.51335161113209
  0
LINE
  5
1CA9
  8
0
 10
-2.2865814162000282
 20
34.316762751498693
 30
0.0
 11
-2.2864950452995889
 21
16.94361619018748
 31
0.0
  0
ARC
  5
1CAA
  8
0
 10
-0.8438822583161071
 20
42.320035624677367
 30
0.0
 40
0.2370553616574077
 50
86.492600317082278
 51
179.89937632771199
  0
ARC
  5
1CAB
  8
0
 10
3.2798225128224741
 20
42.457780599030372
 30
0.0
 40
0.098498891218648
 50
0.0077953787632067
 51
91.822373542760545
  0
LINE
  5
1CAC
  8
0
 10
3.3783214031294682
 20
42.457794000299522
 30
0.0
 11
3.378321403129469
 21
34.49638209333186
 31
0.0
  0
LINE
  5
1CAE
  8
0
 10
6.443099297699991
 20
42.516899442120497
 30
0.0
 11
6.4422841209999984
 21
34.496072415583853
 31
0.0
  0
ARC
  5
1CAF
  8
0
 10
6.6055818976888467
 20
42.45738614436393
 30
0.0
 40
0.0986643129037799
 50
87.76056737409543
 51
179.94769329072179
  0
LINE
  5
1CB0
  8
0
 10
6.506917625899999
 20
42.4574762174
 30
0.0
 11
6.506917625899999
 21
34.496065883011461
 31
0.0
  0
ARC
  5
1CB5
  8
0
 10
10.729385091165961
 20
42.31895871060113
 30
0.0
 40
0.2369215779399529
 50
0.0650310883724615
 51
93.357242485966879
  0
ARC
  5
1CB6
  8
0
 10
3.4824715497427881
 20
42.517199455847937
 30
0.0
 40
0.0393721726437074
 50
90.011525600524877
 51
179.99291627487179
  0
ATTDEF
  5
1D07
  8
DEFPOINTS
 10
4.9394665403934859
 20
43.559853788003977
 30
0.0
 40
0.001
  1
VITREOUS CHINA
  3

  2
MATERIAL
 70
     0
  0
ATTDEF
  5
1D08
  8
DEFPOINTS
 10
4.9395150188376977
 20
43.561470944181153
 30
0.0
 40
0.001
  1
TOILET
  3

  2
PRODUCT
 70
     0
  0
ATTDEF
  5
1D09
  8
DEFPOINTS
 10
4.9394729778682507
 20
43.563275619432837
 30
0.0
 40
0.001
  1
NUMI
  3

  2
TRADENAME
 70
     0
  0
ATTDEF
  5
1D0A
  8
DEFPOINTS
 10
4.9394665403934859
 20
43.565023114601217
 30
0.0
 40
0.001
  1
K-3901
  3

  2
MODELNUMBER
 70
     0
  0
ENDSEC
  0
EOF
