  0
SECTION
  2
HEADER
  9
$ACADVER
  1
AC1009
  9
$INSBASE
 10
5.0100686785999988
 20
-3.3864983677499989
 30
0.0
  9
$EXTMIN
 10
-2.3093956799000002
 20
-3.394728422263221
 30
0.0
  9
$EXTMAX
 10
12.192249761799999
 20
14.365000710921031
 30
0.0
  9
$LIMMIN
 10
0.0
 20
0.0
  9
$LIMMAX
 10
11.692913385800001
 20
8.2677165353999982
  9
$ORTHOMODE
 70
     0
  9
$REGENMODE
 70
     1
  9
$FILLMODE
 70
     1
  9
$QTEXTMODE
 70
     0
  9
$MIRRTEXT
 70
     0
  9
$DRAGMODE
 70
     2
  9
$LTSCALE
 40
0.6431102362
  9
$OSMODE
 70
    39
  9
$ATTMODE
 70
     1
  9
$TEXTSIZE
 40
0.2
  9
$TRACEWID
 40
0.05
  9
$TEXTSTYLE
  7
STANDARD
  9
$CLAYER
  8
0
  9
$CELTYPE
  6
BYLAYER
  9
$CECOLOR
 62
   256
  9
$DIMSCALE
 40
1.0
  9
$DIMASZ
 40
0.1875
  9
$DIMEXO
 40
0.0625
  9
$DIMDLI
 40
0.4443307087
  9
$DIMRND
 40
0.0
  9
$DIMDLE
 40
0.0
  9
$DIMEXE
 40
0.125
  9
$DIMTP
 40
0.0
  9
$DIMTM
 40
0.0
  9
$DIMTXT
 40
0.15625
  9
$DIMCEN
 40
0.1052362205
  9
$DIMTSZ
 40
0.0
  9
$DIMTOL
 70
     0
  9
$DIMLIM
 70
     0
  9
$DIMTIH
 70
     1
  9
$DIMTOH
 70
     1
  9
$DIMSE1
 70
     0
  9
$DIMSE2
 70
     0
  9
$DIMTAD
 70
     0
  9
$DIMZIN
 70
     0
  9
$DIMBLK
  1

  9
$DIMASO
 70
     1
  9
$DIMSHO
 70
     1
  9
$DIMPOST
  1

  9
$DIMAPOST
  1

  9
$DIMALT
 70
     0
  9
$DIMALTD
 70
     2
  9
$DIMALTF
 40
25.399999999999999
  9
$DIMLFAC
 40
1.0
  9
$DIMTOFL
 70
     0
  9
$DIMTVP
 40
0.0
  9
$DIMTIX
 70
     0
  9
$DIMSOXD
 70
     0
  9
$DIMSAH
 70
     0
  9
$DIMBLK1
  1

  9
$DIMBLK2
  1

  9
$DIMSTYLE
  2
STANDARD
  9
$DIMCLRD
 70
     0
  9
$DIMCLRE
 70
     0
  9
$DIMCLRT
 70
     0
  9
$DIMTFAC
 40
1.0
  9
$DIMGAP
 40
0.09
  9
$LUNITS
 70
     2
  9
$LUPREC
 70
     4
  9
$SKETCHINC
 40
0.1
  9
$FILLETRAD
 40
0.0
  9
$AUNITS
 70
     0
  9
$AUPREC
 70
     0
  9
$MENU
  1
.
  9
$ELEVATION
 40
0.0
  9
$PELEVATION
 40
0.0
  9
$THICKNESS
 40
0.0
  9
$LIMCHECK
 70
     0
  9
$BLIPMODE
 70
     0
  9
$CHAMFERA
 40
0.0
  9
$CHAMFERB
 40
0.0
  9
$SKPOLY
 70
     0
  9
$TDCREATE
 40
2457478.5346229519
  9
$TDUPDATE
 40
2457478.622990544
  9
$TDINDWG
 40
0.0756745255
  9
$TDUSRTIMER
 40
0.0756745255
  9
$USRTIMER
 70
     1
  9
$ANGBASE
 50
0.0
  9
$ANGDIR
 70
     0
  9
$PDMODE
 70
     0
  9
$PDSIZE
 40
0.3125
  9
$PLINEWID
 40
0.0
  9
$COORDS
 70
     1
  9
$SPLFRAME
 70
     0
  9
$SPLINETYPE
 70
     6
  9
$SPLINESEGS
 70
     8
  9
$ATTDIA
 70
     1
  9
$ATTREQ
 70
     1
  9
$HANDLING
 70
     1
  9
$HANDSEED
  5
1D7C
  9
$SURFTAB1
 70
     6
  9
$SURFTAB2
 70
     6
  9
$SURFTYPE
 70
     6
  9
$SURFU
 70
     6
  9
$SURFV
 70
     6
  9
$UCSNAME
  2

  9
$UCSORG
 10
0.0
 20
0.0
 30
0.0
  9
$UCSXDIR
 10
1.0
 20
0.0
 30
0.0
  9
$UCSYDIR
 10
0.0
 20
1.0
 30
0.0
  9
$PUCSNAME
  2

  9
$PUCSORG
 10
0.0
 20
0.0
 30
0.0
  9
$PUCSXDIR
 10
1.0
 20
0.0
 30
0.0
  9
$PUCSYDIR
 10
0.0
 20
1.0
 30
0.0
  9
$USERI1
 70
     0
  9
$USERI2
 70
     0
  9
$USERI3
 70
     0
  9
$USERI4
 70
     0
  9
$USERI5
 70
     0
  9
$USERR1
 40
0.0
  9
$USERR2
 40
0.0
  9
$USERR3
 40
0.0
  9
$USERR4
 40
0.0
  9
$USERR5
 40
0.0
  9
$WORLDVIEW
 70
     1
  9
$SHADEDGE
 70
     3
  9
$SHADEDIF
 70
    70
  9
$TILEMODE
 70
     1
  9
$MAXACTVP
 70
    48
  9
$PLIMCHECK
 70
     0
  9
$PEXTMIN
 10
1.0000000000000000E+020
 20
1.0000000000000000E+020
 30
1.0000000000000000E+020
  9
$PEXTMAX
 10
-1.0000000000000000E+020
 20
-1.0000000000000000E+020
 30
-1.0000000000000000E+020
  9
$PLIMMIN
 10
0.0
 20
0.0
  9
$PLIMMAX
 10
12.0
 20
9.0
  9
$UNITMODE
 70
     0
  9
$VISRETAIN
 70
     1
  9
$PLINEGEN
 70
     0
  9
$PSLTSCALE
 70
     1
  0
ENDSEC
  0
SECTION
  2
TABLES
  0
TABLE
  2
VPORT
 70
     1
  0
VPORT
  2
*ACTIVE
 70
     0
 10
0.0
 20
0.0
 11
1.0
 21
1.0
 12
14.408960236128561
 22
-5.1390730498067461
 13
0.0
 23
0.0
 14
1.0
 24
1.0
 15
0.0
 25
0.0
 16
0.0
 26
0.0
 36
1.0
 17
0.0
 27
0.0
 37
0.0
 40
60.335390355979811
 41
1.9127972819932051
 42
50.0
 43
0.0
 44
0.0
 50
0.0
 51
0.0
 71
     0
 72
   100
 73
     1
 74
     1
 75
     0
 76
     0
 77
     0
 78
     0
  0
ENDTAB
  0
TABLE
  2
LTYPE
 70
     2
  0
LTYPE
  2
CONTINUOUS
 70
     0
  3
Solid line
 72
    65
 73
     0
 40
0.0
  0
ENDTAB
  0
TABLE
  2
LAYER
 70
     3
  0
LAYER
  2
0
 70
     0
 62
     7
  6
CONTINUOUS
  0
LAYER
  2
DEFPOINTS
 70
     0
 62
     7
  6
CONTINUOUS
  0
ENDTAB
  0
TABLE
  2
STYLE
 70
     1
  0
STYLE
  2
STANDARD
 70
     0
 40
0.0
 41
0.8
 50
0.0
 71
     0
 42
0.2
  3
txt
  4

  0
ENDTAB
  0
TABLE
  2
VIEW
 70
     4
  0
ENDTAB
  0
TABLE
  2
UCS
 70
     0
  0
ENDTAB
  0
TABLE
  2
APPID
 70
     4
  0
APPID
  2
ACAD
 70
     0
  0
APPID
  2
ACAD_MLEADERVER
 70
     0
  0
APPID
  2
ACAD_NAV_VCDISPLAY
 70
     0
  0
APPID
  2
ACAD_EXEMPT_FROM_CAD_STANDARDS
 70
     0
  0
ENDTAB
  0
TABLE
  2
DIMSTYLE
 70
     2
  0
DIMSTYLE
  2
STANDARD
 70
     0
  3

  4

  5

  6

  7

 40
1.0
 41
0.1875
 42
0.0625
 43
0.38
 44
0.125
 45
0.0
 46
0.0
 47
1.5
 48
1.5
140
0.15625
141
0.09
142
0.0
143
25.399999999999999
144
1.0
145
0.0
146
1.0
147
0.09
 71
     0
 72
     0
 73
     1
 74
     1
 75
     0
 76
     0
 77
     0
 78
     4
170
     0
171
     2
172
     0
173
     0
174
     0
175
     0
176
     0
177
     0
178
     0
  0
ENDTAB
  0
ENDSEC
  0
SECTION
  2
BLOCKS
  0
BLOCK
  8
0
  2
$MODEL_SPACE
 70
     0
 10
0.0
 20
0.0
 30
0.0
  3
$MODEL_SPACE
  1

  0
ENDBLK
  5
21
  8
0
  0
BLOCK
 67
     1
  8
0
  2
$PAPER_SPACE
 70
     0
 10
0.0
 20
0.0
 30
0.0
  3
$PAPER_SPACE
  1

  0
ENDBLK
  5
1D
 67
     1
  8
0
  0
ENDSEC
  0
SECTION
  2
ENTITIES
  0
LINE
  5
323
  8
0
 10
1.2197277673999991
 20
-3.3865168096999998
 30
0.0
 11
-0.3252658941
 21
-3.3865168096999998
 31
0.0
  0
LINE
  5
59F
  8
0
 10
-1.029287462099999
 20
-2.506516809699999
 30
0.0
 11
10.9100552817
 21
-2.506516809699999
 31
0.0
  0
POLYLINE
  5
693
  8
0
 66
     1
 10
0.0
 20
0.0
 30
0.0
  0
VERTEX
  5
1D36
  8
0
 10
-2.3093956799000002
 20
14.128118023600001
 30
0.0
  0
VERTEX
  5
1D37
  8
0
 10
-2.2527843504999998
 20
13.4795223492
 30
0.0
  0
VERTEX
  5
1D38
  8
0
 10
-2.1940732689999991
 20
12.806837637899999
 30
0.0
  0
VERTEX
  5
1D39
  8
0
 10
-2.1394486808000002
 20
12.180943317800001
 30
0.0
  0
SEQEND
  5
1D3A
  8
0
  0
LINE
  5
697
  8
0
 10
-2.1394849212999989
 20
11.953226132599999
 30
0.0
 11
-1.2488593297999999
 21
-2.300235201
 31
0.0
  0
LINE
  5
735
  8
0
 10
-0.5440144847
 20
-2.7815146512000002
 30
0.0
 11
-0.4935193269
 21
-3.2268398388999988
 31
0.0
  0
LINE
  5
C26
  8
0
 10
11.129626809499999
 20
-2.3002406399000002
 30
0.0
 11
12.0202527409
 21
11.953226132599999
 31
0.0
  0
LINE
  5
C4D
  8
0
 10
10.3742759777
 20
-3.2268663766999999
 30
0.0
 11
10.424806489
 21
-2.7815174179999991
 31
0.0
  0
LINE
  5
CFC
  8
0
 10
11.884508953999999
 20
12.115483190300001
 30
0.0
 11
-2.0037411343999989
 21
12.115483190300001
 31
0.0
  0
LINE
  5
D22
  8
0
 10
-2.139448805999999
 20
12.180943317800001
 30
0.0
 11
-2.1179081529000001
 21
12.180019059399999
 31
0.0
  0
ARC
  5
1C85
  8
0
 10
-1.030528373003194
 20
-2.289649979348281
 30
0.0
 40
0.2168703842560673
 50
182.79739310504019
 51
270.32784213855001
  0
ARC
  5
1C87
  8
0
 10
-0.9875721178563228
 20
-2.9157364400519592
 30
0.0
 40
0.4634208266078027
 50
16.83596288777969
 51
62.011412425325652
  0
ARC
  5
1C88
  8
0
 10
-0.3326110425430719
 20
-3.225772778410362
 30
0.0
 40
0.160911757373763
 50
180.3801898335291
 51
272.61629257200411
  0
ARC
  5
1C89
  8
0
 10
10.91005529148403
 20
-2.2865168152314581
 30
0.0
 40
0.2199999944685422
 50
269.99999745189308
 51
356.4235085214695
  0
ARC
  5
1C8A
  8
0
 10
10.777815167724381
 20
-2.8482667478381529
 30
0.0
 40
0.3592882382444897
 50
107.9759786218773
 51
169.2928203743777
  0
ARC
  5
1C8B
  8
0
 10
10.195494747821909
 20
-3.2067006736567598
 30
0.0
 40
0.1798137956894779
 50
269.98233500074468
 51
353.60996756065379
  0
LINE
  5
1C8C
  8
0
 10
10.195439308999999
 20
-3.3865144607999991
 30
0.0
 11
-0.1753019518
 21
-3.3864822747000001
 31
0.0
  0
LINE
  5
1C8D
  8
0
 10
-2.0663711657964692
 20
14.365000710921031
 30
0.0
 11
11.9722663074
 21
14.364808847700001
 31
0.0
  0
ARC
  5
1C8E
  8
0
 10
11.973092052419689
 20
14.144774088227599
 30
0.0
 40
0.2200363088922225
 50
354.87810642756392
 51
90.215018220727544
  0
LINE
  5
1C8F
  8
0
 10
12.192249761799999
 20
14.125130370400001
 30
0.0
 11
12.0214919085
 21
12.178029402
 31
0.0
  0
LINE
  5
1C90
  8
0
 10
12.021491791572011
 20
12.17802939721955
 30
0.0
 11
11.998229161899999
 21
12.177071375100001
 31
0.0
  0
LINE
  5
1C91
  8
0
 10
11.998229768655881
 20
12.17707838222865
 30
0.0
 11
-2.1179078396999991
 21
12.1800190867
 31
0.0
  0
ARC
  5
1C92
  8
0
 10
-2.092340499974517
 20
14.14853923472146
 30
0.0
 40
0.2180137082757659
 50
83.158803415478758
 51
185.3747399792727
  0
ARC
  5
1C94
  8
0
 10
-1.0610297983915571
 20
12.21242499323138
 30
0.0
 40
0.0991125122592015
 50
199.2072112036667
 51
257.98648578234798
  0
ARC
  5
1C95
  8
0
 10
0.8377677876036258
 20
11.639914402011421
 30
0.0
 40
0.5832726117795929
 50
112.33613438670621
 51
125.37844641934799
  0
ARC
  5
1C96
  8
0
 10
-1.976113261368234
 20
11.954488340010091
 30
0.0
 40
0.1633482206457415
 50
99.737519887897804
 51
180.44276355319479
  0
ARC
  5
1C97
  8
0
 10
11.85694516287449
 20
11.95451344274859
 30
0.0
 40
0.1633126517082359
 50
359.54836198242288
 51
80.28314882365224
  0
ARC
  5
1C99
  8
0
 10
10.80989814801833
 20
12.535028908345589
 30
0.0
 40
0.423446190685243
 50
277.78271387004128
 51
302.34371453609941
  0
ARC
  5
1C9A
  8
0
 10
8.997650651506758
 20
11.567608363236999
 30
0.0
 40
0.6663442602088204
 50
55.306625908849661
 51
66.277066487377027
  0
ATTDEF
  5
1CB6
  8
DEFPOINTS
 10
5.0034459649285052
 20
-3.3895590956659798
 30
0.0
 40
0.001
  1
K-3901
  3

  2
MODELNUMBER
 70
     0
  0
ATTDEF
  5
1CB7
  8
DEFPOINTS
 10
5.00345240240327
 20
-3.3913065908343611
 30
0.0
 40
0.001
  1
NUMI
  3

  2
TRADENAME
 70
     0
  0
ATTDEF
  5
1CB8
  8
DEFPOINTS
 10
5.0034944433727171
 20
-3.3931112660860521
 30
0.0
 40
0.001
  1
TOILET
  3

  2
PRODUCT
 70
     0
  0
ATTDEF
  5
1CB9
  8
DEFPOINTS
 10
5.0034459649285052
 20
-3.3947284222632201
 30
0.0
 40
0.001
  1
VITREOUS CHINA
  3

  2
MATERIAL
 70
     0
  0
ENDSEC
  0
EOF
