  0
SECTION
  2
HEADER
  9
$ACADVER
  1
AC1009
  9
$INSBASE
 10
216.88734062709059
 20
49.34180448511696
 30
0.0
  9
$EXTMIN
 10
209.65846267404061
 20
7.3418044851169588
 30
0.0
  9
$EXTMAX
 10
266.88734062709062
 20
49.348477570708837
 30
0.0
  9
$LIMMIN
 10
0.0
 20
0.0
  9
$LIMMAX
 10
11.692913385800001
 20
8.2677165353999982
  9
$ORTHOMODE
 70
     0
  9
$REGENMODE
 70
     1
  9
$FILLMODE
 70
     1
  9
$QTEXTMODE
 70
     0
  9
$MIRRTEXT
 70
     0
  9
$DRAGMODE
 70
     2
  9
$LTSCALE
 40
0.6431102362
  9
$OSMODE
 70
  3071
  9
$ATTMODE
 70
     1
  9
$TEXTSIZE
 40
0.2
  9
$TRACEWID
 40
0.05
  9
$TEXTSTYLE
  7
STANDARD
  9
$CLAYER
  8
0
  9
$CELTYPE
  6
BYLAYER
  9
$CECOLOR
 62
   256
  9
$DIMSCALE
 40
1.0
  9
$DIMASZ
 40
0.1875
  9
$DIMEXO
 40
0.0625
  9
$DIMDLI
 40
0.4443307087
  9
$DIMRND
 40
0.0
  9
$DIMDLE
 40
0.0
  9
$DIMEXE
 40
0.125
  9
$DIMTP
 40
0.01
  9
$DIMTM
 40
0.01
  9
$DIMTXT
 40
1.0
  9
$DIMCEN
 40
0.1052362205
  9
$DIMTSZ
 40
0.0
  9
$DIMTOL
 70
     1
  9
$DIMLIM
 70
     0
  9
$DIMTIH
 70
     1
  9
$DIMTOH
 70
     1
  9
$DIMSE1
 70
     0
  9
$DIMSE2
 70
     0
  9
$DIMTAD
 70
     0
  9
$DIMZIN
 70
     0
  9
$DIMBLK
  1

  9
$DIMASO
 70
     1
  9
$DIMSHO
 70
     1
  9
$DIMPOST
  1
\X
  9
$DIMAPOST
  1

  9
$DIMALT
 70
     1
  9
$DIMALTD
 70
     2
  9
$DIMALTF
 40
25.399999999999999
  9
$DIMLFAC
 40
1.0
  9
$DIMTOFL
 70
     0
  9
$DIMTVP
 40
0.0
  9
$DIMTIX
 70
     0
  9
$DIMSOXD
 70
     0
  9
$DIMSAH
 70
     0
  9
$DIMBLK1
  1

  9
$DIMBLK2
  1

  9
$DIMSTYLE
  2
STANDARD
  9
$DIMCLRD
 70
     0
  9
$DIMCLRE
 70
     0
  9
$DIMCLRT
 70
     0
  9
$DIMTFAC
 40
1.0
  9
$DIMGAP
 40
0.09
  9
$LUNITS
 70
     2
  9
$LUPREC
 70
     4
  9
$SKETCHINC
 40
0.1
  9
$FILLETRAD
 40
0.0
  9
$AUNITS
 70
     0
  9
$AUPREC
 70
     0
  9
$MENU
  1
.
  9
$ELEVATION
 40
0.0
  9
$PELEVATION
 40
0.0
  9
$THICKNESS
 40
0.0
  9
$LIMCHECK
 70
     0
  9
$BLIPMODE
 70
     0
  9
$CHAMFERA
 40
0.0
  9
$CHAMFERB
 40
0.0
  9
$SKPOLY
 70
     0
  9
$TDCREATE
 40
2458092.6980618401
  9
$TDUPDATE
 40
2458101.6381753008
  9
$TDINDWG
 40
0.1129734259
  9
$TDUSRTIMER
 40
0.1129734259
  9
$USRTIMER
 70
     1
  9
$ANGBASE
 50
0.0
  9
$ANGDIR
 70
     0
  9
$PDMODE
 70
     0
  9
$PDSIZE
 40
0.3125
  9
$PLINEWID
 40
0.0
  9
$COORDS
 70
     1
  9
$SPLFRAME
 70
     0
  9
$SPLINETYPE
 70
     6
  9
$SPLINESEGS
 70
     8
  9
$ATTDIA
 70
     1
  9
$ATTREQ
 70
     1
  9
$HANDLING
 70
     1
  9
$HANDSEED
  5
2E14
  9
$SURFTAB1
 70
     6
  9
$SURFTAB2
 70
     6
  9
$SURFTYPE
 70
     6
  9
$SURFU
 70
     6
  9
$SURFV
 70
     6
  9
$UCSNAME
  2

  9
$UCSORG
 10
0.0
 20
0.0
 30
0.0
  9
$UCSXDIR
 10
1.0
 20
0.0
 30
0.0
  9
$UCSYDIR
 10
0.0
 20
1.0
 30
0.0
  9
$PUCSNAME
  2

  9
$PUCSORG
 10
0.0
 20
0.0
 30
0.0
  9
$PUCSXDIR
 10
1.0
 20
0.0
 30
0.0
  9
$PUCSYDIR
 10
0.0
 20
1.0
 30
0.0
  9
$USERI1
 70
     0
  9
$USERI2
 70
     0
  9
$USERI3
 70
     0
  9
$USERI4
 70
     0
  9
$USERI5
 70
     0
  9
$USERR1
 40
0.0
  9
$USERR2
 40
0.0
  9
$USERR3
 40
0.0
  9
$USERR4
 40
0.0
  9
$USERR5
 40
0.0
  9
$WORLDVIEW
 70
     1
  9
$SHADEDGE
 70
     3
  9
$SHADEDIF
 70
    70
  9
$TILEMODE
 70
     1
  9
$MAXACTVP
 70
    64
  9
$PLIMCHECK
 70
     0
  9
$PEXTMIN
 10
1.0000000000000000E+020
 20
1.0000000000000000E+020
 30
1.0000000000000000E+020
  9
$PEXTMAX
 10
-1.0000000000000000E+020
 20
-1.0000000000000000E+020
 30
-1.0000000000000000E+020
  9
$PLIMMIN
 10
0.0
 20
0.0
  9
$PLIMMAX
 10
12.0
 20
9.0
  9
$UNITMODE
 70
     0
  9
$VISRETAIN
 70
     1
  9
$PLINEGEN
 70
     0
  9
$PSLTSCALE
 70
     1
  0
ENDSEC
  0
SECTION
  2
TABLES
  0
TABLE
  2
VPORT
 70
     1
  0
VPORT
  2
*ACTIVE
 70
     0
 10
0.0
 20
0.0
 11
1.0
 21
1.0
 12
0.0
 22
0.0
 13
0.0
 23
0.0
 14
1.0
 24
1.0
 15
0.0
 25
0.0
 16
-0.0000000000000568
 26
0.0
 36
193.70234705615769
 17
238.27290165056559
 27
26.511682622018618
 37
0.0
 40
68.88824199743118
 41
2.0983240223463682
 42
50.0
 43
0.0
 44
0.0
 50
0.0
 51
0.0
 71
     0
 72
   100
 73
     1
 74
     1
 75
     0
 76
     0
 77
     0
 78
     0
  0
ENDTAB
  0
TABLE
  2
LTYPE
 70
     2
  0
LTYPE
  2
CONTINUOUS
 70
     0
  3
Solid line
 72
    65
 73
     0
 40
0.0
  0
LTYPE
  2
PHANTOM2
 70
     0
  3
___ _ _ ___ _ _ ___ _ _ ___ _ _
 72
    65
 73
     6
 40
1.25
 49
0.625
 49
-0.125
 49
0.125
 49
-0.125
 49
0.125
 49
-0.125
  0
ENDTAB
  0
TABLE
  2
LAYER
 70
     2
  0
LAYER
  2
0
 70
     0
 62
   255
  6
CONTINUOUS
  0
LAYER
  2
DEFPOINTS
 70
     0
 62
     7
  6
CONTINUOUS
  0
ENDTAB
  0
TABLE
  2
STYLE
 70
     1
  0
STYLE
  2
STANDARD
 70
     0
 40
0.0
 41
0.8
 50
0.0
 71
     0
 42
0.2
  3
txt
  4

  0
ENDTAB
  0
TABLE
  2
VIEW
 70
     0
  0
ENDTAB
  0
TABLE
  2
UCS
 70
     0
  0
ENDTAB
  0
TABLE
  2
APPID
 70
     8
  0
APPID
  2
ACAD
 70
     0
  0
APPID
  2
ACAD_MLEADERVER
 70
     0
  0
APPID
  2
ACAD_EXEMPT_FROM_CAD_STANDARDS
 70
     0
  0
APPID
  2
ACAD_NAV_VCDISPLAY
 70
     0
  0
APPID
  2
ACAD_DSTYLE_DIMJAG
 70
     0
  0
APPID
  2
ACAD_DSTYLE_DIMTALN
 70
     0
  0
APPID
  2
ACAECLAYERSTANDARD
 70
     0
  0
APPID
  2
ACCMTRANSPARENCY
 70
     0
  0
ENDTAB
  0
TABLE
  2
DIMSTYLE
 70
     1
  0
DIMSTYLE
  2
STANDARD
 70
     0
  3

  4

  5

  6

  7

 40
1.0
 41
0.1875
 42
0.0625
 43
0.38
 44
0.125
 45
0.0
 46
0.0
 47
0.01
 48
0.01
140
0.15625
141
0.09
142
0.0
143
25.399999999999999
144
1.0
145
0.0
146
1.0
147
0.09
 71
     1
 72
     0
 73
     1
 74
     1
 75
     0
 76
     0
 77
     0
 78
     4
170
     0
171
     2
172
     0
173
     0
174
     0
175
     0
176
     0
177
     0
178
     0
  0
ENDTAB
  0
ENDSEC
  0
SECTION
  2
BLOCKS
  0
BLOCK
  8
0
  2
$MODEL_SPACE
 70
     0
 10
0.0
 20
0.0
 30
0.0
  3
$MODEL_SPACE
  1

  0
ENDBLK
  5
21
  8
0
  0
BLOCK
 67
     1
  8
0
  2
$PAPER_SPACE
 70
     0
 10
0.0
 20
0.0
 30
0.0
  3
$PAPER_SPACE
  1

  0
ENDBLK
  5
1D
 67
     1
  8
0
  0
ENDSEC
  0
SECTION
  2
ENTITIES
  0
ATTDEF
  5
2A77
  8
DEFPOINTS
 10
216.8844284714614
 20
49.342308244111607
 30
0.0
 40
0.001
  1
VITREOUS CHINA
  3

  2
MATERIAL
 70
     0
  0
ATTDEF
  5
2A78
  8
DEFPOINTS
 10
216.8844769499056
 20
49.343925400288768
 30
0.0
 40
0.001
  1
TOILET
  3

  2
PRODUCT
 70
     0
  0
ATTDEF
  5
2A79
  8
DEFPOINTS
 10
216.88443490893621
 20
49.345730075540459
 30
0.0
 40
0.001
  1
NUMI
  3

  2
TRADENAME
 70
     0
  0
ATTDEF
  5
2A7A
  8
DEFPOINTS
 10
216.8844284714614
 20
49.34747757070884
 30
0.0
 40
0.001
  1
K-3901-NPR
  3

  2
MODELNUMBER
 70
     0
  0
LINE
  5
2CFF
  8
0
 10
210.8641068358406
 20
45.445365744016947
 30
0.0
 11
210.86331174434059
 21
37.621746674916977
 31
0.0
  0
LINE
  5
2D00
  8
0
 10
215.3873282908406
 20
37.621289428016951
 30
0.0
 11
215.3881434676407
 21
45.642118123116973
 31
0.0
  0
LINE
  5
2D01
  8
0
 10
223.89621833734071
 20
37.620429426116971
 30
0.0
 11
209.87851565854061
 21
37.621846209216962
 31
0.0
  0
LINE
  5
2D02
  8
0
 10
222.9113506067406
 20
45.444141417616983
 30
0.0
 11
222.91086227143529
 21
37.620529017030947
 31
0.0
  0
LINE
  5
2D03
  8
0
 10
222.6605547194406
 20
45.681560758816943
 30
0.0
 11
218.55448452524061
 21
45.681560758816971
 31
0.0
  0
LINE
  5
2D04
  8
0
 10
215.22173423430991
 20
45.681560758816971
 30
0.0
 11
211.11566427374061
 21
45.681560758816971
 31
0.0
  0
LINE
  5
2D05
  8
0
 10
215.42751754664059
 20
45.681560758816971
 30
0.0
 11
218.3487773106406
 21
45.681560758920277
 31
0.0
  0
ARC
  5
2D06
  8
0
 10
218.34812843724441
 20
45.641550204923419
 30
0.0
 40
0.0400158151175952
 50
0.3766268289459212
 51
89.070883969312504
  0
ARC
  5
2D07
  8
0
 10
209.87860782556689
 20
20.069880485099159
 30
0.0
 40
0.2201492938401191
 50
180.35148044462471
 51
269.73152988040209
  0
LINE
  5
2D08
  8
0
 10
209.8775762785406
 20
19.849733608016969
 30
0.0
 11
223.89350515454069
 21
19.849733608016969
 31
0.0
  0
ARC
  5
2D09
  8
0
 10
223.89131922059309
 20
20.074754128720858
 30
0.0
 40
0.2250311379455577
 50
270.5565752384444
 51
358.03908111180408
  0
LINE
  5
2D0A
  8
0
 10
224.11621858014061
 20
20.067054055981941
 30
0.0
 11
224.11621858014061
 21
37.440216412116968
 31
0.0
  0
ARC
  5
2D0B
  8
0
 10
223.92928317177541
 20
37.436401945062102
 30
0.0
 40
0.186974321925705
 50
1.1689734946907739
 51
100.1858445078327
  0
ARC
  5
2D0C
  8
0
 10
209.8462366428644
 20
37.436803303222518
 30
0.0
 40
0.187837195230063
 50
80.104850252577975
 51
178.51335161113181
  0
LINE
  5
2D0D
  8
0
 10
209.65846267404061
 20
37.441676551015661
 30
0.0
 11
209.65846267404069
 21
20.068529989704441
 31
0.0
  0
ARC
  5
2D0E
  8
0
 10
211.12113053238019
 20
45.423681934154047
 30
0.0
 40
0.2579367523115603
 50
91.214317055750357
 51
175.17765958904499
  0
ARC
  5
2D0F
  8
0
 10
215.21804196291211
 20
45.576094413074479
 30
0.0
 40
0.1055309573175114
 50
3.5929514494086678
 51
87.994950882811395
  0
LINE
  5
2D10
  8
0
 10
215.32336549337009
 20
45.58270779981649
 30
0.0
 11
215.32336549337009
 21
37.621295892848821
 31
0.0
  0
LINE
  5
2D11
  8
0
 10
218.3881433879406
 20
45.641813241637472
 30
0.0
 11
218.3873282112406
 21
37.6209862151008
 31
0.0
  0
ARC
  5
2D12
  8
0
 10
218.55556781753219
 20
45.577861389535762
 30
0.0
 40
0.1037050274167383
 50
90.598516838214863
 51
177.4971920012523
  0
LINE
  5
2D13
  8
0
 10
218.45196171614069
 20
45.582390016916968
 30
0.0
 11
218.45196171614069
 21
37.620979682528429
 31
0.0
  0
ARC
  5
2D14
  8
0
 10
222.6034081714586
 20
45.370021778190299
 30
0.0
 40
0.31673690090699
 50
13.53327978674508
 51
79.605614267903945
  0
ARC
  5
2D15
  8
0
 10
215.4276445397764
 20
45.642059847832201
 30
0.0
 40
0.0395011151220228
 50
90.184201970413795
 51
179.91547253620041
  0
ARC
  5
2D16
  8
0
 10
265.07327546276173
 20
10.924916922210009
 30
0.0
 40
0.0321425644747459
 50
73.007616968654972
 51
178.42004260236769
  0
LINE
  5
2D17
  8
0
 10
265.04114511821069
 20
10.925803155840759
 30
0.0
 11
265.04114222909061
 21
7.845145993339357
 31
0.0
  0
ARC
  5
2D18
  8
0
 10
265.07369546447649
 20
7.8465316409168082
 30
0.0
 40
0.0325827124913704
 50
182.43735718108559
 51
285.74985195838599
  0
LINE
  5
2D19
  8
0
 10
265.61455212239071
 20
11.450536423639351
 30
0.0
 11
265.6145523583906
 21
7.3717639682393354
 31
0.0
  0
ARC
  5
2D1A
  8
0
 10
265.6461881578893
 20
7.3734871148893291
 30
0.0
 40
0.0316826931351745
 50
183.11772009595279
 51
269.88541075580213
  0
ARC
  5
2D1B
  8
0
 10
265.64455377222731
 20
11.45053468093205
 30
0.0
 40
0.0300016498871837
 50
87.003426659156034
 51
179.9966718573186
  0
LINE
  5
2D1C
  8
0
 10
265.64612214542592
 20
11.48049530845323
 30
0.0
 11
266.08538550659063
 21
11.457472528739361
 31
0.0
  0
ARC
  5
2D1D
  8
0
 10
266.08379825154481
 20
11.42750174702245
 30
0.0
 40
0.0300127828650238
 50
7.2319562398119066
 51
86.968442997625559
  0
LINE
  5
2D1E
  8
0
 10
266.11357227202109
 20
11.43127995294382
 30
0.0
 11
266.11357227202109
 21
7.3909147706963116
 31
0.0
  0
ARC
  5
2D1F
  8
0
 10
266.083845623983
 20
7.3947907965664248
 30
0.0
 40
0.0299782784716276
 50
273.01928260023323
 51
352.57117518047068
  0
LINE
  5
2D20
  8
0
 10
266.08542464097332
 20
7.364854131998257
 30
0.0
 11
265.64612479382532
 21
7.341804485117037
 31
0.0
  0
LINE
  5
2D21
  8
0
 10
266.11357227202109
 20
11.378496920927249
 30
0.0
 11
266.15235868666912
 21
11.37848837003933
 31
0.0
  0
ARC
  5
2D22
  8
0
 10
266.1523586490905
 20
11.348488407639319
 30
0.0
 40
0.0299999624000571
 50
359.99992818924471
 51
89.999928430244594
  0
LINE
  5
2D23
  8
0
 10
266.18235861159059
 20
11.34848837003933
 30
0.0
 11
266.18235861159059
 21
7.4738112834393311
 31
0.0
  0
ARC
  5
2D24
  8
0
 10
266.15235864891469
 20
7.4738112460152726
 30
0.0
 40
0.0299999625759575
 50
270.00007214686292
 51
0.0000716244776386
  0
LINE
  5
2D25
  8
0
 10
266.15235868669077
 20
7.4438112835393753
 30
0.0
 11
266.11357227202109
 21
7.4438066979209481
 31
0.0
  0
ARC
  5
2D26
  8
0
 10
266.15101590872968
 20
11.23032707479457
 30
0.0
 40
0.0395062585850496
 50
1.820819128295482
 51
37.492948809800183
  0
ARC
  5
2D27
  8
0
 10
266.211465087693
 20
10.93956056375943
 30
0.0
 40
0.0299926658926165
 50
193.9626754719522
 51
267.0035220134377
  0
LINE
  5
2D28
  8
0
 10
266.20989723399072
 20
10.90960890533934
 30
0.0
 11
266.83951994359057
 21
10.87660782333934
 31
0.0
  0
LINE
  5
2D29
  8
0
 10
266.19050221984998
 20
11.231582344285879
 30
0.0
 11
266.19050221984998
 21
10.91810957861561
 31
0.0
  0
ARC
  5
2D2A
  8
0
 10
266.15101590872968
 20
7.5919725776841034
 30
0.0
 40
0.0395062585850496
 50
322.50705119019977
 51
358.1791808717029
  0
LINE
  5
2D2B
  8
0
 10
266.19050221984998
 20
7.5907173081927928
 30
0.0
 11
266.19050221984998
 21
7.9041900738630906
 31
0.0
  0
ARC
  5
2D2C
  8
0
 10
266.8379496959127
 20
10.846648848241371
 30
0.0
 40
0.0300000977780398
 50
0.0001699730679898
 51
86.999686596485034
  0
LINE
  5
2D2D
  8
0
 10
266.3049095875906
 20
10.90462892223935
 30
0.0
 11
266.3049095788906
 21
10.922801185939351
 31
0.0
  0
LINE
  5
2D2E
  8
0
 10
266.58049944839058
 20
10.89018413891919
 30
0.0
 11
266.5804994300907
 21
10.910421383478321
 31
0.0
  0
LINE
  5
2D2F
  8
0
 10
266.54218645469058
 20
10.931112011139341
 30
0.0
 11
266.34537148069057
 21
10.94142667273935
 31
0.0
  0
LINE
  5
2D30
  8
0
 10
266.54218645469058
 20
10.931112011139341
 30
0.0
 11
266.56184467279058
 21
10.930079455924741
 31
0.0
  0
ARC
  5
2D31
  8
0
 10
266.56081441219061
 20
10.9104214170393
 30
0.0
 40
0.0196850179000594
 50
359.99990231651338
 51
86.999923174658633
  0
ARC
  5
2D32
  8
0
 10
266.32459467156718
 20
10.92280111763783
 30
0.0
 40
0.0196851022766313
 50
87.001010867879586
 51
179.99980046992761
  0
LINE
  5
2D33
  8
0
 10
266.34537148069057
 20
10.94142667273935
 30
0.0
 11
266.3256245633907
 21
10.94245926033933
 31
0.0
  0
ARC
  5
2D34
  8
0
 10
266.211465087693
 20
7.882739088719247
 30
0.0
 40
0.0299926658926165
 50
92.996477986562326
 51
166.0373245280478
  0
LINE
  5
2D35
  8
0
 10
266.20989723399072
 20
7.9126907471393357
 30
0.0
 11
266.83951994359057
 21
7.945691829139335
 31
0.0
  0
ARC
  5
2D36
  8
0
 10
266.8379496341978
 20
7.9756509381060852
 30
0.0
 40
0.0300002346935943
 50
273.00041772573587
 51
359.99957646006573
  0
LINE
  5
2D37
  8
0
 10
266.3049095875906
 20
7.9176707302393501
 30
0.0
 11
266.3049095788906
 21
7.8994984665393551
 31
0.0
  0
LINE
  5
2D38
  8
0
 10
266.58049944839058
 20
7.9321155135594799
 30
0.0
 11
266.5804994300907
 21
7.9118782690003542
 31
0.0
  0
LINE
  5
2D39
  8
0
 10
266.54218645469058
 20
7.8911876413393571
 30
0.0
 11
266.34537148069057
 21
7.8808729797393511
 31
0.0
  0
LINE
  5
2D3A
  8
0
 10
266.54218645469058
 20
7.8911876413393571
 30
0.0
 11
266.56184467279058
 21
7.8922201965539642
 31
0.0
  0
ARC
  5
2D3B
  8
0
 10
266.56081441219061
 20
7.9118782354394019
 30
0.0
 40
0.0196850179000594
 50
273.00007682533982
 51
0.0000976834865979
  0
ARC
  5
2D3C
  8
0
 10
266.32459467156718
 20
7.8994985348408733
 30
0.0
 40
0.0196851022766313
 50
180.00019953007069
 51
272.99898913212041
  0
LINE
  5
2D3D
  8
0
 10
266.34537148069057
 20
7.8808729797393511
 30
0.0
 11
266.3256245633907
 21
7.8798403921393421
 31
0.0
  0
LINE
  5
2D3E
  8
0
 10
266.86794979369063
 20
10.846648937239349
 30
0.0
 11
266.86794986889061
 21
7.9756507163393593
 31
0.0
  0
LINE
  5
2D3F
  8
0
 10
266.86780864199068
 20
10.734920407539351
 30
0.0
 11
266.8795502754906
 21
10.734920407539351
 31
0.0
  0
LINE
  5
2D40
  8
0
 10
266.8795502754906
 20
10.734920407539351
 30
0.0
 11
266.8795502754906
 21
10.71523536783935
 31
0.0
  0
LINE
  5
2D41
  8
0
 10
266.8795502754906
 20
10.71523536783935
 30
0.0
 11
266.88734062709062
 21
10.71523536783935
 31
0.0
  0
LINE
  5
2D42
  8
0
 10
266.88734062709062
 20
10.71523536783935
 30
0.0
 11
266.88734062709062
 21
8.1085042205393307
 31
0.0
  0
LINE
  5
2D43
  8
0
 10
266.88734062709062
 20
8.1085042205393307
 30
0.0
 11
266.8795502754906
 21
8.1085042205393307
 31
0.0
  0
LINE
  5
2D44
  8
0
 10
266.8795502754906
 20
8.1085042205393307
 30
0.0
 11
266.8795502754906
 21
8.0888191815393355
 31
0.0
  0
LINE
  5
2D45
  8
0
 10
266.8795502754906
 20
8.0888191815393355
 30
0.0
 11
266.86794986889061
 21
8.0888191815393355
 31
0.0
  0
ARC
  5
2D46
  8
0
 10
265.06565835965642
 20
10.2592496985121
 30
0.0
 40
0.6966142814530471
 50
38.006109931644019
 51
88.600757836943586
  0
ARC
  5
2D47
  8
0
 10
265.06609228130918
 20
8.5104891240091121
 30
0.0
 40
0.695511408066769
 50
271.3550498660457
 51
322.05215690846308
  0
ARC
  5
2D48
  8
0
 10
265.07404561452819
 20
10.546895494777811
 30
0.0
 40
0.4088517138914519
 50
27.193358551330078
 51
88.791450530799764
  0
ARC
  5
2D49
  8
0
 10
263.6088247606088
 20
9.9070719704078698
 30
0.0
 40
2.0070343360359639
 50
2.0677744855095241
 51
24.323280912236989
  0
ARC
  5
2D4A
  8
0
 10
265.07372629639741
 20
8.2243472109278315
 30
0.0
 40
0.4092699009507944
 50
271.23392161493348
 51
332.79051685554879
  0
ARC
  5
2D4B
  8
0
 10
263.6088247561089
 20
8.8638771845707964
 30
0.0
 40
2.0070343360359639
 50
335.67671908776077
 51
357.93222551448878
  0
ENDSEC
  0
EOF
