  0
SECTION
  2
HEADER
  9
$ACADVER
  1
AC1009
  9
$INSBASE
 10
264.42007308886548
 20
8.2621658946071719
 30
0.0
  9
$EXTMIN
 10
257.19119513581541
 20
8.2549700391868406
 30
0.0
  9
$EXTMAX
 10
314.42007308886542
 20
56.258924214007187
 30
0.0
  9
$LIMMIN
 10
0.0
 20
0.0
  9
$LIMMAX
 10
11.692913385800001
 20
8.2677165353999982
  9
$ORTHOMODE
 70
     0
  9
$REGENMODE
 70
     1
  9
$FILLMODE
 70
     1
  9
$QTEXTMODE
 70
     0
  9
$MIRRTEXT
 70
     0
  9
$DRAGMODE
 70
     2
  9
$LTSCALE
 40
0.6431102362
  9
$OSMODE
 70
  3071
  9
$ATTMODE
 70
     1
  9
$TEXTSIZE
 40
0.2
  9
$TRACEWID
 40
0.05
  9
$TEXTSTYLE
  7
STANDARD
  9
$CLAYER
  8
0
  9
$CELTYPE
  6
BYLAYER
  9
$CECOLOR
 62
   256
  9
$DIMSCALE
 40
1.0
  9
$DIMASZ
 40
0.1875
  9
$DIMEXO
 40
0.0625
  9
$DIMDLI
 40
0.4443307087
  9
$DIMRND
 40
0.0
  9
$DIMDLE
 40
0.0
  9
$DIMEXE
 40
0.125
  9
$DIMTP
 40
0.01
  9
$DIMTM
 40
0.01
  9
$DIMTXT
 40
1.0
  9
$DIMCEN
 40
0.1052362205
  9
$DIMTSZ
 40
0.0
  9
$DIMTOL
 70
     1
  9
$DIMLIM
 70
     0
  9
$DIMTIH
 70
     1
  9
$DIMTOH
 70
     1
  9
$DIMSE1
 70
     0
  9
$DIMSE2
 70
     0
  9
$DIMTAD
 70
     0
  9
$DIMZIN
 70
     0
  9
$DIMBLK
  1

  9
$DIMASO
 70
     1
  9
$DIMSHO
 70
     1
  9
$DIMPOST
  1
\X
  9
$DIMAPOST
  1

  9
$DIMALT
 70
     1
  9
$DIMALTD
 70
     2
  9
$DIMALTF
 40
25.399999999999999
  9
$DIMLFAC
 40
1.0
  9
$DIMTOFL
 70
     0
  9
$DIMTVP
 40
0.0
  9
$DIMTIX
 70
     0
  9
$DIMSOXD
 70
     0
  9
$DIMSAH
 70
     0
  9
$DIMBLK1
  1

  9
$DIMBLK2
  1

  9
$DIMSTYLE
  2
STANDARD
  9
$DIMCLRD
 70
     0
  9
$DIMCLRE
 70
     0
  9
$DIMCLRT
 70
     0
  9
$DIMTFAC
 40
1.0
  9
$DIMGAP
 40
0.09
  9
$LUNITS
 70
     2
  9
$LUPREC
 70
     4
  9
$SKETCHINC
 40
0.1
  9
$FILLETRAD
 40
0.0
  9
$AUNITS
 70
     0
  9
$AUPREC
 70
     0
  9
$MENU
  1
.
  9
$ELEVATION
 40
0.0
  9
$PELEVATION
 40
0.0
  9
$THICKNESS
 40
0.0
  9
$LIMCHECK
 70
     0
  9
$BLIPMODE
 70
     0
  9
$CHAMFERA
 40
0.0
  9
$CHAMFERB
 40
0.0
  9
$SKPOLY
 70
     0
  9
$TDCREATE
 40
2458092.6980618401
  9
$TDUPDATE
 40
2458101.638052512
  9
$TDINDWG
 40
0.111869838
  9
$TDUSRTIMER
 40
0.111869838
  9
$USRTIMER
 70
     1
  9
$ANGBASE
 50
0.0
  9
$ANGDIR
 70
     0
  9
$PDMODE
 70
     0
  9
$PDSIZE
 40
0.3125
  9
$PLINEWID
 40
0.0
  9
$COORDS
 70
     1
  9
$SPLFRAME
 70
     0
  9
$SPLINETYPE
 70
     6
  9
$SPLINESEGS
 70
     8
  9
$ATTDIA
 70
     1
  9
$ATTREQ
 70
     1
  9
$HANDLING
 70
     1
  9
$HANDSEED
  5
2F52
  9
$SURFTAB1
 70
     6
  9
$SURFTAB2
 70
     6
  9
$SURFTYPE
 70
     6
  9
$SURFU
 70
     6
  9
$SURFV
 70
     6
  9
$UCSNAME
  2

  9
$UCSORG
 10
0.0
 20
0.0
 30
0.0
  9
$UCSXDIR
 10
1.0
 20
0.0
 30
0.0
  9
$UCSYDIR
 10
0.0
 20
1.0
 30
0.0
  9
$PUCSNAME
  2

  9
$PUCSORG
 10
0.0
 20
0.0
 30
0.0
  9
$PUCSXDIR
 10
1.0
 20
0.0
 30
0.0
  9
$PUCSYDIR
 10
0.0
 20
1.0
 30
0.0
  9
$USERI1
 70
     0
  9
$USERI2
 70
     0
  9
$USERI3
 70
     0
  9
$USERI4
 70
     0
  9
$USERI5
 70
     0
  9
$USERR1
 40
0.0
  9
$USERR2
 40
0.0
  9
$USERR3
 40
0.0
  9
$USERR4
 40
0.0
  9
$USERR5
 40
0.0
  9
$WORLDVIEW
 70
     1
  9
$SHADEDGE
 70
     3
  9
$SHADEDIF
 70
    70
  9
$TILEMODE
 70
     1
  9
$MAXACTVP
 70
    64
  9
$PLIMCHECK
 70
     0
  9
$PEXTMIN
 10
1.0000000000000000E+020
 20
1.0000000000000000E+020
 30
1.0000000000000000E+020
  9
$PEXTMAX
 10
-1.0000000000000000E+020
 20
-1.0000000000000000E+020
 30
-1.0000000000000000E+020
  9
$PLIMMIN
 10
0.0
 20
0.0
  9
$PLIMMAX
 10
12.0
 20
9.0
  9
$UNITMODE
 70
     0
  9
$VISRETAIN
 70
     1
  9
$PLINEGEN
 70
     0
  9
$PSLTSCALE
 70
     1
  0
ENDSEC
  0
SECTION
  2
TABLES
  0
TABLE
  2
VPORT
 70
     1
  0
VPORT
  2
*ACTIVE
 70
     0
 10
0.0
 20
0.0
 11
1.0
 21
1.0
 12
0.0
 22
0.0
 13
0.0
 23
0.0
 14
1.0
 24
1.0
 15
0.0
 25
0.0
 16
-0.0000000000000568
 26
0.0
 36
210.03164886559159
 17
285.80563411234039
 27
32.26054505430718
 37
0.0
 40
74.698785568108804
 41
2.0983240223463682
 42
50.0
 43
0.0
 44
0.0
 50
0.0
 51
0.0
 71
     0
 72
   100
 73
     1
 74
     1
 75
     0
 76
     0
 77
     0
 78
     0
  0
ENDTAB
  0
TABLE
  2
LTYPE
 70
     2
  0
LTYPE
  2
CONTINUOUS
 70
     0
  3
Solid line
 72
    65
 73
     0
 40
0.0
  0
LTYPE
  2
PHANTOM2
 70
     0
  3
___ _ _ ___ _ _ ___ _ _ ___ _ _
 72
    65
 73
     6
 40
1.25
 49
0.625
 49
-0.125
 49
0.125
 49
-0.125
 49
0.125
 49
-0.125
  0
ENDTAB
  0
TABLE
  2
LAYER
 70
     2
  0
LAYER
  2
0
 70
     0
 62
   255
  6
CONTINUOUS
  0
LAYER
  2
DEFPOINTS
 70
     0
 62
     7
  6
CONTINUOUS
  0
ENDTAB
  0
TABLE
  2
STYLE
 70
     1
  0
STYLE
  2
STANDARD
 70
     0
 40
0.0
 41
0.8
 50
0.0
 71
     0
 42
0.2
  3
txt
  4

  0
ENDTAB
  0
TABLE
  2
VIEW
 70
     0
  0
ENDTAB
  0
TABLE
  2
UCS
 70
     0
  0
ENDTAB
  0
TABLE
  2
APPID
 70
     8
  0
APPID
  2
ACAD
 70
     0
  0
APPID
  2
ACAD_MLEADERVER
 70
     0
  0
APPID
  2
ACAD_EXEMPT_FROM_CAD_STANDARDS
 70
     0
  0
APPID
  2
ACAD_NAV_VCDISPLAY
 70
     0
  0
APPID
  2
ACAD_DSTYLE_DIMJAG
 70
     0
  0
APPID
  2
ACAD_DSTYLE_DIMTALN
 70
     0
  0
APPID
  2
ACAECLAYERSTANDARD
 70
     0
  0
APPID
  2
ACCMTRANSPARENCY
 70
     0
  0
ENDTAB
  0
TABLE
  2
DIMSTYLE
 70
     1
  0
DIMSTYLE
  2
STANDARD
 70
     0
  3

  4

  5

  6

  7

 40
1.0
 41
0.1875
 42
0.0625
 43
0.38
 44
0.125
 45
0.0
 46
0.0
 47
0.01
 48
0.01
140
0.15625
141
0.09
142
0.0
143
25.399999999999999
144
1.0
145
0.0
146
1.0
147
0.09
 71
     1
 72
     0
 73
     1
 74
     1
 75
     0
 76
     0
 77
     0
 78
     4
170
     0
171
     2
172
     0
173
     0
174
     0
175
     0
176
     0
177
     0
178
     0
  0
ENDTAB
  0
ENDSEC
  0
SECTION
  2
BLOCKS
  0
BLOCK
  8
0
  2
$MODEL_SPACE
 70
     0
 10
0.0
 20
0.0
 30
0.0
  3
$MODEL_SPACE
  1

  0
ENDBLK
  5
21
  8
0
  0
BLOCK
 67
     1
  8
0
  2
$PAPER_SPACE
 70
     0
 10
0.0
 20
0.0
 30
0.0
  3
$PAPER_SPACE
  1

  0
ENDBLK
  5
1D
 67
     1
  8
0
  0
ENDSEC
  0
SECTION
  2
ENTITIES
  0
ATTDEF
  5
2A76
  8
DEFPOINTS
 10
264.41460124986662
 20
8.2549700391868441
 30
0.0
 40
0.001
  1
VITREOUS CHINA
  3

  2
MATERIAL
 70
     0
  0
ATTDEF
  5
2A77
  8
DEFPOINTS
 10
264.41464972831079
 20
8.2565871953640126
 30
0.0
 40
0.001
  1
TOILET
  3

  2
PRODUCT
 70
     0
  0
ATTDEF
  5
2A78
  8
DEFPOINTS
 10
264.41460768734129
 20
8.2583918706157036
 30
0.0
 40
0.001
  1
NUMI
  3

  2
TRADENAME
 70
     0
  0
ATTDEF
  5
2A79
  8
DEFPOINTS
 10
264.41460124986662
 20
8.2601393657840845
 30
0.0
 40
0.001
  1
K-3901-NPR
  3

  2
MODELNUMBER
 70
     0
  0
LINE
  5
2DF9
  8
0
 10
258.44848951419351
 20
9.1421658911071741
 30
0.0
 11
270.38783225799352
 21
9.1421658911071741
 31
0.0
  0
LINE
  5
2DFA
  8
0
 10
257.33829205499342
 20
23.60190883340718
 30
0.0
 11
258.22891764649341
 21
9.3484474998071736
 31
0.0
  0
LINE
  5
2DFB
  8
0
 10
258.93376249159343
 20
8.8671680496071748
 30
0.0
 11
258.98425771889339
 21
8.4218421899071725
 31
0.0
  0
LINE
  5
2DFC
  8
0
 10
270.60740378579351
 20
9.348442060907173
 30
0.0
 11
271.49802971719339
 21
23.60190883340718
 31
0.0
  0
LINE
  5
2DFD
  8
0
 10
269.85196838991902
 20
8.4219694623244585
 30
0.0
 11
269.90258346529339
 21
8.8671652828071768
 31
0.0
  0
LINE
  5
2DFE
  8
0
 10
271.36228593029352
 20
23.764165891107179
 30
0.0
 11
257.47403584189351
 21
23.764165891107179
 31
0.0
  0
LINE
  5
2DFF
  8
0
 10
257.33832817029338
 20
23.829626018607168
 30
0.0
 11
257.35986913659337
 21
23.828701787507178
 31
0.0
  0
ARC
  5
2E00
  8
0
 10
258.4484838826902
 20
9.3621598912456427
 30
0.0
 40
0.219994003910481
 50
183.57360549037321
 51
270.00146625113132
  0
ARC
  5
2E01
  8
0
 10
258.4902048584371
 20
8.7329462607552149
 30
0.0
 40
0.4634208266078027
 50
16.83596288777958
 51
62.011412425325922
  0
ARC
  5
2E02
  8
0
 10
259.16009664491207
 20
8.4386426418332761
 30
0.0
 40
0.1766396985060571
 50
185.4577325418696
 51
267.5387498636681
  0
ARC
  5
2E03
  8
0
 10
270.38783226777753
 20
9.3621658855757151
 30
0.0
 40
0.2199999944685422
 50
269.99999745189223
 51
356.42350852146939
  0
ARC
  5
2E04
  8
0
 10
270.25554272821091
 20
8.8004911664999455
 30
0.0
 40
0.3592014463565128
 50
107.97218369203181
 51
169.3028570944069
  0
ARC
  5
2E05
  8
0
 10
269.65260135310581
 20
8.4651007261640672
 30
0.0
 40
0.2039792177848752
 50
275.80043698122489
 51
347.79270125061151
  0
LINE
  5
2E06
  8
0
 10
269.67321628529351
 20
8.2621658946071719
 30
0.0
 11
259.1525110812014
 21
8.2621658946071719
 31
0.0
  0
LINE
  5
2E07
  8
0
 10
257.41140581049689
 20
26.013683411728209
 30
0.0
 11
271.45004328369339
 21
26.013683411728231
 31
0.0
  0
ARC
  5
2E08
  8
0
 10
271.40215850126418
 20
25.771570556628681
 30
0.0
 40
0.2468027289005346
 50
0.5206117025615719
 51
78.812491907903791
  0
LINE
  5
2E09
  8
0
 10
271.6489510419155
 20
25.773813071207169
 30
0.0
 11
271.49926888479342
 21
23.826712102807178
 31
0.0
  0
LINE
  5
2E0A
  8
0
 10
271.49926888479342
 20
23.826712102807178
 30
0.0
 11
271.4760067449493
 21
23.825761083035829
 31
0.0
  0
LINE
  5
2E0B
  8
0
 10
271.4760067449493
 20
23.825761083035829
 30
0.0
 11
257.35986913659337
 21
23.828701787507178
 31
0.0
  0
ARC
  5
2E0C
  8
0
 10
257.44607267114122
 20
25.76065906517313
 30
0.0
 40
0.2553881578627925
 50
97.801519572161936
 51
176.3762383114794
  0
ARC
  5
2E0D
  8
0
 10
258.41674717790193
 20
23.861107694038569
 30
0.0
 40
0.0991125122592015
 50
199.20721120366659
 51
257.98648578234702
  0
ARC
  5
2E0E
  8
0
 10
260.31554476389698
 20
23.288597102818599
 30
0.0
 40
0.5832726117795929
 50
112.3361343867066
 51
125.3784464193465
  0
ARC
  5
2E0F
  8
0
 10
257.5016953382966
 20
23.60311607679634
 30
0.0
 40
0.1634077428729325
 50
99.745188687622488
 51
180.4233005062982
  0
ARC
  5
2E10
  8
0
 10
271.33472213916792
 20
23.60319614355576
 30
0.0
 40
0.1633126517082359
 50
359.54836198242282
 51
80.283148823652652
  0
ARC
  5
2E11
  8
0
 10
270.28767512431182
 20
24.18371160915277
 30
0.0
 40
0.423446190685243
 50
277.7827138700431
 51
302.34371453609992
  0
ARC
  5
2E12
  8
0
 10
268.47542762780017
 20
23.216291064044171
 30
0.0
 40
0.6663442602088204
 50
55.30662590884814
 51
66.277066487376374
  0
LINE
  5
2E13
  8
0
 10
257.19119513581541
 20
25.776800724407181
 30
0.0
 11
257.33832817029338
 21
23.829626018607168
 31
0.0
  0
LINE
  5
2E15
  8
0
 10
312.58382064570679
 20
55.535529346590216
 30
0.0
 11
312.57387469086541
 21
51.092216558307193
 31
0.0
  0
ARC
  5
2E16
  8
0
 10
312.61381735134739
 20
55.535463594903831
 30
0.0
 40
0.0299967777445632
 50
86.716811921142437
 51
179.87440990674779
  0
ARC
  5
2E17
  8
0
 10
312.53055049708291
 20
54.065878118868902
 30
0.0
 40
1.5019393102556291
 50
65.819354802379664
 51
86.756278684709656
  0
ARC
  5
2E18
  8
0
 10
312.69887437781671
 20
51.091936753115938
 30
0.0
 40
0.1250000001154421
 50
179.87174664066271
 51
277.17310389453343
  0
ARC
  5
2E19
  8
0
 10
312.52693210586523
 20
52.458159595407722
 30
0.0
 40
1.5020000000005671
 50
277.17309352670361
 51
293.92204149232009
  0
ARC
  5
2E1A
  8
0
 10
312.96947193228903
 20
55.031171380220542
 30
0.0
 40
0.3961118232397894
 50
63.597945297207758
 51
108.40011601107349
  0
ARC
  5
2E1B
  8
0
 10
312.93370938758949
 20
55.27706236118982
 30
0.0
 40
0.1576748861403887
 50
124.4834637917041
 51
185.63359862798191
  0
ARC
  5
2E1C
  8
0
 10
312.96051766858892
 20
51.49171818809382
 30
0.0
 40
0.3961118232397894
 50
251.59988398892639
 51
296.40205470278931
  0
ARC
  5
2E1D
  8
0
 10
312.9247551238895
 20
51.245827207124528
 30
0.0
 40
0.1576748861403887
 50
174.366401372018
 51
235.51653620829589
  0
LINE
  5
2E1E
  8
0
 10
312.76784180866542
 20
51.261305597307178
 30
0.0
 11
312.77679607086537
 21
55.261583970907182
 31
0.0
  0
ARC
  5
2E1F
  8
0
 10
313.16582264840167
 20
50.293776558921323
 30
0.0
 40
0.0316522223143868
 50
182.79371094365021
 51
267.06363272054631
  0
LINE
  5
2E20
  8
0
 10
313.16420120491131
 20
50.262165894616153
 30
0.0
 11
313.60507649226543
 21
50.284243674107181
 31
0.0
  0
ARC
  5
2E21
  8
0
 10
313.60357340335668
 20
50.314205995950857
 30
0.0
 40
0.0300000001088715
 50
272.8718907567245
 51
359.87174869804488
  0
LINE
  5
2E22
  8
0
 10
313.13420804496542
 20
50.292233825307179
 30
0.0
 11
313.14749693966542
 21
56.228990698307193
 31
0.0
  0
ARC
  5
2E23
  8
0
 10
313.17841381499949
 20
56.22800595665371
 30
0.0
 40
0.0309325539932072
 50
91.742061390108475
 51
178.17567358580729
  0
LINE
  5
2E24
  8
0
 10
313.17747346467678
 20
56.258924213998199
 30
0.0
 11
313.61839639276542
 21
56.234872678607168
 31
0.0
  0
ARC
  5
2E25
  8
0
 10
313.61675922943209
 20
56.204917383653367
 30
0.0
 40
0.0299999999924756
 50
359.87047333354019
 51
86.8716942987773
  0
LINE
  5
2E26
  8
0
 10
313.64675915276553
 20
56.204849563707178
 30
0.0
 11
313.63357332830861
 21
50.314138843782018
 31
0.0
  0
LINE
  5
2E27
  8
0
 10
313.64665012936553
 20
56.156143821707182
 30
0.0
 11
313.68515830066531
 21
56.156057624639629
 31
0.0
  0
ARC
  5
2E28
  8
0
 10
313.68509114836797
 20
56.126057699767038
 30
0.0
 40
0.0300000000973997
 50
359.87174885806559
 51
89.871748695022873
  0
LINE
  5
2E29
  8
0
 10
313.71509107336527
 20
56.12599054764155
 30
0.0
 11
313.7022576148654
 21
50.392697824307191
 31
0.0
  0
LINE
  5
2E2A
  8
0
 10
313.63368236666543
 20
50.362851248707187
 30
0.0
 11
313.67219053778098
 21
50.36276505156421
 31
0.0
  0
ARC
  5
2E2B
  8
0
 10
313.67225768992552
 20
50.392764976504282
 30
0.0
 40
0.0300000000970187
 50
269.87174874444628
 51
359.87174864400271
  0
ARC
  5
2E2C
  8
0
 10
313.74433389999388
 20
55.78768866806346
 30
0.0
 40
0.0300000097199137
 50
179.87342177817209
 51
266.87173242993822
  0
LINE
  5
2E2D
  8
0
 10
313.74269675606553
 20
55.757733362307171
 30
0.0
 11
314.37231946551242
 21
55.72332284940461
 31
0.0
  0
ARC
  5
2E2E
  8
0
 10
314.37068233070329
 20
55.693367552922211
 30
0.0
 40
0.029999999962205
 50
359.87174860902053
 51
86.871749095587163
  0
LINE
  5
2E2F
  8
0
 10
314.4006822555084
 20
55.693300400707088
 30
0.0
 11
314.39864239506539
 21
54.782008292607181
 31
0.0
  0
ARC
  5
2E30
  8
0
 10
313.74197024290231
 20
54.730853515307729
 30
0.0
 40
0.0300019829877835
 50
92.875339449683807
 51
179.8645612016436
  0
LINE
  5
2E31
  8
0
 10
313.74046525106542
 20
54.760817727007179
 30
0.0
 11
314.37024697938978
 21
54.792410412431281
 31
0.0
  0
ARC
  5
2E32
  8
0
 10
314.36872335566841
 20
54.822394449041838
 30
0.0
 40
0.0300227227397512
 50
272.90895415601688
 51
358.16351217588073
  0
LINE
  5
2E33
  8
0
 10
314.40038809662349
 20
55.561887160511993
 30
0.0
 11
314.42007308886542
 21
55.561843097407177
 31
0.0
  0
LINE
  5
2E34
  8
0
 10
314.42007308886542
 20
55.561843097407177
 30
0.0
 11
314.42007308886542
 21
54.955113470107179
 31
0.0
  0
LINE
  5
2E35
  8
0
 10
314.42007308886542
 20
54.955113470107179
 30
0.0
 11
314.3990299892954
 21
54.955157533180312
 31
0.0
  0
LINE
  5
2E36
  8
0
 10
314.39864241026538
 20
54.782008292607181
 30
0.0
 11
313.74105698767039
 21
54.749021517007428
 31
0.0
  0
ARC
  5
2E37
  8
0
 10
313.74196826413743
 20
54.730855382805679
 30
0.0
 40
0.0181889762393265
 50
92.871748393413725
 51
179.87174902516711
  0
LINE
  5
2E38
  8
0
 10
313.72377933346542
 20
54.730896097007189
 30
0.0
 11
313.71831053337752
 21
52.287738146832901
 31
0.0
  0
ARC
  5
2E39
  8
0
 10
313.73649948527122
 20
52.287697453041467
 30
0.0
 40
0.0181889974154158
 50
179.87181347093821
 51
266.87172200471491
  0
LINE
  5
2E3A
  8
0
 10
313.73550688206541
 20
52.269535559807181
 30
0.0
 11
314.3929380247655
 21
52.233605238407172
 31
0.0
  0
LINE
  5
2E3B
  8
0
 10
314.3929380247655
 20
52.233605238407172
 30
0.0
 11
314.38977898021773
 21
50.822314382835273
 31
0.0
  0
ARC
  5
2E3C
  8
0
 10
313.73649947584659
 20
52.28769743276149
 30
0.0
 40
0.0300000002376187
 50
179.87174912476709
 51
266.87174874510248
  0
LINE
  5
2E3D
  8
0
 10
313.73486234081599
 20
52.257742136089121
 30
0.0
 11
314.36448505086543
 21
52.223331617707167
 31
0.0
  0
ARC
  5
2E3E
  8
0
 10
314.36284791610331
 20
52.193376321222217
 30
0.0
 40
0.0299999999621861
 50
359.99999997128162
 51
86.871748943847365
  0
ARC
  5
2E3F
  8
0
 10
313.733016501191
 20
50.730864578885729
 30
0.0
 40
0.0300018553941591
 50
92.899268110329999
 51
179.86911370780459
  0
LINE
  5
2E40
  8
0
 10
313.73149900186837
 20
50.760828032006117
 30
0.0
 11
314.36128208261812
 21
50.792419209514833
 31
0.0
  0
ARC
  5
2E41
  8
0
 10
314.35977906781898
 20
50.822381535008468
 30
0.0
 40
0.0300000001034941
 50
272.87174904612232
 51
359.87174863603889
  0
LINE
  5
2E42
  8
0
 10
313.92838462599929
 20
50.770703564496038
 30
0.0
 11
313.92835203906537
 21
50.756119061107192
 31
0.0
  0
ARC
  5
2E43
  8
0
 10
313.95197408626541
 20
50.756119061107171
 30
0.0
 40
0.0236220471999928
 50
179.99999999998701
 51
272.8717487810174
  0
LINE
  5
2E44
  8
0
 10
314.16463221766543
 20
50.782554582307178
 30
0.0
 11
314.16459414761351
 21
50.765546947807053
 31
0.0
  0
ARC
  5
2E45
  8
0
 10
314.14097223670609
 20
50.765599832298548
 30
0.0
 40
0.0236219701059318
 50
272.87367589663472
 51
359.87172701168959
  0
LINE
  5
2E46
  8
0
 10
313.9531575623721
 20
50.732526678899703
 30
0.0
 11
314.14215650246541
 21
50.742007566907184
 31
0.0
  0
LINE
  5
2E47
  8
0
 10
314.39259771713489
 20
52.081580919671239
 30
0.0
 11
314.42007308886542
 21
52.081536856637811
 31
0.0
  0
LINE
  5
2E48
  8
0
 10
314.42007308886542
 20
52.081536856637811
 30
0.0
 11
314.42007308886542
 21
50.933998570741011
 31
0.0
  0
LINE
  5
2E49
  8
0
 10
314.42007308886542
 20
50.933998570741011
 30
0.0
 11
314.39002907117202
 21
50.934042633837812
 31
0.0
  0
ENDSEC
  0
EOF
