  0
SECTION
  2
HEADER
  9
$ACADVER
  1
AC1009
  9
$INSBASE
 10
5.5356112532000017
 20
61.49122876949999
 30
0.0
  9
$EXTMIN
 10
-4.5646448718674089
 20
32.583692486861693
 30
0.0
  9
$EXTMAX
 10
15.63586737826741
 20
61.499826124096458
 30
0.0
  9
$LIMMIN
 10
0.0
 20
0.0
  9
$LIMMAX
 10
22.0
 20
17.0
  9
$ORTHOMODE
 70
     0
  9
$REGENMODE
 70
     1
  9
$FILLMODE
 70
     1
  9
$QTEXTMODE
 70
     0
  9
$MIRRTEXT
 70
     0
  9
$DRAGMODE
 70
     2
  9
$LTSCALE
 40
1.2099999999999991
  9
$OSMODE
 70
    47
  9
$ATTMODE
 70
     1
  9
$TEXTSIZE
 40
0.2
  9
$TRACEWID
 40
0.05
  9
$TEXTSTYLE
  7
STANDARD
  9
$CLAYER
  8
0
  9
$CELTYPE
  6
BYLAYER
  9
$CECOLOR
 62
   256
  9
$DIMSCALE
 40
1.0
  9
$DIMASZ
 40
0.1875
  9
$DIMEXO
 40
0.0625
  9
$DIMDLI
 40
0.8359999999999999
  9
$DIMRND
 40
0.0
  9
$DIMDLE
 40
0.0
  9
$DIMEXE
 40
0.125
  9
$DIMTP
 40
0.0
  9
$DIMTM
 40
0.0
  9
$DIMTXT
 40
0.15625
  9
$DIMCEN
 40
0.198
  9
$DIMTSZ
 40
0.0
  9
$DIMTOL
 70
     0
  9
$DIMLIM
 70
     0
  9
$DIMTIH
 70
     1
  9
$DIMTOH
 70
     1
  9
$DIMSE1
 70
     0
  9
$DIMSE2
 70
     0
  9
$DIMTAD
 70
     0
  9
$DIMZIN
 70
     0
  9
$DIMBLK
  1

  9
$DIMASO
 70
     1
  9
$DIMSHO
 70
     1
  9
$DIMPOST
  1

  9
$DIMAPOST
  1

  9
$DIMALT
 70
     0
  9
$DIMALTD
 70
     2
  9
$DIMALTF
 40
25.399999999999999
  9
$DIMLFAC
 40
1.0
  9
$DIMTOFL
 70
     0
  9
$DIMTVP
 40
0.0
  9
$DIMTIX
 70
     0
  9
$DIMSOXD
 70
     0
  9
$DIMSAH
 70
     0
  9
$DIMBLK1
  1

  9
$DIMBLK2
  1

  9
$DIMSTYLE
  2
STANDARD
  9
$DIMCLRD
 70
     0
  9
$DIMCLRE
 70
     0
  9
$DIMCLRT
 70
     0
  9
$DIMTFAC
 40
1.0
  9
$DIMGAP
 40
0.09
  9
$LUNITS
 70
     2
  9
$LUPREC
 70
     4
  9
$SKETCHINC
 40
0.1
  9
$FILLETRAD
 40
0.0
  9
$AUNITS
 70
     0
  9
$AUPREC
 70
     0
  9
$MENU
  1
.
  9
$ELEVATION
 40
0.0
  9
$PELEVATION
 40
0.0
  9
$THICKNESS
 40
0.0
  9
$LIMCHECK
 70
     0
  9
$BLIPMODE
 70
     0
  9
$CHAMFERA
 40
0.0
  9
$CHAMFERB
 40
0.0
  9
$SKPOLY
 70
     0
  9
$TDCREATE
 40
2457297.4561515972
  9
$TDUPDATE
 40
2457301.7397583919
  9
$TDINDWG
 40
0.2585235417
  9
$TDUSRTIMER
 40
0.2585235417
  9
$USRTIMER
 70
     1
  9
$ANGBASE
 50
0.0
  9
$ANGDIR
 70
     0
  9
$PDMODE
 70
     0
  9
$PDSIZE
 40
0.3125
  9
$PLINEWID
 40
0.0
  9
$COORDS
 70
     1
  9
$SPLFRAME
 70
     0
  9
$SPLINETYPE
 70
     6
  9
$SPLINESEGS
 70
     8
  9
$ATTDIA
 70
     0
  9
$ATTREQ
 70
     1
  9
$HANDLING
 70
     1
  9
$HANDSEED
  5
189F
  9
$SURFTAB1
 70
     6
  9
$SURFTAB2
 70
     6
  9
$SURFTYPE
 70
     6
  9
$SURFU
 70
     6
  9
$SURFV
 70
     6
  9
$UCSNAME
  2

  9
$UCSORG
 10
0.0
 20
0.0
 30
0.0
  9
$UCSXDIR
 10
1.0
 20
0.0
 30
0.0
  9
$UCSYDIR
 10
0.0
 20
1.0
 30
0.0
  9
$PUCSNAME
  2

  9
$PUCSORG
 10
0.0
 20
0.0
 30
0.0
  9
$PUCSXDIR
 10
1.0
 20
0.0
 30
0.0
  9
$PUCSYDIR
 10
0.0
 20
1.0
 30
0.0
  9
$USERI1
 70
     0
  9
$USERI2
 70
     0
  9
$USERI3
 70
     0
  9
$USERI4
 70
     0
  9
$USERI5
 70
     0
  9
$USERR1
 40
0.0
  9
$USERR2
 40
0.0
  9
$USERR3
 40
0.0
  9
$USERR4
 40
0.0
  9
$USERR5
 40
0.0
  9
$WORLDVIEW
 70
     1
  9
$SHADEDGE
 70
     3
  9
$SHADEDIF
 70
    70
  9
$TILEMODE
 70
     1
  9
$MAXACTVP
 70
    64
  9
$PLIMCHECK
 70
     0
  9
$PEXTMIN
 10
1.0000000000000000E+020
 20
1.0000000000000000E+020
 30
1.0000000000000000E+020
  9
$PEXTMAX
 10
-1.0000000000000000E+020
 20
-1.0000000000000000E+020
 30
-1.0000000000000000E+020
  9
$PLIMMIN
 10
0.0
 20
0.0
  9
$PLIMMAX
 10
12.0
 20
9.0
  9
$UNITMODE
 70
     0
  9
$VISRETAIN
 70
     1
  9
$PLINEGEN
 70
     0
  9
$PSLTSCALE
 70
     1
  0
ENDSEC
  0
SECTION
  2
TABLES
  0
TABLE
  2
VPORT
 70
     1
  0
VPORT
  2
*ACTIVE
 70
     0
 10
0.0
 20
0.0
 11
1.0
 21
1.0
 12
8.369724313179681
 22
47.316962337998874
 13
0.0
 23
0.0
 14
1.0
 24
1.0
 15
0.0
 25
0.0
 16
0.0
 26
0.0
 36
1.0
 17
0.0
 27
0.0
 37
0.0
 40
34.385311618906137
 41
2.2293364377182772
 42
50.0
 43
0.0
 44
0.0
 50
0.0
 51
0.0
 71
     0
 72
   100
 73
     1
 74
     1
 75
     0
 76
     0
 77
     0
 78
     0
  0
ENDTAB
  0
TABLE
  2
LTYPE
 70
     1
  0
LTYPE
  2
CONTINUOUS
 70
     0
  3
Solid line
 72
    65
 73
     0
 40
0.0
  0
ENDTAB
  0
TABLE
  2
LAYER
 70
     2
  0
LAYER
  2
0
 70
     0
 62
     7
  6
CONTINUOUS
  0
LAYER
  2
DEFPOINTS
 70
     0
 62
     7
  6
CONTINUOUS
  0
ENDTAB
  0
TABLE
  2
STYLE
 70
     1
  0
STYLE
  2
STANDARD
 70
     0
 40
0.0
 41
0.8
 50
0.0
 71
     0
 42
0.2
  3
txt
  4

  0
ENDTAB
  0
TABLE
  2
VIEW
 70
     0
  0
ENDTAB
  0
TABLE
  2
UCS
 70
     0
  0
ENDTAB
  0
TABLE
  2
APPID
 70
     5
  0
APPID
  2
ACAD
 70
     0
  0
APPID
  2
ACAD_MLEADERVER
 70
     0
  0
APPID
  2
ACAD_NAV_VCDISPLAY
 70
     0
  0
APPID
  2
ACAD_EXEMPT_FROM_CAD_STANDARDS
 70
     0
  0
APPID
  2
ACDBATTR
 70
     0
  0
ENDTAB
  0
TABLE
  2
DIMSTYLE
 70
     1
  0
DIMSTYLE
  2
STANDARD
 70
     0
  3

  4

  5

  6

  7

 40
1.0
 41
0.1875
 42
0.0625
 43
0.38
 44
0.125
 45
0.0
 46
0.0
 47
1.5
 48
1.5
140
0.15625
141
0.09
142
0.0
143
25.399999999999999
144
1.0
145
0.0
146
1.0
147
0.09
 71
     0
 72
     0
 73
     1
 74
     1
 75
     0
 76
     0
 77
     0
 78
     4
170
     0
171
     2
172
     0
173
     0
174
     0
175
     0
176
     0
177
     0
178
     0
  0
ENDTAB
  0
ENDSEC
  0
SECTION
  2
BLOCKS
  0
BLOCK
  8
0
  2
$MODEL_SPACE
 70
     0
 10
0.0
 20
0.0
 30
0.0
  3
$MODEL_SPACE
  1

  0
ENDBLK
  5
21
  8
0
  0
BLOCK
 67
     1
  8
0
  2
$PAPER_SPACE
 70
     0
 10
0.0
 20
0.0
 30
0.0
  3
$PAPER_SPACE
  1

  0
ENDBLK
  5
1D
 67
     1
  8
0
  0
ENDSEC
  0
SECTION
  2
ENTITIES
  0
LINE
  5
14E7
  8
0
 10
-3.8160068238
 20
60.491228769499997
 30
0.0
 11
15.0191549238733
 21
60.491228769499997
 31
0.0
  0
ARC
  5
14E9
  8
0
 10
14.953191984136639
 20
59.849080239082397
 30
0.0
 40
0.6455275707018052
 50
1.0784750892579611
 51
95.864980107028316
  0
ARC
  5
14EA
  8
0
 10
10.589799669535079
 20
59.249130209024038
 30
0.0
 40
5.0460677087323296
 50
312.04486861119062
 51
6.9672727805104984
  0
ARC
  5
14EB
  8
0
 10
14.56711020690342
 20
54.924276856785013
 30
0.0
 40
0.8312835100647772
 50
135.992192027209
 51
178.7286118912775
  0
ARC
  5
14EC
  8
0
 10
13.457997219995329
 20
54.970578795961622
 30
0.0
 40
0.2794262117322763
 50
302.39966589227669
 51
354.2784037985133
  0
LINE
  5
14F4
  8
0
 10
13.60771989569842
 20
54.734650569198998
 30
0.0
 11
12.716660257199999
 21
54.169628556599989
 31
0.0
  0
ARC
  5
14F5
  8
0
 10
12.566867955896329
 20
54.403964614630773
 30
0.0
 40
0.278120696143327
 50
250.50464833383759
 51
302.5875284023939
  0
ARC
  5
14F6
  8
0
 10
12.189319890970429
 20
53.482165183034361
 30
0.0
 40
0.7184533034943632
 50
66.652249266269138
 51
115.426691499526
  0
ARC
  5
14F7
  8
0
 10
9.9808979615269866
 20
57.856895629120409
 30
0.0
 40
4.1823420061177359
 50
282.70608465664799
 51
297.02266052597389
  0
ARC
  5
14F8
  8
0
 10
14.680526069143671
 20
52.920860953905041
 30
0.0
 40
3.8754657019880079
 50
167.23775352958251
 51
185.7139022426752
  0
ARC
  5
14F9
  8
0
 10
16.979421959938751
 20
53.097023067388477
 30
0.0
 40
6.1807106691400531
 50
185.21707485942159
 51
208.2066283880294
  0
ARC
  5
14FA
  8
0
 10
-0.766804864786985
 20
43.295917641474468
 30
0.0
 40
14.094469574698669
 50
1.1752297819652391
 51
29.481292966773889
  0
ARC
  5
14FB
  8
0
 10
-0.8863127928006457
 20
43.876847866444031
 30
0.0
 40
14.215169976566971
 50
319.28108028711392
 51
358.8234872296544
  0
ARC
  5
14FC
  8
0
 10
5.5108711122469662
 20
38.336441728876359
 30
0.0
 40
5.752404849563292
 50
270.24641877167051
 51
319.53989202740217
  0
ARC
  5
1505
  8
0
 10
-3.8955414251759808
 20
52.885165303580763
 30
0.0
 40
4.1634115127315239
 50
355.47060706333087
 51
12.36530036492938
  0
ARC
  5
1506
  8
0
 10
-6.2245880909963747
 20
53.207870140573803
 30
0.0
 40
6.5121261305130709
 50
332.24963930475423
 51
354.2583629146572
  0
ARC
  5
1507
  8
0
 10
11.163648549134409
 20
43.473470166255822
 30
0.0
 40
13.418750058138921
 50
150.03525489393289
 51
179.52389308923631
  0
ARC
  5
1508
  8
0
 10
11.42841351567855
 20
43.674810383917652
 30
0.0
 40
13.68334665468495
 50
180.37617227089291
 51
221.30246627781079
  0
ARC
  5
1509
  8
0
 10
5.4691164589728452
 20
38.144261902909179
 30
0.0
 40
5.5605694160474934
 50
219.0204995536761
 51
270.68517306748339
  0
ARC
  5
150A
  8
0
 10
-3.8819694777366371
 20
59.849080239082397
 30
0.0
 40
0.6455275707018052
 50
84.135019892971755
 51
178.92152491074199
  0
ARC
  5
150B
  8
0
 10
0.4814228368649208
 20
59.249130209024038
 30
0.0
 40
5.0460677087323296
 50
173.03272721948949
 51
227.95513138880941
  0
ARC
  5
150C
  8
0
 10
-3.4958877005034159
 20
54.924276856785013
 30
0.0
 40
0.8312835100647772
 50
1.2713881087224741
 51
44.007807972790957
  0
ARC
  5
150D
  8
0
 10
-2.3867747135953321
 20
54.970578795961622
 30
0.0
 40
0.2794262117322763
 50
185.7215962014867
 51
237.6003341077232
  0
LINE
  5
150E
  8
0
 10
-2.5364973892984248
 20
54.734650569198998
 30
0.0
 11
-1.6454377507999991
 21
54.169628556599989
 31
0.0
  0
ARC
  5
150F
  8
0
 10
-1.118097384570425
 20
53.482165183034361
 30
0.0
 40
0.7184533034943632
 50
64.573308500474013
 51
113.34775073373081
  0
ARC
  5
1510
  8
0
 10
1.0911306424037419
 20
57.8587547365006
 30
0.0
 40
4.1843643955541507
 50
242.97907269562529
 51
257.29774802712939
  0
LINE
  5
151A
  8
0
 10
-3.8160068238
 20
60.491228769499997
 30
0.0
 11
-3.7142089579999991
 21
60.491228769499997
 31
0.0
  0
ARC
  5
151E
  8
0
 10
-2.38929740356427
 20
59.855624334526787
 30
0.0
 40
0.6377291674571534
 50
85.321654719151695
 51
179.49657564736199
  0
ARC
  5
151F
  8
0
 10
1.0437293378067001
 20
59.336725859433379
 30
0.0
 40
4.1043854202795318
 50
172.65805910136149
 51
204.6203324505733
  0
ARC
  5
1520
  8
0
 10
0.1384844793172313
 20
59.030682090309369
 30
0.0
 40
3.1554894854350102
 50
206.41653512867001
 51
228.5325857698738
  0
ARC
  5
1521
  8
0
 10
-2.4359376025770301
 20
56.220319906083553
 30
0.0
 40
0.6587019246297233
 50
353.09600723903691
 51
42.599055902883137
  0
ARC
  5
1522
  8
0
 10
-1.48448487041364
 20
56.191880295440797
 30
0.0
 40
0.3018225261363097
 50
189.67801371621451
 51
233.8967765863548
  0
LINE
  5
1523
  8
0
 10
-1.6624447236
 20
55.947846764200001
 30
0.0
 11
-0.8992835489
 21
55.443696012700002
 31
0.0
  0
ARC
  5
1524
  8
0
 10
-0.7475061490758562
 20
55.704436214685749
 30
0.0
 40
0.3016982466454626
 50
239.7962284293944
 51
283.97469357260951
  0
ARC
  5
1525
  8
0
 10
-0.3478592117253028
 20
54.84345412935776
 30
0.0
 40
0.6554824416769904
 50
70.612197575590372
 51
119.90386189932271
  0
ARC
  5
1526
  8
0
 10
2.9436575179982851
 20
63.542167648581326
 30
0.0
 40
8.6453389158267289
 50
249.17233087009259
 51
269.14182068764478
  0
ARC
  5
1527
  8
0
 10
5.4720391593880562
 20
102.30308698331319
 30
0.0
 40
47.479739223396187
 50
266.7909634757516
 51
274.12033952792228
  0
ARC
  5
1528
  8
0
 10
8.6033974491645875
 20
61.672207042805482
 30
0.0
 40
6.7319712869940904
 50
272.3849018560727
 51
292.70192469811781
  0
ARC
  5
1529
  8
0
 10
13.45035542174741
 20
59.841393342781437
 30
0.0
 40
0.6481862095665811
 50
1.7536352480851021
 51
93.706548131023936
  0
ARC
  5
152A
  8
0
 10
10.327350403558381
 20
59.291185652562937
 30
0.0
 40
3.8137308762082109
 50
334.12477484989631
 51
8.5962908128207101
  0
ARC
  5
152B
  8
0
 10
11.490027324511599
 20
58.603451669471383
 30
0.0
 40
2.4699928946475258
 50
308.34159233595921
 51
336.70928608767088
  0
ARC
  5
152C
  8
0
 10
13.614102522905389
 20
56.185886350015288
 30
0.0
 40
0.7621830959133045
 50
140.93925787320609
 51
183.36565638995779
  0
ARC
  5
152D
  8
0
 10
12.646212170781119
 20
56.135571912530231
 30
0.0
 40
0.2070967407228167
 50
294.9792017564028
 51
1.540690485111829
  0
LINE
  5
152E
  8
0
 10
12.733666897299999
 20
55.947846765500003
 30
0.0
 11
11.9711939068878
 21
55.444150269819197
 31
0.0
  0
ARC
  5
152F
  8
0
 10
11.836728476567069
 20
55.575502743636967
 30
0.0
 40
0.187974531065751
 50
241.30543088142579
 51
315.67095223335849
  0
ARC
  5
1530
  8
0
 10
11.41862440987077
 20
54.846423319510762
 30
0.0
 40
0.6525301631791936
 50
59.839185222574699
 51
109.4364985693994
  0
CIRCLE
  5
1543
  8
0
 10
5.5356110873000004
 20
57.672778769499999
 30
0.0
 40
0.4125082957257865
  0
ARC
  5
1544
  8
0
 10
3.7496325951332992
 20
69.222204932770978
 30
0.0
 40
15.855804581143071
 50
256.95819936704351
 51
268.86799142251527
  0
ARC
  5
1545
  8
0
 10
5.6746130693251446
 20
96.841937547672501
 30
0.0
 40
43.513430796452788
 50
269.81697074208091
 51
273.9686269296115
  0
ARC
  5
1546
  8
0
 10
8.0897509703030188
 20
64.569308062184263
 30
0.0
 40
11.152420600349339
 50
273.06566841225077
 51
284.59930338607421
  0
ARC
  5
1547
  8
0
 10
-7.1353227959383672
 20
52.778008750760513
 30
0.0
 40
7.8124592144445852
 50
335.7415907882409
 51
352.53222618212322
  0
ARC
  5
1548
  8
0
 10
-4.6172703794587378
 20
52.423740650460672
 30
0.0
 40
5.2697755453727329
 50
352.79312064728498
 51
13.89396772759477
  0
ARC
  5
1549
  8
0
 10
5.404360737658064
 20
100.6395862701316
 30
0.0
 40
47.311039558890812
 50
267.61600630838092
 51
270.15895043358699
  0
LINE
  5
154A
  8
0
 10
-0.012690033365506
 20
49.568239053900029
 30
0.0
 11
0.2688900384070707
 21
50.10471397825151
 31
0.0
  0
LINE
  5
154B
  8
0
 10
0.2688900384070707
 20
50.10471397825151
 30
0.0
 11
0.292480423094502
 21
50.146730046050003
 31
0.0
  0
ARC
  5
154C
  8
0
 10
0.3530842293576869
 20
50.124530930437487
 30
0.0
 40
0.0642068365049273
 50
82.741670055742006
 51
159.77279333600691
  0
LINE
  5
154D
  8
0
 10
0.3611963259269146
 20
50.188223251349989
 30
0.0
 11
0.380108972
 21
50.188221437799989
 31
0.0
  0
ARC
  5
154E
  8
0
 10
0.9414288383088678
 20
50.153220786805839
 30
0.0
 40
0.562410026478031
 50
145.62660888926601
 51
176.43198694208789
  0
ARC
  5
1550
  8
0
 10
12.30508025814316
 20
42.881814698991441
 30
0.0
 40
14.05311261296209
 50
143.8856601421578
 51
147.31513637817741
  0
ARC
  5
1551
  8
0
 10
1.070609717278149
 20
51.100486210114191
 30
0.0
 40
0.1345419337641502
 50
91.197304839329675
 51
151.49274312682951
  0
LINE
  5
1552
  8
0
 10
1.067798434923253
 20
51.234998769499988
 30
0.0
 11
1.290368523459392
 21
51.234998769499988
 31
0.0
  0
ARC
  5
1553
  8
0
 10
1.292335564443549
 20
50.7673411652816
 30
0.0
 40
0.467661741041025
 50
80.721523155647802
 51
90.240993583496163
  0
ARC
  5
1554
  8
0
 10
1.467507948509988
 20
52.923153370661588
 30
0.0
 40
1.6972041986881461
 50
266.62993539587308
 51
268.78646709357861
  0
ARC
  5
1555
  8
0
 10
1.4338169550688691
 20
51.201925606920071
 30
0.0
 40
0.0245080425098729
 50
59.409341270623038
 51
95.275412112392956
  0
LINE
  5
1557
  8
0
 10
1.4462891163999989
 20
51.223022856299998
 30
0.0
 11
1.537289099499999
 21
51.234874333599997
 31
0.0
  0
LINE
  5
1558
  8
0
 10
1.537289099499999
 20
51.234874333599997
 30
0.0
 11
1.9373248011499999
 21
51.234595797300003
 31
0.0
  0
ARC
  5
1559
  8
0
 10
1.9446657697006009
 20
51.13901089699683
 30
0.0
 40
0.0958663808914704
 50
69.791005287277642
 51
94.391723709040505
  0
LINE
  5
155A
  8
0
 10
3.5643513570000001
 20
51.301425595799998
 30
0.0
 11
7.5068708176000003
 21
51.301425595799998
 31
0.0
  0
LINE
  5
1564
  8
0
 10
9.1338437239000001
 20
51.234592827
 30
0.0
 11
10.0074651752
 21
51.234942184449999
 31
0.0
  0
ARC
  5
1565
  8
0
 10
9.1265205846714128
 20
51.139137640870139
 30
0.0
 40
0.0957356826227698
 50
85.612970823902245
 51
110.2160789429623
  0
ARC
  5
1566
  8
0
 10
10.000224120970451
 20
51.099832065324271
 30
0.0
 40
0.1353040175180519
 50
28.672548471735372
 51
86.932240808513811
  0
ARC
  5
1567
  8
0
 10
0.7538656620842851
 20
44.296382934219501
 30
0.0
 40
11.61374355148395
 50
31.799594509880681
 51
36.256422528727377
  0
ARC
  5
1568
  8
0
 10
12.06030731873147
 20
43.270211240380533
 30
0.0
 40
13.61756492084284
 50
152.45190943322461
 51
178.67070051411559
  0
ARC
  5
1569
  8
0
 10
11.772276657541431
 20
43.709744078627203
 30
0.0
 40
13.326442883191479
 50
180.5315206841382
 51
213.106981685645
  0
ARC
  5
156A
  8
0
 10
6.6905028438297611
 20
39.813728737769729
 30
0.0
 40
6.9587842331150833
 50
209.08717197095729
 51
241.7278496768516
  0
ARC
  5
156B
  8
0
 10
5.5218030589358991
 20
38.131263074936527
 30
0.0
 40
4.9462831702952039
 50
244.0755954133227
 51
270.15901680416232
  0
ARC
  5
157C
  8
0
 10
18.206544974810502
 20
52.77800874574131
 30
0.0
 40
7.8124592144445852
 50
187.46777379518079
 51
204.2584091890632
  0
ARC
  5
157D
  8
0
 10
15.68849255819053
 20
52.423740646438922
 30
0.0
 40
5.2697755453727329
 50
166.1060322497093
 51
187.20687933001909
  0
ARC
  5
157E
  8
0
 10
-0.9890851436255641
 20
43.27021124296509
 30
0.0
 40
13.61756492084284
 50
1.32929946318846
 51
27.548090544079489
  0
ARC
  5
157F
  8
0
 10
-0.7010544822614176
 20
43.709744081097647
 30
0.0
 40
13.326442883191479
 50
326.89301829165908
 51
359.46847929316579
  0
ARC
  5
1580
  8
0
 10
4.3807193299069711
 20
39.813728738227198
 30
0.0
 40
6.9587842331150833
 50
298.27215030045249
 51
330.9128280063469
  0
ARC
  5
1581
  8
0
 10
5.5494191141343752
 20
38.131263074931063
 30
0.0
 40
4.9462831702952039
 50
269.84098317314169
 51
295.9244045639814
  0
LINE
  5
1582
  8
0
 10
11.083912210966201
 20
49.568239051702207
 30
0.0
 11
10.8023320921
 21
50.104714780499997
 31
0.0
  0
LINE
  5
1583
  8
0
 10
10.8023320921
 20
50.104714780499997
 30
0.0
 11
10.62434475605
 21
50.416242551500012
 31
0.0
  0
ARC
  5
1584
  8
0
 10
2.256241094625691
 20
51.589944795543637
 30
0.0
 40
1.011244190282677
 50
242.0185164081432
 51
268.25570069297692
  0
ARC
  5
1585
  8
0
 10
14.212523134314351
 20
42.219432211008687
 30
0.0
 40
15.046299187011959
 50
145.7069166449474
 51
159.90063481423871
  0
ARC
  5
1586
  8
0
 10
10.96060996853957
 20
43.513795663128199
 30
0.0
 40
11.54804273790222
 50
160.38695120318789
 51
198.39520302853359
  0
ARC
  5
1587
  8
0
 10
12.26449962944845
 20
43.855012535681887
 30
0.0
 40
12.893282660595631
 50
198.00553501405719
 51
217.67241418040089
  0
ARC
  5
1588
  8
0
 10
5.577805219007506
 20
38.368882793631762
 30
0.0
 40
4.2555146125728571
 50
214.2259632758674
 51
269.43189355445782
  0
ARC
  5
1589
  8
0
 10
8.8149810837758231
 20
51.589944794244623
 30
0.0
 40
1.011244190282677
 50
271.74429928432721
 51
297.9814835691609
  0
ARC
  5
158A
  8
0
 10
-3.141300959624675
 20
42.219432214445781
 30
0.0
 40
15.046299187011959
 50
20.099365163065361
 51
34.293083332356687
  0
ARC
  5
158B
  8
0
 10
0.110612206662827
 20
43.513795665277136
 30
0.0
 40
11.54804273790222
 50
341.60479694877051
 51
19.613048774116098
  0
ARC
  5
158C
  8
0
 10
-1.193277454110889
 20
43.855012538347317
 30
0.0
 40
12.893282660595631
 50
322.32758579690312
 51
341.99446496324691
  0
ARC
  5
158D
  8
0
 10
5.4934169541568938
 20
38.368882793648467
 30
0.0
 40
4.2555146125728571
 50
270.56810642284631
 51
325.77403670143661
  0
LINE
  5
158E
  8
0
 10
2.225459768399987
 20
50.579169191200002
 30
0.0
 11
8.8457624096011287
 21
50.579169189888788
 31
0.0
  0
LINE
  5
159F
  8
0
 10
2.006389986899999
 20
51.246327853800011
 30
0.0
 11
2.015823700199999
 21
52.327324322799988
 31
0.0
  0
ARC
  5
15A0
  8
0
 10
2.5071165967486611
 20
52.330349439090533
 30
0.0
 40
0.4886285975756349
 50
88.605582728408095
 51
179.60094013214911
  0
LINE
  5
15A1
  8
0
 10
2.5190072613500001
 20
52.819953150700002
 30
0.0
 11
3.086934402499999
 21
52.819580686199991
 31
0.0
  0
ARC
  5
15A2
  8
0
 10
3.0622155562633182
 20
52.329680933450433
 30
0.0
 40
0.490522975102449
 50
0.4758489914206799
 51
87.111479481958057
  0
LINE
  5
15A3
  8
0
 10
3.5553984745
 20
52.327324322799988
 30
0.0
 11
3.5648321873999991
 21
51.246327890899998
 31
0.0
  0
ARC
  5
15A4
  8
0
 10
1.9809939938170289
 20
51.255938791371371
 30
0.0
 40
0.0271537582236893
 50
263.20743958385862
 51
339.27119888760359
  0
LINE
  5
15A5
  8
0
 10
3.5648321876999991
 20
51.246327852700013
 30
0.0
 11
2.006389986899999
 21
51.246327853800011
 31
0.0
  0
LINE
  5
15A6
  8
0
 10
9.0648321877000004
 20
51.246327852700013
 30
0.0
 11
9.0553984745000005
 21
52.327324322799988
 31
0.0
  0
ARC
  5
15A7
  8
0
 10
8.5587998040120787
 20
52.323766870981281
 30
0.0
 40
0.4966114124683544
 50
0.4104390539318443
 51
86.752274993100784
  0
LINE
  5
15A8
  8
0
 10
8.5869344024999315
 20
52.819580686199991
 30
0.0
 11
8.0190072613499996
 21
52.819953150700002
 31
0.0
  0
ARC
  5
15A9
  8
0
 10
8.018955282709145
 20
52.318003093968187
 30
0.0
 40
0.5019500594230975
 50
89.994066826579214
 51
178.5689665142464
  0
LINE
  5
15AA
  8
0
 10
7.5158237001999986
 20
52.327324322799988
 30
0.0
 11
7.5063899872237672
 21
51.246327890899998
 31
0.0
  0
LINE
  5
15AB
  8
0
 10
7.5063899872237672
 20
51.246327890899998
 30
0.0
 11
9.0648321877000004
 21
51.246327852700013
 31
0.0
  0
ARC
  5
15AC
  8
0
 10
9.0927955202256054
 20
51.260171484772329
 30
0.0
 40
0.03120246969218
 50
206.33834337748189
 51
271.1798663291359
  0
LINE
  5
15AD
  8
0
 10
1.78177750531886
 20
50.696913106433129
 30
0.0
 11
1.7147276888
 21
50.749197258099997
 31
0.0
  0
LINE
  5
15AE
  8
0
 10
1.7147276888
 20
50.749197258099997
 30
0.0
 11
1.642032733937457
 21
50.795802411101029
 31
0.0
  0
LINE
  5
15AF
  8
0
 10
1.642032733937457
 20
50.795802411101029
 30
0.0
 11
1.4391804948999991
 21
50.954046534500002
 31
0.0
  0
ARC
  5
15B0
  8
0
 10
1.559314507660116
 20
51.759554304234243
 30
0.0
 40
0.8144172353191475
 50
241.9056568071905
 51
261.51742698525749
  0
LINE
  5
15B1
  8
0
 10
1.1757856070257571
 20
51.041096918188913
 30
0.0
 11
0.9522855359999999
 21
51.164751363800001
 31
0.0
  0
LINE
  5
15B2
  8
0
 10
9.2894423951
 20
50.696911655999997
 30
0.0
 11
9.3564774362538277
 21
50.749197258099997
 31
0.0
  0
ARC
  5
15B3
  8
0
 10
9.2191087496766926
 20
51.043469630775903
 30
0.0
 40
0.3247659912236967
 50
295.0157776511295
 51
310.30585354091221
  0
LINE
  5
15B4
  8
0
 10
9.4291893744835935
 20
50.795802359179788
 30
0.0
 11
9.6320412089992224
 21
50.95404621714961
 31
0.0
  0
ARC
  5
15B5
  8
0
 10
9.5327784262955007
 20
51.696404727650709
 30
0.0
 40
0.7489654610706223
 50
277.61599862801
 51
298.96089611979022
  0
LINE
  5
15B6
  8
0
 10
9.8954369297000007
 20
51.041097111499987
 30
0.0
 11
10.11937547538065
 21
51.163942375717689
 31
0.0
  0
ARC
  5
15D7
  8
0
 10
-1.495515370087668
 20
54.402871778338628
 30
0.0
 40
0.2770472074858068
 50
237.7955668722179
 51
289.5454031476873
  0
ATTDEF
  5
1650
  8
DEFPOINTS
 10
5.5327015186951352
 20
61.49882612409646
 30
0.0
 40
0.001
  1
K-3826
  3

  2
MODELNUMBER
 70
     0
1001
ACDBATTR
1070
     0
1070
     1
  0
ATTDEF
  5
1651
  8
DEFPOINTS
 10
5.5327015186951352
 20
61.497159457429788
 30
0.0
 40
0.001
  1
PORTRAIT
  3

  2
TRADENAME
 70
     0
1001
ACDBATTR
1070
     0
1070
     1
  0
ATTDEF
  5
1652
  8
DEFPOINTS
 10
5.5327015186951352
 20
61.495492790763123
 30
0.0
 40
0.001
  1
TOILET
  3

  2
PRODUCT
 70
     0
1001
ACDBATTR
1070
     0
1070
     1
  0
ATTDEF
  5
1653
  8
DEFPOINTS
 10
5.5327015186951352
 20
61.493826124096451
 30
0.0
 40
0.001
  1
VITREOUS CHINA
  3

  2
MATERIAL
 70
     0
1001
ACDBATTR
1070
     0
1070
     1
  0
ENDSEC
  0
EOF
