  0
SECTION
  2
HEADER
  9
$ACADVER
  1
AC1009
  9
$INSBASE
 10
5.5356111250513109
 20
-5.7173140192999989
 30
0.0
  9
$EXTMIN
 10
-4.5405311143889131
 20
-5.733381728891727
 30
0.0
  9
$EXTMAX
 10
27.99558611510113
 20
23.678071579851089
 30
0.0
  9
$LIMMIN
 10
0.0
 20
0.0
  9
$LIMMAX
 10
22.0
 20
17.0
  9
$ORTHOMODE
 70
     1
  9
$REGENMODE
 70
     1
  9
$FILLMODE
 70
     1
  9
$QTEXTMODE
 70
     0
  9
$MIRRTEXT
 70
     0
  9
$DRAGMODE
 70
     2
  9
$LTSCALE
 40
1.2099999999999991
  9
$OSMODE
 70
    47
  9
$ATTMODE
 70
     1
  9
$TEXTSIZE
 40
0.2
  9
$TRACEWID
 40
0.05
  9
$TEXTSTYLE
  7
STANDARD
  9
$CLAYER
  8
0
  9
$CELTYPE
  6
BYLAYER
  9
$CECOLOR
 62
   256
  9
$DIMSCALE
 40
1.0
  9
$DIMASZ
 40
0.1875
  9
$DIMEXO
 40
0.0625
  9
$DIMDLI
 40
0.8359999999999999
  9
$DIMRND
 40
0.0
  9
$DIMDLE
 40
0.0
  9
$DIMEXE
 40
0.125
  9
$DIMTP
 40
0.0
  9
$DIMTM
 40
0.0
  9
$DIMTXT
 40
0.15625
  9
$DIMCEN
 40
0.198
  9
$DIMTSZ
 40
0.0
  9
$DIMTOL
 70
     0
  9
$DIMLIM
 70
     0
  9
$DIMTIH
 70
     1
  9
$DIMTOH
 70
     1
  9
$DIMSE1
 70
     0
  9
$DIMSE2
 70
     0
  9
$DIMTAD
 70
     0
  9
$DIMZIN
 70
     0
  9
$DIMBLK
  1

  9
$DIMASO
 70
     1
  9
$DIMSHO
 70
     1
  9
$DIMPOST
  1

  9
$DIMAPOST
  1

  9
$DIMALT
 70
     0
  9
$DIMALTD
 70
     2
  9
$DIMALTF
 40
25.399999999999999
  9
$DIMLFAC
 40
1.0
  9
$DIMTOFL
 70
     0
  9
$DIMTVP
 40
0.0
  9
$DIMTIX
 70
     0
  9
$DIMSOXD
 70
     0
  9
$DIMSAH
 70
     0
  9
$DIMBLK1
  1

  9
$DIMBLK2
  1

  9
$DIMSTYLE
  2
STANDARD
  9
$DIMCLRD
 70
     0
  9
$DIMCLRE
 70
     0
  9
$DIMCLRT
 70
     0
  9
$DIMTFAC
 40
1.0
  9
$DIMGAP
 40
0.09
  9
$LUNITS
 70
     2
  9
$LUPREC
 70
     4
  9
$SKETCHINC
 40
0.1
  9
$FILLETRAD
 40
0.0
  9
$AUNITS
 70
     0
  9
$AUPREC
 70
     0
  9
$MENU
  1
.
  9
$ELEVATION
 40
0.0
  9
$PELEVATION
 40
0.0
  9
$THICKNESS
 40
0.0
  9
$LIMCHECK
 70
     0
  9
$BLIPMODE
 70
     0
  9
$CHAMFERA
 40
0.0
  9
$CHAMFERB
 40
0.0
  9
$SKPOLY
 70
     0
  9
$TDCREATE
 40
2457297.4561515972
  9
$TDUPDATE
 40
2457301.7393774772
  9
$TDINDWG
 40
0.2581769097
  9
$TDUSRTIMER
 40
0.2581769097
  9
$USRTIMER
 70
     1
  9
$ANGBASE
 50
0.0
  9
$ANGDIR
 70
     0
  9
$PDMODE
 70
     0
  9
$PDSIZE
 40
0.3125
  9
$PLINEWID
 40
0.0
  9
$COORDS
 70
     1
  9
$SPLFRAME
 70
     0
  9
$SPLINETYPE
 70
     6
  9
$SPLINESEGS
 70
     8
  9
$ATTDIA
 70
     0
  9
$ATTREQ
 70
     1
  9
$HANDLING
 70
     1
  9
$HANDSEED
  5
19B7
  9
$SURFTAB1
 70
     6
  9
$SURFTAB2
 70
     6
  9
$SURFTYPE
 70
     6
  9
$SURFU
 70
     6
  9
$SURFV
 70
     6
  9
$UCSNAME
  2

  9
$UCSORG
 10
0.0
 20
0.0
 30
0.0
  9
$UCSXDIR
 10
1.0
 20
0.0
 30
0.0
  9
$UCSYDIR
 10
0.0
 20
1.0
 30
0.0
  9
$PUCSNAME
  2

  9
$PUCSORG
 10
0.0
 20
0.0
 30
0.0
  9
$PUCSXDIR
 10
1.0
 20
0.0
 30
0.0
  9
$PUCSYDIR
 10
0.0
 20
1.0
 30
0.0
  9
$USERI1
 70
     0
  9
$USERI2
 70
     0
  9
$USERI3
 70
     0
  9
$USERI4
 70
     0
  9
$USERI5
 70
     0
  9
$USERR1
 40
0.0
  9
$USERR2
 40
0.0
  9
$USERR3
 40
0.0
  9
$USERR4
 40
0.0
  9
$USERR5
 40
0.0
  9
$WORLDVIEW
 70
     1
  9
$SHADEDGE
 70
     3
  9
$SHADEDIF
 70
    70
  9
$TILEMODE
 70
     1
  9
$MAXACTVP
 70
    64
  9
$PLIMCHECK
 70
     0
  9
$PEXTMIN
 10
1.0000000000000000E+020
 20
1.0000000000000000E+020
 30
1.0000000000000000E+020
  9
$PEXTMAX
 10
-1.0000000000000000E+020
 20
-1.0000000000000000E+020
 30
-1.0000000000000000E+020
  9
$PLIMMIN
 10
0.0
 20
0.0
  9
$PLIMMAX
 10
12.0
 20
9.0
  9
$UNITMODE
 70
     0
  9
$VISRETAIN
 70
     1
  9
$PLINEGEN
 70
     0
  9
$PSLTSCALE
 70
     1
  0
ENDSEC
  0
SECTION
  2
TABLES
  0
TABLE
  2
VPORT
 70
     1
  0
VPORT
  2
*ACTIVE
 70
     0
 10
0.0
 20
0.0
 11
1.0
 21
1.0
 12
7.3256806598358528
 22
7.8546227000858897
 13
0.0
 23
0.0
 14
1.0
 24
1.0
 15
0.0
 25
0.0
 16
0.0
 26
0.0
 36
1.0
 17
0.0
 27
0.0
 37
0.0
 40
37.611109125091168
 41
2.2293364377182772
 42
50.0
 43
0.0
 44
0.0
 50
0.0
 51
0.0
 71
     0
 72
   100
 73
     1
 74
     1
 75
     0
 76
     0
 77
     0
 78
     0
  0
ENDTAB
  0
TABLE
  2
LTYPE
 70
     1
  0
LTYPE
  2
CONTINUOUS
 70
     0
  3
Solid line
 72
    65
 73
     0
 40
0.0
  0
ENDTAB
  0
TABLE
  2
LAYER
 70
     2
  0
LAYER
  2
0
 70
     0
 62
     7
  6
CONTINUOUS
  0
LAYER
  2
DEFPOINTS
 70
     0
 62
     7
  6
CONTINUOUS
  0
ENDTAB
  0
TABLE
  2
STYLE
 70
     1
  0
STYLE
  2
STANDARD
 70
     0
 40
0.0
 41
0.8
 50
0.0
 71
     0
 42
0.2
  3
txt
  4

  0
ENDTAB
  0
TABLE
  2
VIEW
 70
     0
  0
ENDTAB
  0
TABLE
  2
UCS
 70
     0
  0
ENDTAB
  0
TABLE
  2
APPID
 70
     5
  0
APPID
  2
ACAD
 70
     0
  0
APPID
  2
ACAD_MLEADERVER
 70
     0
  0
APPID
  2
ACAD_NAV_VCDISPLAY
 70
     0
  0
APPID
  2
ACAD_EXEMPT_FROM_CAD_STANDARDS
 70
     0
  0
APPID
  2
ACDBATTR
 70
     0
  0
ENDTAB
  0
TABLE
  2
DIMSTYLE
 70
     1
  0
DIMSTYLE
  2
STANDARD
 70
     0
  3

  4

  5

  6

  7

 40
1.0
 41
0.1875
 42
0.0625
 43
0.38
 44
0.125
 45
0.0
 46
0.0
 47
1.5
 48
1.5
140
0.15625
141
0.09
142
0.0
143
25.399999999999999
144
1.0
145
0.0
146
1.0
147
0.09
 71
     0
 72
     0
 73
     1
 74
     1
 75
     0
 76
     0
 77
     0
 78
     4
170
     0
171
     2
172
     0
173
     0
174
     0
175
     0
176
     0
177
     0
178
     0
  0
ENDTAB
  0
ENDSEC
  0
SECTION
  2
BLOCKS
  0
BLOCK
  8
0
  2
$MODEL_SPACE
 70
     0
 10
0.0
 20
0.0
 30
0.0
  3
$MODEL_SPACE
  1

  0
ENDBLK
  5
21
  8
0
  0
BLOCK
 67
     1
  8
0
  2
$PAPER_SPACE
 70
     0
 10
0.0
 20
0.0
 30
0.0
  3
$PAPER_SPACE
  1

  0
ENDBLK
  5
1D
 67
     1
  8
0
  0
ENDSEC
  0
SECTION
  2
ENTITIES
  0
LINE
  5
14A2
  8
0
 10
5.1906120634999997
 20
23.5672823642
 30
0.0
 11
5.8806110873000002
 21
23.5672823642
 31
0.0
  0
ARC
  5
14A3
  8
0
 10
5.8806110872882478
 20
23.53728236420568
 30
0.0
 40
0.0300000000101992
 50
295.56465788896082
 51
90.001864382221243
  0
ARC
  5
14A4
  8
0
 10
5.9000299096059514
 20
23.496687914568749
 30
0.0
 40
0.015000000006827
 50
115.56465807748791
 51
241.2279459806212
  0
ARC
  5
14A7
  8
0
 10
5.8948297476000011
 20
23.0799855474
 30
0.0
 40
0.0150000000000008
 50
145.33846613316621
 51
237.43891929138101
  0
ARC
  5
14A8
  8
0
 10
5.8706110872996637
 20
23.042058558399891
 30
0.0
 40
0.030000000000273
 50
269.9997091290669
 51
57.439324290171548
  0
LINE
  5
14A9
  8
0
 10
5.8706110873000004
 20
23.0120585584
 30
0.0
 11
5.8613081138908001
 21
23.012058558380222
 31
0.0
  0
ARC
  5
14AA
  8
0
 10
5.8613088841878058
 20
22.997058558437921
 30
0.0
 40
0.0149999999620831
 50
90.002942317835434
 51
161.3018647710162
  0
LINE
  5
14AB
  8
0
 10
5.847100476634802
 20
23.00186700452441
 30
0.0
 11
5.798937510885664
 21
22.777259823516289
 31
0.0
  0
ARC
  5
14AC
  8
0
 10
5.7491683214228031
 20
22.782058558739571
 30
0.0
 40
0.0500000007066597
 50
269.99305710057098
 51
354.49254647063492
  0
LINE
  5
14AD
  8
0
 10
5.7491683221000001
 20
22.732058558399999
 30
0.0
 11
5.7356110872999988
 21
22.732058558399999
 31
0.0
  0
LINE
  5
14AE
  8
0
 10
5.7356110872999988
 20
22.732058558399999
 30
0.0
 11
5.7346008821556627
 21
22.722058558400011
 31
0.0
  0
LINE
  5
14AF
  8
0
 10
5.7346008821556627
 20
22.722058558400011
 30
0.0
 11
5.7517244057000001
 21
22.722040865515961
 31
0.0
  0
ARC
  5
14B0
  8
0
 10
5.7517616477467879
 20
22.677081316079502
 30
0.0
 40
0.0449595648610932
 50
12.7588126821971
 51
90.047460698341624
  0
ARC
  5
14B2
  8
0
 10
6.1256110872635361
 20
22.202058558392601
 30
0.0
 40
0.0600000000341542
 50
269.99786767689221
 51
66.178153217471959
  0
ARC
  5
14C8
  8
0
 10
5.1906110873117521
 20
23.53728236420568
 30
0.0
 40
0.0300000000101992
 50
89.998135617778786
 51
244.4353421110392
  0
ARC
  5
14C9
  8
0
 10
5.1711922649940494
 20
23.496687914568749
 30
0.0
 40
0.015000000006827
 50
298.7720540193788
 51
64.435341922512137
  0
ARC
  5
14CC
  8
0
 10
5.1763924269999988
 20
23.0799855474
 30
0.0
 40
0.0150000000000008
 50
302.5610807086191
 51
34.661533866833821
  0
ARC
  5
14CD
  8
0
 10
5.2006110873003362
 20
23.042058558399891
 30
0.0
 40
0.030000000000273
 50
122.5606757098284
 51
270.00029087093321
  0
LINE
  5
14CE
  8
0
 10
5.2006110873000004
 20
23.0120585584
 30
0.0
 11
5.2099140607091989
 21
23.012058558380222
 31
0.0
  0
ARC
  5
14CF
  8
0
 10
5.2099132904121941
 20
22.997058558437921
 30
0.0
 40
0.0149999999620831
 50
18.698135228983791
 51
89.997057682164538
  0
LINE
  5
14D0
  8
0
 10
5.224121697965197
 20
23.00186700452441
 30
0.0
 11
5.272284663714335
 21
22.777259823516289
 31
0.0
  0
ARC
  5
14D1
  8
0
 10
5.3220538531771959
 20
22.782058558739571
 30
0.0
 40
0.0500000007066597
 50
185.50745352936499
 51
270.00694289942902
  0
LINE
  5
14D2
  8
0
 10
5.3220538524999998
 20
22.732058558399999
 30
0.0
 11
5.3356110873000011
 21
22.732058558399999
 31
0.0
  0
LINE
  5
14D3
  8
0
 10
5.3356110873000011
 20
22.732058558399999
 30
0.0
 11
5.3366212924443373
 21
22.722058558400011
 31
0.0
  0
LINE
  5
14D4
  8
0
 10
5.7345972672825312
 20
22.722040865515961
 30
0.0
 11
5.3194977688999998
 21
22.722040865515961
 31
0.0
  0
ARC
  5
14D5
  8
0
 10
5.319460526853212
 20
22.677081316079502
 30
0.0
 40
0.0449595648610932
 50
89.952539301658433
 51
167.24118731780291
  0
ARC
  5
14D7
  8
0
 10
4.9456110873364629
 20
22.202058558392601
 30
0.0
 40
0.0600000000341542
 50
113.8218467825281
 51
270.00213232310779
  0
LINE
  5
14D8
  8
0
 10
-2.95567255415
 20
22.022811785750001
 30
0.0
 11
-2.5947925257999991
 21
22.0347619651
 31
0.0
  0
ARC
  5
14D9
  8
0
 10
5.87797362044821
 20
-301.56956031039721
 30
0.0
 40
323.71522232471563
 50
90.748144384750944
 51
91.499798317076198
  0
ARC
  5
14DA
  8
0
 10
5.6217171975202671
 20
-324.64798649794727
 30
0.0
 40
346.78878334502139
 50
89.794785788628545
 51
90.656022956763834
  0
ARC
  5
14DB
  8
0
 10
4.670963073593474
 20
22.824126455421471
 30
0.0
 40
0.6199999999414971
 50
293.82184666644253
 51
347.22313496555768
  0
ARC
  5
14DC
  8
0
 10
6.4002591014285652
 20
22.824126455701421
 30
0.0
 40
0.6200000003680608
 50
192.77686505203161
 51
246.17815329959879
  0
ARC
  5
14DD
  8
0
 10
5.5999909937839147
 20
23.37288357549188
 30
0.0
 40
0.5000000005526536
 50
183.41115470610791
 51
214.66200701218619
  0
ARC
  5
14DE
  8
0
 10
5.2506110871056153
 20
23.352058558552152
 30
0.0
 40
0.1499999997562889
 50
118.7720537464855
 51
183.41124415010589
  0
ARC
  5
14DF
  8
0
 10
5.8206110871753589
 20
23.352058558371802
 30
0.0
 40
0.1500000001227435
 50
356.5888836563862
 51
61.227946133710013
  0
ARC
  5
14E9
  8
0
 10
5.4712311819799142
 20
23.372883574906449
 30
0.0
 40
0.4999999993560535
 50
325.33799297456278
 51
356.58884535292373
  0
ARC
  5
14EA
  8
0
 10
5.5356067205349753
 20
23.232069788650961
 30
0.0
 40
0.459988769769771
 50
47.502966666694128
 51
132.49749594950299
  0
LINE
  5
14EB
  8
0
 10
5.8463530685991518
 20
23.5712251741
 30
0.0
 11
5.8564926197568923
 21
23.567282365096371
 31
0.0
  0
LINE
  5
14EC
  8
0
 10
5.224857634080716
 20
23.571222665068291
 30
0.0
 11
5.2147295549431059
 21
23.567282365096371
 31
0.0
  0
ARC
  5
1506
  8
0
 10
5.8553401238664629
 20
-262.8988336238985
 30
0.0
 40
285.03919005458317
 50
88.969256741962141
 51
89.797289813414409
  0
ARC
  5
1507
  8
0
 10
6.04448947716911
 20
-255.42133640441139
 30
0.0
 40
277.5595093686066
 50
88.355712041121365
 51
88.984488902048923
  0
ARC
  5
1508
  8
0
 10
14.01709995641883
 20
21.891944466882808
 30
0.0
 40
0.1321956047161527
 50
33.157713952695111
 51
93.571390334904933
  0
ARC
  5
1509
  8
0
 10
15.05113963464184
 20
22.54758929679107
 30
0.0
 40
1.092198886227856
 50
212.2827479869479
 51
251.851246268164
  0
ARC
  5
150A
  8
0
 10
14.651577308025249
 20
21.350594714687539
 30
0.0
 40
0.1698418798315323
 50
3.8154484612134971
 51
69.543804004256415
  0
ARC
  5
150B
  8
0
 10
15.040966580619919
 20
21.367685897942248
 30
0.0
 40
0.2200000253247549
 50
181.5079401144682
 51
255.6439855786839
  0
ARC
  5
150C
  8
0
 10
14.73847369490362
 20
20.18578432991729
 30
0.0
 40
0.999997213364322
 50
32.403019707737727
 51
75.644035349891453
  0
ARC
  5
150D
  8
0
 10
15.371696058354461
 20
20.58768603796036
 30
0.0
 40
0.2500001837033618
 50
295.17002704317417
 51
32.403217421756807
  0
ARC
  5
150E
  8
0
 10
15.561151230352079
 20
20.200687078604009
 30
0.0
 40
0.1809600002046411
 50
117.3468817234411
 51
177.8032280954495
  0
ARC
  5
150F
  8
0
 10
15.10095312923219
 20
20.230548795312259
 30
0.0
 40
0.2803101175948539
 50
338.77734976156222
 51
355.30891046433578
  0
ARC
  5
1510
  8
0
 10
16.854754589353028
 20
19.446010212586849
 30
0.0
 40
1.6413847203125651
 50
155.40799946276141
 51
170.40228455951191
  0
ARC
  5
1511
  8
0
 10
15.112653412484111
 20
19.737714505091208
 30
0.0
 40
0.12499999591726
 50
270.05848709271203
 51
351.70604061608168
  0
LINE
  5
1512
  8
0
 10
15.112781011496139
 20
19.6127145743
 30
0.0
 11
15.024858340092131
 21
19.612714312663851
 31
0.0
  0
ARC
  5
1513
  8
0
 10
14.959023948584621
 20
19.552859977031641
 30
0.0
 40
0.0889758877400949
 50
0.6724236035043596
 51
42.276018436612461
  0
LINE
  5
1514
  8
0
 10
15.0479937089
 20
19.55390417459963
 30
0.0
 11
15.2031895589
 21
9.2355247022999993
 31
0.0
  0
ARC
  5
1515
  8
0
 10
14.94326009210946
 20
9.2294290375977024
 30
0.0
 40
0.2600009323717444
 50
312.46028894216192
 51
1.343410043553436
  0
ARC
  5
1516
  8
0
 10
15.380908061119319
 20
8.8178780169363584
 30
0.0
 40
0.3420447256724508
 50
140.0274556640943
 51
188.9066471721807
  0
ARC
  5
1517
  8
0
 10
14.75995045572173
 20
8.7310681633804919
 30
0.0
 40
0.2850545836211835
 50
322.5801211658366
 51
6.8204823999107962
  0
ARC
  5
1518
  8
0
 10
15.23727971986289
 20
8.2620307675756894
 30
0.0
 40
0.3879192881955295
 50
130.30689231270611
 51
158.66385743837779
  0
ARC
  5
1519
  8
0
 10
14.69912103798616
 20
8.4726858498952371
 30
0.0
 40
0.1899998691952477
 50
269.99998390103138
 51
338.53853406283758
  0
LINE
  5
151A
  8
0
 10
14.699120984599981
 20
8.2826859806999966
 30
0.0
 11
12.937491681239941
 21
8.2826859807000002
 31
0.0
  0
ARC
  5
151B
  8
0
 10
9.1211161866444659
 20
9.5541367918527467
 30
0.0
 40
4.022599791295411
 50
316.11771560922608
 51
341.57416341005268
  0
ARC
  5
151C
  8
0
 10
6.4758659356508703
 20
11.619945186461599
 30
0.0
 40
7.3692445454258042
 50
296.26475125316563
 51
318.79848718023999
  0
ARC
  5
151D
  8
0
 10
13.988248639685059
 20
-3.6544036399257398
 30
0.0
 40
9.6525659412487368
 50
116.1316819680044
 51
120.4822908702328
  0
ARC
  5
151E
  8
0
 10
9.204360410823698
 20
4.4731879040159814
 30
0.0
 40
0.221589648847637
 50
120.5070916152836
 51
180.62455056473181
  0
LINE
  5
151F
  8
0
 10
8.9827839264988096
 20
4.4707725219257952
 30
0.0
 11
9.1869650646000007
 21
-3.6623144212000001
 31
0.0
  0
ARC
  5
1520
  8
0
 10
9.3498156223976245
 20
-3.6604915276470762
 30
0.0
 40
0.16286075990214
 50
180.64132261265871
 51
274.98918770113818
  0
ARC
  5
1521
  8
0
 10
9.3920188637647808
 20
-4.0276279830220281
 30
0.0
 40
0.2068024668366063
 50
7.4492484873990961
 51
97.792531503377035
  0
ARC
  5
1522
  8
0
 10
9.706246207612315
 20
-3.9873110273738339
 30
0.0
 40
0.110003657786331
 50
186.9750184466379
 51
263.01908996171841
  0
LINE
  5
1523
  8
0
 10
9.6928735323329338
 20
-4.0964988302069711
 30
0.0
 11
9.8287131079497936
 21
-4.1131292697080601
 31
0.0
  0
ARC
  5
1524
  8
0
 10
9.8153463283232334
 20
-4.2223142402593794
 30
0.0
 40
0.109999669374229
 50
15.03820196778333
 51
83.020396823927143
  0
ARC
  5
1525
  8
0
 10
10.88732435070002
 20
-3.934318788899986
 30
0.0
 40
0.9999905380000264
 50
195.03784845810031
 51
225.3797515670995
  0
ARC
  5
1526
  8
0
 10
10.009507518709549
 20
-4.808905611805554
 30
0.0
 40
0.2393338065731895
 50
2.513384391751305
 51
42.866619939984311
  0
LINE
  5
1527
  8
0
 10
10.2486110873
 20
-4.7984101624999997
 30
0.0
 11
10.2486110873
 21
-4.8532620509999997
 31
0.0
  0
ARC
  5
1528
  8
0
 10
10.37023135541091
 20
-4.8448481696337549
 30
0.0
 40
0.1219109634734104
 50
183.9575064876764
 51
247.85679256826319
  0
ARC
  5
1529
  8
0
 10
10.03402934430169
 20
-5.8413140193111364
 30
0.0
 40
0.9300000000268981
 50
21.389483327051021
 51
71.814298975321108
  0
ARC
  5
152A
  8
0
 10
10.51878794082387
 20
-5.6855523113578084
 30
0.0
 40
0.4230170490103525
 50
355.6939653897731
 51
25.695426961719811
  0
LINE
  5
152B
  8
0
 10
10.9406109104
 20
-5.7173140192999989
 30
0.0
 11
0.1306113212
 21
-5.7173140192999989
 31
0.0
  0
ARC
  5
152C
  8
0
 10
0.7955277583006282
 20
-5.7314618275450613
 30
0.0
 40
0.665066935582226
 50
159.82956817928101
 51
178.7810687790176
  0
ARC
  5
152D
  8
0
 10
1.0371928306213849
 20
-5.8413140196528088
 30
0.0
 40
0.9300000004523361
 50
108.1857010370192
 51
158.61051666060811
  0
ARC
  5
152E
  8
0
 10
0.7011442284516476
 20
-4.8449592486399373
 30
0.0
 40
0.1217502949709601
 50
292.09604090228009
 51
356.08966011372121
  0
LINE
  5
152F
  8
0
 10
0.8226110872999997
 20
-4.8532620509999997
 30
0.0
 11
0.8226110872999999
 21
-4.7984101624999989
 31
0.0
  0
ARC
  5
1530
  8
0
 10
1.0617128499727091
 20
-4.8089052083488362
 30
0.0
 40
0.2393319847002609
 50
137.1337016350279
 51
177.48669314330741
  0
ARC
  5
1531
  8
0
 10
0.1838934974336236
 20
-3.93431698463846
 30
0.0
 40
0.9999951845301611
 50
314.62035708231269
 51
344.96211601967173
  0
ARC
  5
1532
  8
0
 10
1.255874881999999
 20
-4.2223120716999993
 30
0.0
 40
0.1099973996999996
 50
96.979241831399875
 51
164.96270146790459
  0
LINE
  5
1533
  8
0
 10
1.2425090708999991
 20
-4.113129269199999
 30
0.0
 11
1.378348642267063
 21
-4.0964988302069711
 31
0.0
  0
ARC
  5
1534
  8
0
 10
1.364977257123682
 20
-3.9873136757609151
 30
0.0
 40
0.1100008722353419
 50
276.98041068833982
 51
352.94906236300528
  0
ARC
  5
1535
  8
0
 10
1.6755674945690351
 20
-4.0257100219442501
 30
0.0
 40
0.2029526857930735
 50
89.724697231636696
 51
172.95456999799671
  0
LINE
  5
1536
  8
0
 10
1.6765426662435521
 20
-3.822759678976253
 30
0.0
 11
1.745167535564327
 21
-3.822759678976253
 31
0.0
  0
ARC
  5
1537
  8
0
 10
1.7173380291516791
 20
-3.6581235294388499
 30
0.0
 40
0.1669716837121609
 50
279.59437881602122
 51
358.56189630743432
  0
LINE
  5
1538
  8
0
 10
1.8842568575999989
 20
-3.662314123799999
 30
0.0
 11
2.088439008973594
 21
4.470802825548172
 31
0.0
  0
ARC
  5
1539
  8
0
 10
1.866858608327838
 20
4.4731856261830334
 30
0.0
 40
0.2215932121911659
 50
359.38388432754761
 51
59.492529427225271
  0
ARC
  5
153A
  8
0
 10
7.3292439877005391
 20
15.80738123014391
 30
0.0
 40
12.35828716828895
 50
234.50835846895399
 51
244.20987890324849
  0
ARC
  5
153B
  8
0
 10
3.3493741794745908
 20
10.362851243520391
 30
0.0
 40
5.6152615951589677
 50
201.72604684481061
 51
235.31857933837759
  0
LINE
  5
1545
  8
0
 10
12.9493912363
 20
8.2826859804000001
 30
0.0
 11
-3.6280854301999992
 21
8.2826859807000002
 31
0.0
  0
ARC
  5
1546
  8
0
 10
-3.616207769904864
 20
8.4898259306319552
 30
0.0
 40
0.2074802103138983
 50
204.6869939902675
 51
266.7181830538027
  0
ARC
  5
1547
  8
0
 10
-4.3507937001737149
 20
8.1301888064718622
 30
0.0
 40
0.6104994831065357
 50
26.56054956511295
 51
44.468532724496839
  0
ARC
  5
1548
  8
0
 10
-3.6777924277724621
 20
8.7296990201773106
 30
0.0
 40
0.2930099678820964
 50
188.0643943150252
 51
215.9076612827715
  0
LINE
  5
154A
  8
0
 10
-3.9679048282
 20
8.6885938332000006
 30
0.0
 11
-3.9782949336999991
 21
8.8877306512499992
 31
0.0
  0
ARC
  5
154B
  8
0
 10
-4.2745152263750681
 20
8.8417877676855792
 30
0.0
 40
0.2997619227699154
 50
8.8161611185718964
 51
40.788931655670183
  0
ARC
  5
154C
  8
0
 10
-3.8720397052235249
 20
9.2294277476705862
 30
0.0
 40
0.2599987738860283
 50
184.19714258378431
 51
227.5398097998808
  0
LINE
  5
154D
  8
0
 10
-4.1313411957999984
 20
9.2103988378999926
 30
0.0
 11
-3.9767714281999988
 21
19.553904174199999
 31
0.0
  0
ARC
  5
154E
  8
0
 10
-3.8893588041007918
 20
19.5531554797378
 30
0.0
 40
0.0874158303472951
 50
137.0525335322701
 51
179.50927015018999
  0
LINE
  5
154F
  8
0
 10
15.024858340092131
 20
19.612714312663851
 30
0.0
 11
-4.041531342099999
 21
19.612714548900001
 31
0.0
  0
ARC
  5
1550
  8
0
 10
-4.0367766040316493
 20
19.743092963298611
 30
0.0
 40
0.1304650852726323
 50
190.33935426818971
 51
267.91142001099843
  0
ARC
  5
1551
  8
0
 10
-5.7835191537818131
 20
19.4460151544938
 30
0.0
 40
1.641370595201483
 50
9.5978244764134253
 51
24.592021372654401
  0
ARC
  5
1552
  8
0
 10
-4.0297310450381714
 20
20.230548869726729
 30
0.0
 40
0.2803100454735577
 50
184.6912086302612
 51
201.22269100596839
  0
ARC
  5
1553
  8
0
 10
-4.4899290523614717
 20
20.20068708075781
 30
0.0
 40
0.1809599967339699
 50
2.196771264260732
 51
62.653118916852911
  0
ARC
  5
1554
  8
0
 10
-4.3004737271159854
 20
20.587686045133282
 30
0.0
 40
0.2500003440299056
 50
147.59688606959659
 51
244.82998899865251
  0
ARC
  5
1555
  8
0
 10
-3.6672513301336789
 20
20.185783927164579
 30
0.0
 40
0.9999976506676517
 50
104.35596947867219
 51
147.5969688633129
  0
ARC
  5
1556
  8
0
 10
-3.9697442623414951
 20
21.367685859290759
 30
0.0
 40
0.2199998806789624
 50
284.35599522307638
 51
358.49206896356679
  0
ARC
  5
1557
  8
0
 10
-3.5898760919377031
 20
21.357686144177279
 30
0.0
 40
0.1599998924629717
 50
108.14878271747079
 51
178.4921054230829
  0
ARC
  5
1558
  8
0
 10
-4.0402262454989817
 20
22.624965261232891
 30
0.0
 40
1.1849761432839589
 50
289.75458472787028
 51
326.11353016073349
  0
ARC
  5
1559
  8
0
 10
-2.9494794038143248
 20
21.89598441865602
 30
0.0
 40
0.1269784869774108
 50
92.795609081428026
 51
147.46094554774049
  0
ARC
  5
155A
  8
0
 10
2.0037192110962239
 20
4.7825515562155649
 30
0.0
 40
0.1209385334128185
 50
258.38634682234459
 51
303.11413569901072
  0
ARC
  5
155B
  8
0
 10
3.0230266741739888
 20
3.6364306730177431
 30
0.0
 40
1.4143269711260189
 50
103.1211790642716
 51
132.37551820902709
  0
ARC
  5
155C
  8
0
 10
2.6906417391829338
 20
5.0538343735661906
 30
0.0
 40
0.0415717748852044
 50
285.79646222227541
 51
13.0487714094364
  0
LINE
  5
155D
  8
0
 10
2.731140057199998
 20
5.0632204645999916
 30
0.0
 11
2.7055066435000001
 21
5.1385108082999986
 31
0.0
  0
ARC
  5
155E
  8
0
 10
2.741664716665305
 20
5.1323600312245414
 30
0.0
 40
0.0366774905583731
 50
75.513557192347591
 51
170.34594132478611
  0
ARC
  5
1562
  8
0
 10
6.6071726302900409
 20
7.7244202255093688
 30
0.0
 40
4.1974587332986504
 50
228.66538925082239
 51
248.4003240976806
  0
ARC
  5
1563
  8
0
 10
5.542280449997655
 20
5.2861381817660211
 30
0.0
 40
1.541169509265524
 50
251.84256119536661
 51
294.0927547988436
  0
ARC
  5
1564
  8
0
 10
3.9208888861100721
 20
8.4993977997576664
 30
0.0
 40
5.13914627374582
 50
295.97106030286608
 51
310.17508917827638
  0
ARC
  5
1565
  8
0
 10
2.9476742158668841
 20
4.934384011085716
 30
0.0
 40
0.2941624074855392
 50
354.97859988249581
 51
42.582148240327747
  0
LINE
  5
1567
  8
0
 10
3.8349384913999991
 20
4.5726940798999989
 30
0.0
 11
3.4122689201999989
 21
4.7866184066999997
 31
0.0
  0
LINE
  5
1568
  8
0
 10
3.4122689201999989
 20
4.7866184066999997
 30
0.0
 11
3.3679444100379761
 21
4.8069040378633323
 31
0.0
  0
ARC
  5
1569
  8
0
 10
3.0596835253096271
 20
4.5517932576586002
 30
0.0
 40
0.4001336242582683
 50
39.610552134457393
 51
63.101640158187017
  0
ARC
  5
156A
  8
0
 10
2.62846130483259
 20
1.200509681997991
 30
0.0
 40
3.9692487550087652
 50
82.241985539692905
 51
88.233198971260606
  0
LINE
  5
156B
  8
0
 10
3.3679444100379761
 20
4.8069040378633323
 30
0.0
 11
3.098945416917374
 21
-3.6623141732677271
 31
0.0
  0
LINE
  5
1575
  8
0
 10
7.7032777178999989
 20
4.8069054806000002
 30
0.0
 11
7.9722768872517831
 21
-3.6623143717322879
 31
0.0
  0
ARC
  5
1576
  8
0
 10
8.0021401562723202
 20
4.5635474639795159
 30
0.0
 40
0.3854113144723498
 50
116.4428625294896
 51
140.84472697551391
  0
LINE
  5
1578
  8
0
 10
7.2362886123000001
 20
4.5726972080000001
 30
0.0
 11
7.7032773973999991
 21
4.8069052336000002
 31
0.0
  0
ARC
  5
1579
  8
0
 10
8.1236418032574562
 20
4.9343520950060578
 30
0.0
 40
0.2942531045797276
 50
137.4256403040275
 51
185.0136102925072
  0
ARC
  5
157A
  8
0
 10
8.4427111751871848
 20
1.201106394373995
 30
0.0
 40
3.968650796346834
 50
91.766349420733661
 51
97.758466456219764
  0
ARC
  5
157B
  8
0
 10
8.3327512686384217
 20
5.1364910887717832
 30
0.0
 40
0.0337299741995489
 50
317.93212561011802
 51
111.51213617754421
  0
ARC
  5
157C
  8
0
 10
8.4058538191131191
 20
5.0687153509761771
 30
0.0
 40
0.0659617682255737
 50
136.77335255905331
 51
236.3087979583953
  0
ARC
  5
157D
  8
0
 10
7.8941394387952339
 20
3.231553743397841
 30
0.0
 40
1.844521860148947
 50
63.250436236785227
 51
75.073086763607392
  0
ARC
  5
157E
  8
0
 10
10.040648238202889
 20
6.4085237207820223
 30
0.0
 40
2.0180980405771969
 50
229.2909235112138
 51
237.5211061820811
  0
LINE
  5
1580
  8
0
 10
8.9569520119000448
 20
4.7060777772999698
 30
0.0
 11
9.0215928453999972
 21
4.6720888540000001
 31
0.0
  0
ARC
  5
1581
  8
0
 10
9.0663238973425671
 20
4.7485653963228183
 30
0.0
 40
0.0885975650542527
 50
239.67667813605641
 51
285.9272507894226
  0
ARC
  5
1592
  8
0
 10
-4.818462458592216
 20
-258.73930069205471
 30
0.0
 40
254.0035385456145
 50
88.496566681090442
 51
88.727433944543165
  0
ARC
  5
1593
  8
0
 10
1.9262573868542461
 20
19.728655632860029
 30
0.0
 40
24.551989274436099
 50
269.81221772296391
 51
271.17929320744332
  0
ARC
  5
1594
  8
0
 10
-135.6309219602783
 20
6003.5360328980851
 30
0.0
 40
6009.9401856790628
 50
271.316334846431
 51
271.32260828142319
  0
LINE
  5
1595
  8
0
 10
3.089430699348696
 20
-4.8029804398001943
 30
0.0
 11
7.9817914752999988
 21
-4.8029804397999989
 31
0.0
  0
ARC
  5
1596
  8
0
 10
11.57748007146153
 20
137.01758927793509
 30
0.0
 40
141.86614455726749
 50
268.54764612291928
 51
268.81341074882471
  0
ARC
  5
1597
  8
0
 10
9.1668076732815855
 20
16.914419986382178
 30
0.0
 40
21.738945584386929
 50
268.61049305614478
 51
270.08445606412999
  0
ARC
  5
1598
  8
0
 10
9.2081882017975492
 20
-4.81297759329959
 30
0.0
 40
0.0148318087485227
 50
230.98715670438591
 51
354.82600619302661
  0
ARC
  5
159A
  8
0
 10
8.9208324847822471
 20
47.746867259523128
 30
0.0
 40
52.562050715080389
 50
270.32933841753783
 51
271.4475120808757
  0
ARC
  5
15AB
  8
0
 10
2.6669217568764911
 20
61.751975053748303
 30
0.0
 40
65.861080567491712
 50
268.87893561034542
 51
269.65570559197101
  0
ARC
  5
15AC
  8
0
 10
2.3061262171881571
 20
-4.0288219147678266
 30
0.0
 40
0.0864786841576864
 50
246.1508064011536
 51
266.89270915927182
  0
LINE
  5
15AD
  8
0
 10
2.3014385644000002
 20
-4.1151734562999991
 30
0.0
 11
2.7803590997000001
 21
-4.1106151355999989
 31
0.0
  0
ARC
  5
15AE
  8
0
 10
3.0172372311489419
 20
-25.713948724599781
 30
0.0
 40
21.60463222104844
 50
90.306409110214872
 51
90.628216624746955
  0
ARC
  5
15AF
  8
0
 10
3.82020578188963
 20
-34.64488670770065
 30
0.0
 40
30.54907255999381
 50
90.922051521883773
 51
91.72294807983819
  0
LINE
  5
15B0
  8
0
 10
3.328605819599455
 20
-4.0997698516000076
 30
0.0
 11
7.7426163551
 21
-4.0997698515999996
 31
0.0
  0
ARC
  5
15B1
  8
0
 10
7.4675783028882776
 20
-25.264257855145541
 30
0.0
 40
21.16627502378223
 50
88.09953211582318
 51
89.255468282455425
  0
ARC
  5
15B2
  8
0
 10
6.4321469306805339
 20
-224.5580617762551
 30
0.0
 40
220.45528244088331
 50
89.392442656196437
 51
89.548455690818273
  0
ARC
  5
15B3
  8
0
 10
8.7760897747407807
 20
-4.074691187864933
 30
0.0
 40
0.0409704987626869
 50
261.1458555297192
 51
305.81062882401432
  0
ARC
  5
15B4
  8
0
 10
8.5021517012847525
 20
54.102559754326897
 30
0.0
 40
58.211238504176201
 50
270.29322643991458
 51
271.1720806252444
  0
LINE
  5
15B5
  8
0
 10
1.8842571202
 20
-3.6623140193000001
 30
0.0
 11
9.1869650646000007
 21
-3.6623144212000001
 31
0.0
  0
ARC
  5
15C6
  8
0
 10
4.0555172532805894
 20
-308.76505316377308
 30
0.0
 40
321.74901146467488
 50
89.106233256646391
 51
89.736429869388871
  0
ARC
  5
15C7
  8
0
 10
5.2285773832742564
 20
-134.17769115292899
 30
0.0
 40
147.1585861061962
 50
89.878883381078495
 51
91.342123832707969
  0
ARC
  5
15C8
  8
0
 10
2.8309293226287329
 20
-48.624024465955763
 30
0.0
 40
61.573754196817468
 50
90.910980316688594
 51
92.941959670674478
  0
ARC
  5
15C9
  8
0
 10
-0.2089617246269308
 20
10.79223222940322
 30
0.0
 40
2.0798300557619651
 50
93.317020367863876
 51
98.422729921874534
  0
ARC
  5
15CA
  8
0
 10
-0.4802646468776007
 20
12.44148615620775
 30
0.0
 40
0.4095009949695743
 50
94.676809609838784
 51
114.4787424169163
  0
ARC
  5
15CB
  8
0
 10
-0.5481362311963505
 20
12.66607670078929
 30
0.0
 40
0.1797195069655021
 50
124.5051059151601
 51
145.75306440339841
  0
ARC
  5
15CC
  8
0
 10
-0.7858200659544125
 20
12.85908514530265
 30
0.0
 40
0.1291757561792116
 50
281.56769298818631
 51
313.62572831193739
  0
ARC
  5
15CD
  8
0
 10
-0.737201401606387
 20
12.18861281681701
 30
0.0
 40
0.544423012732346
 50
92.370415423875372
 51
129.74264534340659
  0
ARC
  5
15CE
  8
0
 10
-0.4072684877607088
 20
12.059286056877619
 30
0.0
 40
0.8888579996556419
 50
154.03592588671299
 51
170.6567439581296
  0
ARC
  5
15CF
  8
0
 10
-0.744909617419447
 20
12.221979333751881
 30
0.0
 40
0.5140694138752878
 50
131.45993072461451
 51
153.86323922086501
  0
LINE
  5
15D0
  8
0
 10
-1.284334391169673
 20
12.20359109708496
 30
0.0
 11
-1.2961764598000001
 21
12.1561720947
 31
0.0
  0
LINE
  5
15D1
  8
0
 10
-1.2961764598000001
 20
12.1561720947
 30
0.0
 11
-1.2961759977
 21
12.145012791799999
 31
0.0
  0
ARC
  5
15D2
  8
0
 10
-1.237084823933797
 20
12.156921238214141
 30
0.0
 40
0.0602861704990209
 50
191.42477804234531
 51
251.5306426558152
  0
ARC
  5
15D3
  8
0
 10
-0.6654867816581712
 20
16.489388159597489
 30
0.0
 40
4.4292134170205353
 50
262.33598542490711
 51
269.78002292185249
  0
ARC
  5
15D4
  8
0
 10
1.5169002202815509
 20
75.503602640101178
 30
0.0
 40
63.48150696926222
 50
268.01452237266301
 51
268.8765558148915
  0
ARC
  5
15E5
  8
0
 10
1.272905338080609
 20
53.999907335212349
 30
0.0
 40
41.977537329003688
 50
268.63405721011412
 51
270.3843229289734
  0
ARC
  5
15F6
  8
0
 10
1.2070911169957561
 20
115.46833019972171
 30
0.0
 40
103.44559912944931
 50
270.19240764030519
 51
270.85104999259892
  0
ARC
  5
15F7
  8
0
 10
1.9514083444695369
 20
69.293287314244154
 30
0.0
 40
57.264624324236117
 50
270.79262462018568
 51
271.04749393112809
  0
ARC
  5
15F8
  8
0
 10
5.4500808893928108
 20
-113.2232806702153
 30
0.0
 40
125.2855063656372
 50
90.34327773008188
 51
91.121335882918785
  0
LINE
  5
15F9
  8
0
 10
4.6992310763000003
 20
12.059989313399999
 30
0.0
 11
6.3719892519999997
 21
12.059988888399999
 31
0.0
  0
ARC
  5
15FB
  8
0
 10
5.3447177792358831
 20
-200.09808576509241
 30
0.0
 40
212.16056166817529
 50
88.906829093682717
 51
89.7225754432055
  0
LINE
  5
15FC
  8
0
 10
9.3923751192999738
 20
12.02386123099998
 30
0.0
 11
10.357053507224281
 21
12.026628574975
 31
0.0
  0
ARC
  5
15FD
  8
0
 10
8.7708056518169393
 20
118.0070723927336
 30
0.0
 40
105.992314127336
 50
270.8575027452809
 51
271.0377210554712
  0
ARC
  5
15FE
  8
0
 10
9.9219046741394212
 20
58.765111580446728
 30
0.0
 40
46.73928759544242
 50
270.94210488519809
 51
272.68574299277373
  0
ARC
  5
15FF
  8
0
 10
12.067166963046541
 20
13.50078682717257
 30
0.0
 40
1.4243288636196889
 50
271.80414672379447
 51
280.7620739920053
  0
ARC
  5
1600
  8
0
 10
12.32043659601532
 20
12.14675648370096
 30
0.0
 40
0.0469938133298489
 50
285.67500793467048
 51
357.87544951108362
  0
LINE
  5
1601
  8
0
 10
12.367398635000001
 20
12.1447827833
 30
0.0
 11
12.367365851709829
 21
12.15643308991822
 31
0.0
  0
LINE
  5
1602
  8
0
 10
12.367366623247261
 20
12.15615890610149
 30
0.0
 11
12.355556566100001
 21
12.2035910972
 31
0.0
  0
ARC
  5
1603
  8
0
 10
11.669979878500399
 20
12.11639835121329
 30
0.0
 40
0.6910991025408235
 50
7.2480570608956008
 51
45.36068499695552
  0
ARC
  5
1604
  8
0
 10
11.81251397285628
 20
12.1935943784265
 30
0.0
 40
0.5380051794195472
 50
50.037619719663859
 51
86.162444751461805
  0
ARC
  5
1605
  8
0
 10
11.8544299813889
 20
12.85162051622765
 30
0.0
 40
0.1213711654575038
 50
213.30319429934241
 51
267.20969181554312
  0
ARC
  5
1606
  8
0
 10
11.64516421895997
 20
12.699550784258371
 30
0.0
 40
0.1375634884950336
 50
38.373806524336729
 51
82.922123990750023
  0
ARC
  5
1607
  8
0
 10
11.461671020736119
 20
11.92063180587499
 30
0.0
 40
0.9371218401837097
 50
77.649426455863747
 51
82.448316683586668
  0
ARC
  5
1608
  8
0
 10
8.4341386101001312
 20
-42.52008779251274
 30
0.0
 40
55.468595155426421
 50
86.959285199259881
 51
89.338703383132028
  0
ARC
  5
1609
  8
0
 10
11.123817224010169
 20
9.2841302727401533
 30
0.0
 40
3.5951733422100731
 50
82.621609839149514
 51
85.969671416562704
  0
LINE
  5
160A
  8
0
 10
12.1577053169
 20
11.977075964100001
 30
0.0
 11
12.15750895404785
 21
12.07932594610616
 31
0.0
  0
LINE
  5
160C
  8
0
 10
-1.0862850834999991
 20
12.0802090656
 30
0.0
 11
-1.086483144799933
 21
11.977074630234609
 31
0.0
  0
ARC
  5
160E
  8
0
 10
-0.9444239955320869
 20
9.7562388737533379
 30
0.0
 40
2.2257312602011372
 50
92.484656861608684
 51
97.337258291143215
  0
ARC
  5
160F
  8
0
 10
-1.219816398451818
 20
11.80578716810272
 30
0.0
 40
0.1609753719457453
 50
93.153279362424385
 51
163.91970455147461
  0
LINE
  5
1610
  8
0
 10
-1.3745661961
 20
11.850090655800001
 30
0.0
 11
-1.5543948474
 21
11.1776859807
 31
0.0
  0
ARC
  5
1611
  8
0
 10
-1.492751244521491
 20
11.16509592762719
 30
0.0
 40
0.0629161601833683
 50
168.45670110143081
 51
262.63681408634488
  0
ARC
  5
1613
  8
0
 10
-1.3876114795367711
 20
10.51902827276796
 30
0.0
 40
0.2639649433445226
 50
92.764663459573171
 51
168.8001400838119
  0
ARC
  5
1614
  8
0
 10
-2.2815688320165459
 20
10.64160815848822
 30
0.0
 40
0.6390107568474228
 50
311.24010511595202
 51
353.5928168637837
  0
ARC
  5
1615
  8
0
 10
-1.621925789370751
 20
9.981415716821326
 30
0.0
 40
0.300261732604949
 50
141.7579687548465
 51
180.14246610621149
  0
ARC
  5
1616
  8
0
 10
-0.6973221214338988
 20
8.7821331735483295
 30
0.0
 40
1.6556767964050201
 50
145.86908891175099
 51
155.2757029312877
  0
ARC
  5
1617
  8
0
 10
-1.2103111624039511
 20
9.1110226770381377
 30
0.0
 40
1.055516476906428
 50
159.85012808983561
 51
183.79667630961279
  0
ARC
  5
1621
  8
0
 10
-2.353138672741562
 20
10.03937873231974
 30
0.0
 40
0.4349327688552235
 50
310.99575556699051
 51
352.24221870194231
  0
LINE
  5
1632
  8
0
 10
-1.4003435007
 20
10.7826859807
 30
0.0
 11
12.470649654900001
 21
10.7826859842
 31
0.0
  0
ARC
  5
1633
  8
0
 10
12.4702749226485
 20
10.53172997346465
 30
0.0
 40
0.2509593266037354
 50
8.8158078428639985
 51
89.705310836903564
  0
ARC
  5
1634
  8
0
 10
13.28961168102197
 20
10.620736768003431
 30
0.0
 40
0.573109823820629
 50
185.0613440726934
 51
226.0867602481224
  0
ARC
  5
1635
  8
0
 10
12.725954149707761
 20
10.01006272813729
 30
0.0
 40
0.2583419317615212
 50
6.2081118148954051
 51
49.968804677657161
  0
ARC
  5
1636
  8
0
 10
13.363023795756209
 20
10.01405238895126
 30
0.0
 40
0.3796001232218467
 50
176.82799259825461
 51
233.85953373391411
  0
ARC
  5
1637
  8
0
 10
12.410594544327671
 20
9.1443467610643232
 30
0.0
 40
0.9228270708657932
 50
7.553050341763079
 51
37.867218135479561
  0
ARC
  5
1638
  8
0
 10
13.02735509074243
 20
9.2561740471633716
 30
0.0
 40
0.2974961217843497
 50
312.60545212226123
 51
1.827527319703641
  0
ARC
  5
1639
  8
0
 10
13.409510035345381
 20
8.8532385784533894
 30
0.0
 40
0.2573424796312627
 50
133.13444067423811
 51
184.99829890714739
  0
ARC
  5
163A
  8
0
 10
12.78544517481946
 20
8.7695080229918307
 30
0.0
 40
0.3748621652952606
 50
317.41304981448371
 51
11.01048753127497
  0
ARC
  5
163B
  8
0
 10
13.49793514698673
 20
8.136709130048926
 30
0.0
 40
0.5791425724713132
 50
138.85125472445239
 51
165.40074080386219
  0
LINE
  5
163C
  8
0
 10
-1.4944890516
 20
11.1026859807
 30
0.0
 11
12.565711226299999
 21
11.1026859807
 31
0.0
  0
ARC
  5
163D
  8
0
 10
12.56578677354803
 20
11.162516387732341
 30
0.0
 40
0.0598304547286965
 50
269.9276532388775
 51
0.1624137651337013
  0
LINE
  5
163F
  8
0
 10
0.4310858034000001
 20
11.922685980700001
 30
0.0
 11
10.6401363837
 21
11.922685980700001
 31
0.0
  0
ARC
  5
1642
  8
0
 10
0.254062390767952
 20
11.907141709678539
 30
0.0
 40
0.128935931174317
 50
23.836159328690201
 51
62.920460294311923
  0
ARC
  5
1643
  8
0
 10
0.4274776298789785
 20
11.9828778663638
 30
0.0
 40
0.0602999337969999
 50
203.07142977700329
 51
273.43046282054581
  0
ARC
  5
1644
  8
0
 10
0.2497125219417915
 20
11.89356346797469
 30
0.0
 40
0.1430234713578845
 50
63.90396413431229
 51
79.556942756312608
  0
ARC
  5
1645
  8
0
 10
1.065660598193428
 20
12.0511210830255
 30
0.0
 40
0.1311633520695621
 50
281.7065551906349
 51
311.94547562322441
  0
LINE
  5
164A
  8
0
 10
1.532656660638779
 20
12.023173666925009
 30
0.0
 11
1.5326815781226619
 21
12.02320148422818
 31
0.0
  0
ARC
  5
164B
  8
0
 10
-0.2215322305865666
 20
39.786392996060137
 30
0.0
 40
27.866765358026171
 50
272.82795578592322
 51
275.0500989921814
  0
LINE
  5
164C
  8
0
 10
0.4272533329
 20
11.922685980700001
 30
0.0
 11
-1.0409135685999991
 21
11.979877649500001
 31
0.0
  0
ARC
  5
164D
  8
0
 10
10.64373012289853
 20
11.982901227968039
 30
0.0
 40
0.0603223919036614
 50
266.58455046193433
 51
336.91457635953208
  0
ARC
  5
164E
  8
0
 10
10.815566682316151
 20
11.908097476710889
 30
0.0
 40
0.1270926101916483
 50
97.804651047779814
 51
156.2672243607141
  0
LINE
  5
164F
  8
0
 10
10.65030364284368
 20
11.92301920797261
 30
0.0
 11
12.111570049699999
 21
11.9799090553
 31
0.0
  0
ARC
  5
1650
  8
0
 10
12.020178462725889
 20
9.8518491659462644
 30
0.0
 40
2.1300110761406561
 50
81.985336429363343
 51
87.525645551451021
  0
ARC
  5
1651
  8
0
 10
12.29948990246382
 20
11.810531148303379
 30
0.0
 40
0.1515574663105309
 50
15.27931490019226
 51
83.305215117658918
  0
LINE
  5
1652
  8
0
 10
12.4457806358
 20
11.8501216101
 30
0.0
 11
12.6256170221
 21
11.17768598032659
 31
0.0
  0
LINE
  5
1653
  8
0
 10
12.6256170221
 20
11.17768598032659
 30
0.0
 11
12.625616987900001
 21
11.1626859862
 31
0.0
  0
LINE
  5
165D
  8
0
 10
8.8381142658999998
 20
12.027934077999999
 30
0.0
 11
9.9267581034182122
 21
11.9530861510333
 31
0.0
  0
ARC
  5
165E
  8
0
 10
9.9789486206000504
 20
11.982685980700129
 30
0.0
 40
0.0600000000001335
 50
209.55972138332081
 51
269.99999999995089
  0
LINE
  5
165F
  8
0
 10
2.4066966377000001
 20
11.1026859807
 30
0.0
 11
2.3787002653424469
 21
10.7826859807
 31
0.0
  0
LINE
  5
1663
  8
0
 10
-1.08874882915
 20
10.7843464758
 30
0.0
 11
-1.0888272096101821
 21
11.1026859807
 31
0.0
  0
LINE
  5
1664
  8
0
 10
8.6645255370000012
 20
11.1026859807
 30
0.0
 11
8.6904160783707827
 21
10.7826859807
 31
0.0
  0
LINE
  5
1665
  8
0
 10
12.15996191570618
 20
10.782685984121599
 30
0.0
 11
12.15932197969039
 21
11.1026859807
 31
0.0
  0
LINE
  5
1667
  8
0
 10
-2.061049799383301
 20
9.7171201350963781
 30
0.0
 11
-1.9454680098999999
 21
19.5539048298
 31
0.0
  0
ARC
  5
1668
  8
0
 10
-1.8192747445360931
 20
19.557119278477241
 30
0.0
 40
0.1262341986289931
 50
153.86973344100599
 51
181.45914700069571
  0
LINE
  5
1669
  8
0
 10
13.132400498499999
 20
9.7189706595000001
 30
0.0
 11
13.016690990500001
 21
19.553904830499999
 31
0.0
  0
ARC
  5
166A
  8
0
 10
12.88357719994991
 20
19.556057352114589
 30
0.0
 40
0.1331703905703922
 50
358.55423438937862
 51
25.17898050487128
  0
LINE
  5
167B
  8
0
 10
-4.0475590990999946
 20
9.0376145447999967
 30
0.0
 11
-2.5165788588999991
 21
9.0376138203003542
 31
0.0
  0
ARC
  5
167C
  8
0
 10
-2.098767779109771
 20
-11.925443115357391
 30
0.0
 40
20.967220913236201
 50
90.277486087244199
 51
91.141801967636098
  0
ARC
  5
167D
  8
0
 10
-2.188060013123283
 20
9.1214189885526586
 30
0.0
 40
0.0808212346993885
 50
261.28028082728741
 51
287.05776098672828
  0
LINE
  5
167E
  8
0
 10
-2.1643522656999989
 20
9.0441531184000006
 30
0.0
 11
13.2356066344
 21
9.0441808538000004
 31
0.0
  0
ARC
  5
167F
  8
0
 10
13.26062257611142
 20
9.1368654050927205
 30
0.0
 40
0.095955750200412
 50
254.9137308204852
 51
276.5304279729487
  0
ARC
  5
1680
  8
0
 10
13.30196794772564
 20
9.3264942974982095
 30
0.0
 40
0.2865831628078554
 50
263.90360022491598
 51
275.63846005158581
  0
ARC
  5
1681
  8
0
 10
13.3342193281468
 20
9.1053048201779454
 30
0.0
 40
0.0641379185753889
 50
266.33996866805501
 51
278.52662561285462
  0
ARC
  5
1682
  8
0
 10
13.581768414708661
 20
15.68986393246843
 30
0.0
 40
6.652252123305419
 50
267.94915814433182
 51
270.05196160159181
  0
LINE
  5
1683
  8
0
 10
13.587746064490631
 20
9.0376144948928516
 30
0.0
 11
15.1187812737
 21
9.0376145448000003
 31
0.0
  0
LINE
  5
16BD
  8
0
 10
5.1844653137769017
 20
23.067343217728158
 30
0.0
 11
5.8867568608230982
 21
23.067343217728158
 31
0.0
  0
ATTDEF
  5
1725
  8
DEFPOINTS
 10
5.532498630129397
 20
-5.7283817288917263
 30
0.0
 40
0.001
  1
K-3826
  3

  2
MODELNUMBER
 70
     0
1001
ACDBATTR
1070
     0
1070
     1
  0
ATTDEF
  5
1726
  8
DEFPOINTS
 10
5.532498630129397
 20
-5.7300483955583932
 30
0.0
 40
0.001
  1
PORTRAIT
  3

  2
TRADENAME
 70
     0
1001
ACDBATTR
1070
     0
1070
     1
  0
ATTDEF
  5
1727
  8
DEFPOINTS
 10
5.532498630129397
 20
-5.7317150622250601
 30
0.0
 40
0.001
  1
TOILET
  3

  2
PRODUCT
 70
     0
1001
ACDBATTR
1070
     0
1070
     1
  0
ATTDEF
  5
1728
  8
DEFPOINTS
 10
5.532498630129397
 20
-5.733381728891727
 30
0.0
 40
0.001
  1
VITREOUS CHINA
  3

  2
MATERIAL
 70
     0
1001
ACDBATTR
1070
     0
1070
     1
  0
ENDSEC
  0
EOF
