  0
SECTION
  2
HEADER
  9
$ACADVER
  1
AC1009
  9
$INSBASE
 10
113.4843010811902
 20
37.526605768899998
 30
0.0
  9
$EXTMIN
 10
96.984301081190253
 20
28.0586378904
 30
0.0
  9
$EXTMAX
 10
129.9843010811903
 20
37.53460299257371
 30
0.0
  9
$LIMMIN
 10
0.0
 20
0.0
  9
$LIMMAX
 10
22.0
 20
17.0
  9
$ORTHOMODE
 70
     0
  9
$REGENMODE
 70
     1
  9
$FILLMODE
 70
     1
  9
$QTEXTMODE
 70
     0
  9
$MIRRTEXT
 70
     0
  9
$DRAGMODE
 70
     2
  9
$LTSCALE
 40
1.2099999999999991
  9
$OSMODE
 70
    37
  9
$ATTMODE
 70
     1
  9
$TEXTSIZE
 40
0.2
  9
$TRACEWID
 40
0.05
  9
$TEXTSTYLE
  7
STANDARD
  9
$CLAYER
  8
0
  9
$CELTYPE
  6
BYLAYER
  9
$CECOLOR
 62
   256
  9
$DIMSCALE
 40
1.0
  9
$DIMASZ
 40
0.1875
  9
$DIMEXO
 40
0.0625
  9
$DIMDLI
 40
0.8359999999999999
  9
$DIMRND
 40
0.0
  9
$DIMDLE
 40
0.0
  9
$DIMEXE
 40
0.125
  9
$DIMTP
 40
0.0
  9
$DIMTM
 40
0.0
  9
$DIMTXT
 40
0.15625
  9
$DIMCEN
 40
0.198
  9
$DIMTSZ
 40
0.0
  9
$DIMTOL
 70
     0
  9
$DIMLIM
 70
     0
  9
$DIMTIH
 70
     1
  9
$DIMTOH
 70
     1
  9
$DIMSE1
 70
     0
  9
$DIMSE2
 70
     0
  9
$DIMTAD
 70
     0
  9
$DIMZIN
 70
     0
  9
$DIMBLK
  1

  9
$DIMASO
 70
     1
  9
$DIMSHO
 70
     1
  9
$DIMPOST
  1

  9
$DIMAPOST
  1

  9
$DIMALT
 70
     0
  9
$DIMALTD
 70
     2
  9
$DIMALTF
 40
25.399999999999999
  9
$DIMLFAC
 40
1.0
  9
$DIMTOFL
 70
     0
  9
$DIMTVP
 40
0.0
  9
$DIMTIX
 70
     0
  9
$DIMSOXD
 70
     0
  9
$DIMSAH
 70
     0
  9
$DIMBLK1
  1

  9
$DIMBLK2
  1

  9
$DIMSTYLE
  2
STANDARD
  9
$DIMCLRD
 70
     0
  9
$DIMCLRE
 70
     0
  9
$DIMCLRT
 70
     0
  9
$DIMTFAC
 40
1.0
  9
$DIMGAP
 40
0.09
  9
$LUNITS
 70
     2
  9
$LUPREC
 70
     4
  9
$SKETCHINC
 40
0.1
  9
$FILLETRAD
 40
0.0
  9
$AUNITS
 70
     0
  9
$AUPREC
 70
     0
  9
$MENU
  1
.
  9
$ELEVATION
 40
0.0
  9
$PELEVATION
 40
0.0
  9
$THICKNESS
 40
0.0
  9
$LIMCHECK
 70
     0
  9
$BLIPMODE
 70
     0
  9
$CHAMFERA
 40
0.0
  9
$CHAMFERB
 40
0.0
  9
$SKPOLY
 70
     0
  9
$TDCREATE
 40
2457822.5741886809
  9
$TDUPDATE
 40
2457827.514745058
  9
$TDINDWG
 40
0.0245632407
  9
$TDUSRTIMER
 40
0.0245632407
  9
$USRTIMER
 70
     1
  9
$ANGBASE
 50
0.0
  9
$ANGDIR
 70
     0
  9
$PDMODE
 70
     0
  9
$PDSIZE
 40
0.3125
  9
$PLINEWID
 40
0.0
  9
$COORDS
 70
     1
  9
$SPLFRAME
 70
     0
  9
$SPLINETYPE
 70
     6
  9
$SPLINESEGS
 70
     8
  9
$ATTDIA
 70
     1
  9
$ATTREQ
 70
     1
  9
$HANDLING
 70
     1
  9
$HANDSEED
  5
E26
  9
$SURFTAB1
 70
     6
  9
$SURFTAB2
 70
     6
  9
$SURFTYPE
 70
     6
  9
$SURFU
 70
     6
  9
$SURFV
 70
     6
  9
$UCSNAME
  2

  9
$UCSORG
 10
0.0
 20
0.0
 30
0.0
  9
$UCSXDIR
 10
1.0
 20
0.0
 30
0.0
  9
$UCSYDIR
 10
0.0
 20
1.0
 30
0.0
  9
$PUCSNAME
  2

  9
$PUCSORG
 10
0.0
 20
0.0
 30
0.0
  9
$PUCSXDIR
 10
1.0
 20
0.0
 30
0.0
  9
$PUCSYDIR
 10
0.0
 20
1.0
 30
0.0
  9
$USERI1
 70
     0
  9
$USERI2
 70
     0
  9
$USERI3
 70
     0
  9
$USERI4
 70
     0
  9
$USERI5
 70
     0
  9
$USERR1
 40
0.0
  9
$USERR2
 40
0.0
  9
$USERR3
 40
0.0
  9
$USERR4
 40
0.0
  9
$USERR5
 40
0.0
  9
$WORLDVIEW
 70
     1
  9
$SHADEDGE
 70
     3
  9
$SHADEDIF
 70
    70
  9
$TILEMODE
 70
     1
  9
$MAXACTVP
 70
    48
  9
$PLIMCHECK
 70
     0
  9
$PEXTMIN
 10
1.0000000000000000E+020
 20
1.0000000000000000E+020
 30
1.0000000000000000E+020
  9
$PEXTMAX
 10
-1.0000000000000000E+020
 20
-1.0000000000000000E+020
 30
-1.0000000000000000E+020
  9
$PLIMMIN
 10
0.0
 20
0.0
  9
$PLIMMAX
 10
12.0
 20
9.0
  9
$UNITMODE
 70
     0
  9
$VISRETAIN
 70
     1
  9
$PLINEGEN
 70
     0
  9
$PSLTSCALE
 70
     1
  0
ENDSEC
  0
SECTION
  2
TABLES
  0
TABLE
  2
VPORT
 70
     1
  0
VPORT
  2
*ACTIVE
 70
     0
 10
0.0
 20
0.0
 11
1.0
 21
1.0
 12
0.0
 22
0.0
 13
0.0
 23
0.0
 14
1.0
 24
1.0
 15
0.0
 25
0.0
 16
-0.0000000000000142
 26
0.0
 36
81.202492330640666
 17
113.4843010811902
 27
32.796620441486851
 37
0.0
 40
34.333568335050977
 41
1.664490861618799
 42
50.0
 43
0.0
 44
0.0
 50
0.0
 51
0.0
 71
     0
 72
   100
 73
     1
 74
     1
 75
     0
 76
     0
 77
     0
 78
     0
  0
ENDTAB
  0
TABLE
  2
LTYPE
 70
     2
  0
LTYPE
  2
CONTINUOUS
 70
     0
  3
Solid line
 72
    65
 73
     0
 40
0.0
  0
LTYPE
  2
PHANTOM2
 70
     0
  3
___ _ _ ___ _ _ ___ _ _ ___ _ _
 72
    65
 73
     6
 40
1.25
 49
0.625
 49
-0.125
 49
0.125
 49
-0.125
 49
0.125
 49
-0.125
  0
ENDTAB
  0
TABLE
  2
LAYER
 70
     2
  0
LAYER
  2
0
 70
     0
 62
     7
  6
CONTINUOUS
  0
LAYER
  2
DEFPOINTS
 70
     0
 62
     7
  6
CONTINUOUS
  0
ENDTAB
  0
TABLE
  2
STYLE
 70
     1
  0
STYLE
  2
STANDARD
 70
     0
 40
0.0
 41
0.8
 50
0.0
 71
     0
 42
0.2
  3
txt
  4

  0
ENDTAB
  0
TABLE
  2
VIEW
 70
     0
  0
ENDTAB
  0
TABLE
  2
UCS
 70
     0
  0
ENDTAB
  0
TABLE
  2
APPID
 70
     5
  0
APPID
  2
ACAD
 70
     0
  0
APPID
  2
ACAD_MLEADERVER
 70
     0
  0
APPID
  2
ACAD_NAV_VCDISPLAY
 70
     0
  0
APPID
  2
ACAD_EXEMPT_FROM_CAD_STANDARDS
 70
     0
  0
APPID
  2
ACDBATTR
 70
     0
  0
ENDTAB
  0
TABLE
  2
DIMSTYLE
 70
     1
  0
DIMSTYLE
  2
STANDARD
 70
     0
  3

  4

  5

  6

  7

 40
1.0
 41
0.1875
 42
0.0625
 43
0.38
 44
0.125
 45
0.0
 46
0.0
 47
1.5
 48
1.5
140
0.15625
141
0.09
142
0.0
143
25.399999999999999
144
1.0
145
0.0
146
1.0
147
0.09
 71
     0
 72
     0
 73
     1
 74
     1
 75
     0
 76
     0
 77
     0
 78
     4
170
     0
171
     2
172
     0
173
     0
174
     0
175
     0
176
     0
177
     0
178
     0
  0
ENDTAB
  0
ENDSEC
  0
SECTION
  2
BLOCKS
  0
BLOCK
  8
0
  2
$MODEL_SPACE
 70
     0
 10
0.0
 20
0.0
 30
0.0
  3
$MODEL_SPACE
  1

  0
ENDBLK
  5
21
  8
0
  0
BLOCK
 67
     1
  8
0
  2
$PAPER_SPACE
 70
     0
 10
0.0
 20
0.0
 30
0.0
  3
$PAPER_SPACE
  1

  0
ENDBLK
  5
1D
 67
     1
  8
0
  0
ENDSEC
  0
SECTION
  2
ENTITIES
  0
LINE
  5
51D
  8
0
 10
96.984301081190253
 20
37.478605768900003
 30
0.0
 11
96.984301081190253
 21
37.526605768899998
 31
0.0
  0
LINE
  5
51E
  8
0
 10
96.984301081190253
 20
37.526605768899998
 30
0.0
 11
129.9843010811903
 21
37.526605768899998
 31
0.0
  0
LINE
  5
51F
  8
0
 10
129.9843010811903
 20
37.526605768899998
 30
0.0
 11
129.9843010811903
 21
37.478605768900003
 31
0.0
  0
LINE
  5
520
  8
0
 10
129.9843010811903
 20
37.478605768900003
 30
0.0
 11
96.984301081190253
 21
37.478605768900003
 31
0.0
  0
LINE
  5
521
  8
0
 10
98.234301081190253
 20
37.478605768900003
 30
0.0
 11
98.234301081190253
 21
36.878669464799998
 31
0.0
  0
LINE
  5
522
  8
0
 10
98.234301081190253
 20
36.878669464799998
 30
0.0
 11
128.73430108119021
 21
36.878605768900002
 31
0.0
  0
LINE
  5
523
  8
0
 10
128.73430108119021
 20
36.878605768900002
 30
0.0
 11
128.73430108119021
 21
37.478605768900003
 31
0.0
  0
LINE
  5
524
  8
0
 10
98.311301081190265
 20
36.878669303993952
 30
0.0
 11
98.311301081190265
 21
28.717638943699999
 31
0.0
  0
ARC
  5
525
  8
0
 10
98.423802469877373
 20
28.718699328819032
 30
0.0
 40
0.1125063857028634
 50
180.54001523273701
 51
271.87540909308211
  0
LINE
  5
526
  8
0
 10
128.65730108119021
 20
36.878605768900002
 30
0.0
 11
128.6572833062055
 21
28.71646270163097
 31
0.0
  0
ARC
  5
527
  8
0
 10
128.54660419011839
 20
28.717846805331298
 30
0.0
 40
0.1106877702407977
 50
272.65286909753638
 51
359.28352221988968
  0
LINE
  5
528
  8
0
 10
128.5304878953811
 20
28.606253561811751
 30
0.0
 11
118.2343010811902
 21
28.35702730424482
 31
0.0
  0
LINE
  5
529
  8
0
 10
108.7343010811902
 20
28.357027304245008
 30
0.0
 11
98.438124530490256
 21
28.606254745800008
 31
0.0
  0
LINE
  5
52A
  8
0
 10
108.7343010811902
 20
28.295861561599999
 30
0.0
 11
108.7343010811902
 21
28.5670811564
 31
0.0
  0
LINE
  5
52B
  8
0
 10
118.2343010811902
 20
28.5670811564
 30
0.0
 11
118.2343010811902
 21
28.295861561599999
 31
0.0
  0
LINE
  5
52C
  8
0
 10
111.1280017438764
 20
28.287408534645689
 30
0.0
 11
111.17975315171471
 21
28.216250348781241
 31
0.0
  0
LINE
  5
52D
  8
0
 10
111.21873124079021
 20
28.187945332999998
 30
0.0
 11
111.61669862809021
 21
28.0586378904
 31
0.0
  0
LINE
  5
52E
  8
0
 10
111.61669862809021
 20
28.0586378904
 30
0.0
 11
115.3519035342902
 21
28.0586378904
 31
0.0
  0
LINE
  5
52F
  8
0
 10
115.3519035342902
 20
28.0586378904
 30
0.0
 11
115.7498709216261
 21
28.187945333011651
 31
0.0
  0
LINE
  5
530
  8
0
 10
115.7888439174902
 20
28.216250348799999
 30
0.0
 11
115.8406004906156
 21
28.287408534682982
 31
0.0
  0
ARC
  5
531
  8
0
 10
115.7257675960492
 20
28.262127741280509
 30
0.0
 40
0.0780000000892436
 50
288.00000017921121
 51
323.97262662363448
  0
ARC
  5
532
  8
0
 10
111.24283456565711
 20
28.262127740566381
 30
0.0
 40
0.077999999115265
 50
216.02737328234309
 51
252.00000032516809
  0
ARC
  5
533
  8
0
 10
108.8171483920439
 20
28.79702581324668
 30
0.0
 40
0.5079658296030005
 50
260.61334168846969
 51
271.00053168808319
  0
ARC
  5
534
  8
0
 10
118.1514537703366
 20
28.79702581324668
 30
0.0
 40
0.5079658296030005
 50
268.99946831191681
 51
279.38665831153031
  0
ARC
  5
536
  8
0
 10
113.48430108118779
 20
4698.1593346382297
 30
0.0
 40
4669.8725205680903
 50
269.94284640866778
 51
270.05715359133222
  0
LINE
  5
538
  8
0
 10
98.427484378497027
 20
28.606253206730091
 30
0.0
 11
98.438124530490256
 21
28.606254745800008
 31
0.0
  0
LINE
  5
539
  8
0
 10
128.55172734684561
 20
28.607277660693079
 30
0.0
 11
128.5304878953811
 21
28.606253561811751
 31
0.0
  0
LINE
  5
53A
  8
0
 10
128.65728330621411
 20
28.716462702318189
 30
0.0
 11
98.311301081190265
 21
28.71763896690258
 31
0.0
  0
ARC
  5
53B
  8
0
 10
108.8027883766138
 20
28.175334476832742
 30
0.0
 40
0.3976882831897409
 50
90.213972506261285
 51
99.916542254474834
  0
ARC
  5
53C
  8
0
 10
115.678219969926
 20
-603.80573691723714
 30
0.0
 40
632.41614793403551
 50
90.198765552505236
 51
90.623048721295703
  0
ARC
  5
53D
  8
0
 10
118.1658137857667
 20
28.175334476832742
 30
0.0
 40
0.3976882831897409
 50
80.083457745525138
 51
89.786027493738729
  0
ARC
  5
53E
  8
0
 10
111.2903821924545
 20
-603.80573691723714
 30
0.0
 40
632.41614793403551
 50
89.376951278704283
 51
89.80123444749475
  0
ATTDEF
  5
8C1
  8
DEFPOINTS
 10
113.4803778651406
 20
37.528602992573703
 30
0.0
 40
0.001
  1
STAINLESS STEEL
  3

  2
MATERIAL
 70
     0
1001
ACDBATTR
1070
     0
1070
     1
  0
ATTDEF
  5
8C2
  8
DEFPOINTS
 10
113.4803778651406
 20
37.530269659240368
 30
0.0
 40
0.001
  1
KITCHEN SINK
  3

  2
PRODUCT
 70
     0
1001
ACDBATTR
1070
     0
1070
     1
  0
ATTDEF
  5
8C3
  8
DEFPOINTS
 10
113.4803778651406
 20
37.53193632590704
 30
0.0
 40
0.001
  1
VAULT
  3

  2
TRADENAME
 70
     0
1001
ACDBATTR
1070
     0
1070
     1
  0
ATTDEF
  5
8C4
  8
DEFPOINTS
 10
113.4803778651406
 20
37.533602992573719
 30
0.0
 40
0.001
  1
K-3821-4
  3

  2
MODELNUMBER
 70
     0
1001
ACDBATTR
1070
     0
1070
     1
  0
LINE
  5
C61
  8
0
 10
129.25430108119019
 20
37.448605768900002
 30
0.0
 11
129.38932623794909
 21
37.448605755715363
 31
0.0
  0
LINE
  5
C62
  8
0
 10
129.2543010835337
 20
37.448605768900002
 30
0.0
 11
129.2335164226902
 21
37.436605710699993
 31
0.0
  0
LINE
  5
C63
  8
0
 10
129.2335164226902
 20
37.436605710699993
 30
0.0
 11
129.14250386719019
 21
37.278583911099993
 31
0.0
  0
LINE
  5
C64
  8
0
 10
129.14250386719019
 20
37.278583911099993
 30
0.0
 11
129.13930108119021
 21
37.2666057689
 31
0.0
  0
LINE
  5
C65
  8
0
 10
129.13930108119021
 20
37.2666057689
 30
0.0
 11
129.13930108119021
 21
36.9348557689
 31
0.0
  0
LINE
  5
C66
  8
0
 10
129.19180108119019
 20
36.9348557689
 30
0.0
 11
129.19180108119019
 21
37.093605768899991
 31
0.0
  0
LINE
  5
C67
  8
0
 10
129.19180108119019
 20
37.093605768899991
 30
0.0
 11
129.22180108119019
 21
37.093605768899991
 31
0.0
  0
LINE
  5
C68
  8
0
 10
129.22180108119019
 20
37.093605768899991
 30
0.0
 11
129.22180108119019
 21
36.9348557689
 31
0.0
  0
LINE
  5
C69
  8
0
 10
129.10930108119021
 20
36.9348557689
 30
0.0
 11
129.10930108119021
 21
37.2666057689
 31
0.0
  0
LINE
  5
C6A
  8
0
 10
129.10930108119021
 20
37.2666057689
 30
0.0
 11
129.11650734978309
 21
37.293556588887633
 31
0.0
  0
LINE
  5
C6B
  8
0
 10
129.11650734978309
 20
37.293556588887633
 30
0.0
 11
129.2075073497831
 21
37.451556588887641
 31
0.0
  0
ARC
  5
C6C
  8
0
 10
129.16555108119019
 20
36.9348557689
 30
0.0
 40
0.0262499999999975
 50
180.0000000000154
 51
359.99999999998448
  0
ARC
  5
C6D
  8
0
 10
129.16555108119019
 20
36.9348557689
 30
0.0
 40
0.0562499999999986
 50
180.0000000000073
 51
359.99999999999272
  0
ARC
  5
C6E
  8
0
 10
129.2545336114662
 20
37.424373605104734
 30
0.0
 40
0.054317436383037
 50
93.210920494255575
 51
149.97043973507289
  0
LINE
  5
C6F
  8
0
 10
129.38932623560561
 20
37.448605768900002
 30
0.0
 11
129.41011089644911
 21
37.436605710699993
 31
0.0
  0
LINE
  5
C70
  8
0
 10
129.41011089644911
 20
37.436605710699993
 30
0.0
 11
129.5011234519491
 21
37.278583911099993
 31
0.0
  0
LINE
  5
C71
  8
0
 10
129.5011234519491
 20
37.278583911099993
 30
0.0
 11
129.5043262379491
 21
37.2666057689
 31
0.0
  0
LINE
  5
C72
  8
0
 10
129.5043262379491
 20
37.2666057689
 30
0.0
 11
129.5043262379491
 21
36.9348557689
 31
0.0
  0
LINE
  5
C73
  8
0
 10
129.45182623794909
 20
36.9348557689
 30
0.0
 11
129.45182623794909
 21
37.093605768899991
 31
0.0
  0
LINE
  5
C74
  8
0
 10
129.45182623794909
 20
37.093605768899991
 30
0.0
 11
129.42182623794909
 21
37.093605768899991
 31
0.0
  0
LINE
  5
C75
  8
0
 10
129.42182623794909
 20
37.093605768899991
 30
0.0
 11
129.42182623794909
 21
36.9348557689
 31
0.0
  0
LINE
  5
C76
  8
0
 10
129.5343262379491
 20
36.9348557689
 30
0.0
 11
129.5343262379491
 21
37.2666057689
 31
0.0
  0
LINE
  5
C77
  8
0
 10
129.5343262379491
 20
37.2666057689
 30
0.0
 11
129.52711996935619
 21
37.293556588887633
 31
0.0
  0
LINE
  5
C78
  8
0
 10
129.52711996935619
 20
37.293556588887633
 30
0.0
 11
129.43611996935621
 21
37.451556588887641
 31
0.0
  0
ARC
  5
C79
  8
0
 10
129.4780762379491
 20
36.9348557689
 30
0.0
 40
0.0262499999999975
 50
180.0000000000154
 51
359.99999999998448
  0
ARC
  5
C7A
  8
0
 10
129.4780762379491
 20
36.9348557689
 30
0.0
 40
0.0562499999999986
 50
180.0000000000073
 51
359.99999999999272
  0
ARC
  5
C7B
  8
0
 10
129.38909370767311
 20
37.424373605104734
 30
0.0
 40
0.054317436383037
 50
30.029560264926278
 51
86.789079505744411
  0
LINE
  5
C7C
  8
0
 10
97.714301081190271
 20
37.448605768900002
 30
0.0
 11
97.579275924431386
 21
37.448605755715363
 31
0.0
  0
LINE
  5
C7D
  8
0
 10
97.714301078846745
 20
37.448605768900002
 30
0.0
 11
97.735085739690234
 21
37.436605710699993
 31
0.0
  0
LINE
  5
C7E
  8
0
 10
97.735085739690234
 20
37.436605710699993
 30
0.0
 11
97.826098295190263
 21
37.278583911099993
 31
0.0
  0
LINE
  5
C7F
  8
0
 10
97.826098295190263
 20
37.278583911099993
 30
0.0
 11
97.829301081190266
 21
37.2666057689
 31
0.0
  0
LINE
  5
C80
  8
0
 10
97.829301081190266
 20
37.2666057689
 30
0.0
 11
97.829301081190266
 21
36.9348557689
 31
0.0
  0
LINE
  5
C81
  8
0
 10
97.776801081190257
 20
36.9348557689
 30
0.0
 11
97.776801081190257
 21
37.093605768899991
 31
0.0
  0
LINE
  5
C82
  8
0
 10
97.776801081190257
 20
37.093605768899991
 30
0.0
 11
97.746801081190256
 21
37.093605768899991
 31
0.0
  0
LINE
  5
C83
  8
0
 10
97.746801081190256
 20
37.093605768899991
 30
0.0
 11
97.746801081190256
 21
36.9348557689
 31
0.0
  0
LINE
  5
C84
  8
0
 10
97.859301081190267
 20
36.9348557689
 30
0.0
 11
97.859301081190267
 21
37.2666057689
 31
0.0
  0
LINE
  5
C85
  8
0
 10
97.859301081190267
 20
37.2666057689
 30
0.0
 11
97.852094812597358
 21
37.293556588887633
 31
0.0
  0
LINE
  5
C86
  8
0
 10
97.852094812597358
 20
37.293556588887633
 30
0.0
 11
97.761094812597364
 21
37.451556588887641
 31
0.0
  0
ARC
  5
C87
  8
0
 10
97.803051081190262
 20
36.9348557689
 30
0.0
 40
0.0262499999999975
 50
180.0000000000154
 51
359.99999999998448
  0
ARC
  5
C88
  8
0
 10
97.803051081190262
 20
36.9348557689
 30
0.0
 40
0.0562499999999986
 50
180.0000000000073
 51
359.99999999999272
  0
ARC
  5
C89
  8
0
 10
97.714068550914305
 20
37.424373605104734
 30
0.0
 40
0.054317436383037
 50
30.029560264926278
 51
86.789079505744411
  0
LINE
  5
C8A
  8
0
 10
97.579275926774883
 20
37.448605768900002
 30
0.0
 11
97.558491265931394
 21
37.436605710699993
 31
0.0
  0
LINE
  5
C8B
  8
0
 10
97.558491265931394
 20
37.436605710699993
 30
0.0
 11
97.467478710431379
 21
37.278583911099993
 31
0.0
  0
LINE
  5
C8C
  8
0
 10
97.467478710431379
 20
37.278583911099993
 30
0.0
 11
97.464275924431377
 21
37.2666057689
 31
0.0
  0
LINE
  5
C8D
  8
0
 10
97.464275924431377
 20
37.2666057689
 30
0.0
 11
97.464275924431377
 21
36.9348557689
 31
0.0
  0
LINE
  5
C8E
  8
0
 10
97.516775924431386
 20
36.9348557689
 30
0.0
 11
97.516775924431386
 21
37.093605768899991
 31
0.0
  0
LINE
  5
C8F
  8
0
 10
97.516775924431386
 20
37.093605768899991
 30
0.0
 11
97.546775924431387
 21
37.093605768899991
 31
0.0
  0
LINE
  5
C90
  8
0
 10
97.546775924431387
 20
37.093605768899991
 30
0.0
 11
97.546775924431387
 21
36.9348557689
 31
0.0
  0
LINE
  5
C91
  8
0
 10
97.434275924431375
 20
36.9348557689
 30
0.0
 11
97.434275924431375
 21
37.2666057689
 31
0.0
  0
LINE
  5
C92
  8
0
 10
97.434275924431375
 20
37.2666057689
 30
0.0
 11
97.441482193024285
 21
37.293556588887633
 31
0.0
  0
LINE
  5
C93
  8
0
 10
97.441482193024285
 20
37.293556588887633
 30
0.0
 11
97.532482193024265
 21
37.451556588887641
 31
0.0
  0
ARC
  5
C94
  8
0
 10
97.490525924431381
 20
36.9348557689
 30
0.0
 40
0.0262499999999975
 50
180.0000000000154
 51
359.99999999998448
  0
ARC
  5
C95
  8
0
 10
97.490525924431381
 20
36.9348557689
 30
0.0
 40
0.0562499999999986
 50
180.0000000000073
 51
359.99999999999272
  0
ARC
  5
C96
  8
0
 10
97.579508454707337
 20
37.424373605104734
 30
0.0
 40
0.054317436383037
 50
93.210920494255575
 51
149.97043973507371
  0
ENDSEC
  0
EOF
