  0
SECTION
  2
HEADER
  9
$ACADVER
  1
AC1009
  9
$INSBASE
 10
113.4843010811902
 20
63.745014787300001
 30
0.0
  9
$EXTMIN
 10
96.984301081190253
 20
52.745014787299993
 30
0.0
  9
$EXTMAX
 10
129.9843010811903
 20
74.745014787299993
 30
0.0
  9
$LIMMIN
 10
0.0
 20
0.0
  9
$LIMMAX
 10
22.0
 20
17.0
  9
$ORTHOMODE
 70
     0
  9
$REGENMODE
 70
     1
  9
$FILLMODE
 70
     1
  9
$QTEXTMODE
 70
     0
  9
$MIRRTEXT
 70
     0
  9
$DRAGMODE
 70
     2
  9
$LTSCALE
 40
1.2099999999999991
  9
$OSMODE
 70
    39
  9
$ATTMODE
 70
     1
  9
$TEXTSIZE
 40
0.2
  9
$TRACEWID
 40
0.05
  9
$TEXTSTYLE
  7
STANDARD
  9
$CLAYER
  8
0
  9
$CELTYPE
  6
BYLAYER
  9
$CECOLOR
 62
   256
  9
$DIMSCALE
 40
1.0
  9
$DIMASZ
 40
0.1875
  9
$DIMEXO
 40
0.0625
  9
$DIMDLI
 40
0.8359999999999999
  9
$DIMRND
 40
0.0
  9
$DIMDLE
 40
0.0
  9
$DIMEXE
 40
0.125
  9
$DIMTP
 40
0.0
  9
$DIMTM
 40
0.0
  9
$DIMTXT
 40
0.15625
  9
$DIMCEN
 40
0.198
  9
$DIMTSZ
 40
0.0
  9
$DIMTOL
 70
     0
  9
$DIMLIM
 70
     0
  9
$DIMTIH
 70
     1
  9
$DIMTOH
 70
     1
  9
$DIMSE1
 70
     0
  9
$DIMSE2
 70
     0
  9
$DIMTAD
 70
     0
  9
$DIMZIN
 70
     0
  9
$DIMBLK
  1

  9
$DIMASO
 70
     1
  9
$DIMSHO
 70
     1
  9
$DIMPOST
  1

  9
$DIMAPOST
  1

  9
$DIMALT
 70
     0
  9
$DIMALTD
 70
     2
  9
$DIMALTF
 40
25.399999999999999
  9
$DIMLFAC
 40
1.0
  9
$DIMTOFL
 70
     0
  9
$DIMTVP
 40
0.0
  9
$DIMTIX
 70
     0
  9
$DIMSOXD
 70
     0
  9
$DIMSAH
 70
     0
  9
$DIMBLK1
  1

  9
$DIMBLK2
  1

  9
$DIMSTYLE
  2
STANDARD
  9
$DIMCLRD
 70
     0
  9
$DIMCLRE
 70
     0
  9
$DIMCLRT
 70
     0
  9
$DIMTFAC
 40
1.0
  9
$DIMGAP
 40
0.09
  9
$LUNITS
 70
     2
  9
$LUPREC
 70
     4
  9
$SKETCHINC
 40
0.1
  9
$FILLETRAD
 40
0.0
  9
$AUNITS
 70
     0
  9
$AUPREC
 70
     0
  9
$MENU
  1
.
  9
$ELEVATION
 40
0.0
  9
$PELEVATION
 40
0.0
  9
$THICKNESS
 40
0.0
  9
$LIMCHECK
 70
     0
  9
$BLIPMODE
 70
     0
  9
$CHAMFERA
 40
0.0
  9
$CHAMFERB
 40
0.0
  9
$SKPOLY
 70
     0
  9
$TDCREATE
 40
2457822.5741886809
  9
$TDUPDATE
 40
2457998.63532404
  9
$TDINDWG
 40
0.0235032176
  9
$TDUSRTIMER
 40
0.0235032176
  9
$USRTIMER
 70
     1
  9
$ANGBASE
 50
0.0
  9
$ANGDIR
 70
     0
  9
$PDMODE
 70
     0
  9
$PDSIZE
 40
0.3125
  9
$PLINEWID
 40
0.0
  9
$COORDS
 70
     1
  9
$SPLFRAME
 70
     0
  9
$SPLINETYPE
 70
     6
  9
$SPLINESEGS
 70
     8
  9
$ATTDIA
 70
     1
  9
$ATTREQ
 70
     1
  9
$HANDLING
 70
     1
  9
$HANDSEED
  5
13C0
  9
$SURFTAB1
 70
     6
  9
$SURFTAB2
 70
     6
  9
$SURFTYPE
 70
     6
  9
$SURFU
 70
     6
  9
$SURFV
 70
     6
  9
$UCSNAME
  2

  9
$UCSORG
 10
0.0
 20
0.0
 30
0.0
  9
$UCSXDIR
 10
1.0
 20
0.0
 30
0.0
  9
$UCSYDIR
 10
0.0
 20
1.0
 30
0.0
  9
$PUCSNAME
  2

  9
$PUCSORG
 10
0.0
 20
0.0
 30
0.0
  9
$PUCSXDIR
 10
1.0
 20
0.0
 30
0.0
  9
$PUCSYDIR
 10
0.0
 20
1.0
 30
0.0
  9
$USERI1
 70
     0
  9
$USERI2
 70
     0
  9
$USERI3
 70
     0
  9
$USERI4
 70
     0
  9
$USERI5
 70
     0
  9
$USERR1
 40
0.0
  9
$USERR2
 40
0.0
  9
$USERR3
 40
0.0
  9
$USERR4
 40
0.0
  9
$USERR5
 40
0.0
  9
$WORLDVIEW
 70
     1
  9
$SHADEDGE
 70
     3
  9
$SHADEDIF
 70
    70
  9
$TILEMODE
 70
     1
  9
$MAXACTVP
 70
    48
  9
$PLIMCHECK
 70
     0
  9
$PEXTMIN
 10
1.0000000000000000E+020
 20
1.0000000000000000E+020
 30
1.0000000000000000E+020
  9
$PEXTMAX
 10
-1.0000000000000000E+020
 20
-1.0000000000000000E+020
 30
-1.0000000000000000E+020
  9
$PLIMMIN
 10
0.0
 20
0.0
  9
$PLIMMAX
 10
12.0
 20
9.0
  9
$UNITMODE
 70
     0
  9
$VISRETAIN
 70
     1
  9
$PLINEGEN
 70
     0
  9
$PSLTSCALE
 70
     1
  0
ENDSEC
  0
SECTION
  2
TABLES
  0
TABLE
  2
VPORT
 70
     1
  0
VPORT
  2
*ACTIVE
 70
     0
 10
0.0
 20
0.0
 11
1.0
 21
1.0
 12
0.0
 22
0.0
 13
0.0
 23
0.0
 14
1.0
 24
1.0
 15
0.0
 25
0.0
 16
-0.0000000000000284
 26
0.0
 36
113.94447984811831
 17
113.4843010811902
 27
63.745014787300001
 37
0.0
 40
39.661064030103887
 41
2.155813953488372
 42
50.0
 43
0.0
 44
0.0
 50
0.0
 51
0.0
 71
     0
 72
   100
 73
     1
 74
     1
 75
     0
 76
     0
 77
     0
 78
     0
  0
ENDTAB
  0
TABLE
  2
LTYPE
 70
     2
  0
LTYPE
  2
CONTINUOUS
 70
     0
  3
Solid line
 72
    65
 73
     0
 40
0.0
  0
LTYPE
  2
PHANTOM2
 70
     0
  3
___ _ _ ___ _ _ ___ _ _ ___ _ _
 72
    65
 73
     6
 40
1.25
 49
0.625
 49
-0.125
 49
0.125
 49
-0.125
 49
0.125
 49
-0.125
  0
ENDTAB
  0
TABLE
  2
LAYER
 70
     2
  0
LAYER
  2
0
 70
     0
 62
     7
  6
CONTINUOUS
  0
LAYER
  2
DEFPOINTS
 70
     0
 62
     7
  6
CONTINUOUS
  0
ENDTAB
  0
TABLE
  2
STYLE
 70
     1
  0
STYLE
  2
STANDARD
 70
     0
 40
0.0
 41
0.8
 50
0.0
 71
     0
 42
0.2
  3
txt
  4

  0
ENDTAB
  0
TABLE
  2
VIEW
 70
     0
  0
ENDTAB
  0
TABLE
  2
UCS
 70
     0
  0
ENDTAB
  0
TABLE
  2
APPID
 70
     5
  0
APPID
  2
ACAD
 70
     0
  0
APPID
  2
ACAD_MLEADERVER
 70
     0
  0
APPID
  2
ACAD_NAV_VCDISPLAY
 70
     0
  0
APPID
  2
ACAD_EXEMPT_FROM_CAD_STANDARDS
 70
     0
  0
APPID
  2
ACDBATTR
 70
     0
  0
ENDTAB
  0
TABLE
  2
DIMSTYLE
 70
     1
  0
DIMSTYLE
  2
STANDARD
 70
     0
  3

  4

  5

  6

  7

 40
1.0
 41
0.1875
 42
0.0625
 43
0.38
 44
0.125
 45
0.0
 46
0.0
 47
1.5
 48
1.5
140
0.15625
141
0.09
142
0.0
143
25.399999999999999
144
1.0
145
0.0
146
1.0
147
0.09
 71
     0
 72
     0
 73
     1
 74
     1
 75
     0
 76
     0
 77
     0
 78
     4
170
     0
171
     2
172
     0
173
     0
174
     0
175
     0
176
     0
177
     0
178
     0
  0
ENDTAB
  0
ENDSEC
  0
SECTION
  2
BLOCKS
  0
BLOCK
  8
0
  2
$MODEL_SPACE
 70
     0
 10
0.0
 20
0.0
 30
0.0
  3
$MODEL_SPACE
  1

  0
ENDBLK
  5
21
  8
0
  0
BLOCK
 67
     1
  8
0
  2
$PAPER_SPACE
 70
     0
 10
0.0
 20
0.0
 30
0.0
  3
$PAPER_SPACE
  1

  0
ENDBLK
  5
1D
 67
     1
  8
0
  0
ENDSEC
  0
SECTION
  2
ENTITIES
  0
LINE
  5
4FC
  8
0
 10
96.984301081190253
 20
74.495014787299993
 30
0.0
 11
96.984301081190253
 21
52.995014787299993
 31
0.0
  0
LINE
  5
4FD
  8
0
 10
97.234301081190253
 20
52.745014787299993
 30
0.0
 11
129.73430108119021
 21
52.745014787299993
 31
0.0
  0
LINE
  5
4FE
  8
0
 10
129.9843010811903
 20
52.995014787299993
 30
0.0
 11
129.9843010811903
 21
74.495014787299993
 31
0.0
  0
LINE
  5
4FF
  8
0
 10
129.73430108119021
 20
74.745014787299993
 30
0.0
 11
97.234301081190253
 21
74.745014787299993
 31
0.0
  0
LINE
  5
500
  8
0
 10
98.248301081190249
 20
70.781014787299995
 30
0.0
 11
98.248301081190249
 21
54.009014787299989
 31
0.0
  0
LINE
  5
501
  8
0
 10
98.248301081190249
 20
54.009014787299989
 30
0.0
 11
128.7203010811902
 21
54.009014787299989
 31
0.0
  0
LINE
  5
502
  8
0
 10
128.7203010811902
 20
54.009014787299989
 30
0.0
 11
128.7203010811902
 21
70.781014787299995
 31
0.0
  0
LINE
  5
503
  8
0
 10
128.7203010811902
 20
70.781014787299995
 30
0.0
 11
98.248301081190249
 21
70.781014787299995
 31
0.0
  0
CIRCLE
  5
504
  8
0
 10
113.4843010811902
 20
72.295014787299991
 30
0.0
 40
0.7199999999999989
  0
CIRCLE
  5
505
  8
0
 10
117.4843010811903
 20
72.295014787299991
 30
0.0
 40
0.7199999999999989
  0
CIRCLE
  5
506
  8
0
 10
109.4843010811902
 20
72.295014787299991
 30
0.0
 40
0.7199999999999989
  0
ARC
  5
50C
  8
0
 10
129.73430108119021
 20
52.995014787300001
 30
0.0
 40
0.2500000000000142
 50
270.00000000000171
 51
359.99999999999682
  0
ARC
  5
50D
  8
0
 10
129.73430108119021
 20
74.495014787299993
 30
0.0
 40
0.25
 50
0.0
 51
90.0
  0
ARC
  5
50E
  8
0
 10
97.234301081190253
 20
74.495014787300022
 30
0.0
 40
0.2499999999999716
 50
89.999999999999204
 51
180.00000000000321
  0
ARC
  5
50F
  8
0
 10
97.234301081190253
 20
52.995014787299993
 30
0.0
 40
0.25
 50
180.0
 51
269.9999999999992
  0
ATTDEF
  5
7BE
  8
DEFPOINTS
 10
113.4819018930075
 20
63.756788686931891
 30
0.0
 40
0.001
  1
STAINLESS STEEL
  3

  2
MATERIAL
 70
     0
1001
ACDBATTR
1070
     0
1070
     1
  0
ATTDEF
  5
7BF
  8
DEFPOINTS
 10
113.4819018930075
 20
63.758455353598549
 30
0.0
 40
0.001
  1
KITCHEN SINK
  3

  2
PRODUCT
 70
     0
1001
ACDBATTR
1070
     0
1070
     1
  0
ATTDEF
  5
7C0
  8
DEFPOINTS
 10
113.4819018930075
 20
63.760122020265221
 30
0.0
 40
0.001
  1
VAULT
  3

  2
TRADENAME
 70
     0
1001
ACDBATTR
1070
     0
1070
     1
  0
ATTDEF
  5
7C1
  8
DEFPOINTS
 10
113.4819018930075
 20
63.76178868693188
 30
0.0
 40
0.001
  1
K-3821-3
  3

  2
MODELNUMBER
 70
     0
1001
ACDBATTR
1070
     0
1070
     1
  0
CIRCLE
  5
105C
  8
0
 10
113.4843010811902
 20
65.26501478729999
 30
0.0
 40
0.301
  0
CIRCLE
  5
105D
  8
0
 10
113.4843010811902
 20
65.26501478729999
 30
0.0
 40
0.275
  0
CIRCLE
  5
105E
  8
0
 10
113.4843010811902
 20
65.26501478729999
 30
0.0
 40
1.750999999999999
  0
CIRCLE
  5
105F
  8
0
 10
113.4843010811902
 20
65.26501478729999
 30
0.0
 40
1.865999999999999
  0
ARC
  5
11CF
  8
0
 10
99.459301081190276
 20
69.759014787299989
 30
0.0
 40
0.6000000000000015
 50
90.0
 51
179.9999999999996
  0
LINE
  5
11D0
  8
0
 10
99.459301081190276
 20
70.359014787299998
 30
0.0
 11
127.5093010811902
 21
70.359014787300069
 31
0.0
  0
LINE
  5
11D1
  8
0
 10
98.859301081190253
 20
69.759014787299989
 30
0.0
 11
98.859301081190253
 21
55.02101478729999
 31
0.0
  0
ARC
  5
11D2
  8
0
 10
99.459301081190276
 20
55.02101478729999
 30
0.0
 40
0.6000000000000015
 50
180.0
 51
270.0
  0
LINE
  5
11D3
  8
0
 10
99.459301081190276
 20
54.421014787299981
 30
0.0
 11
127.5093010811902
 21
54.421014787299981
 31
0.0
  0
LINE
  5
11D4
  8
0
 10
127.5093010811902
 20
54.608514787299988
 30
0.0
 11
99.459301081190276
 21
54.608514787299988
 31
0.0
  0
ARC
  5
11D5
  8
0
 10
99.459301081190276
 20
55.02101478729999
 30
0.0
 40
0.4125000000000006
 50
180.0
 51
270.0
  0
LINE
  5
11D6
  8
0
 10
99.046801081190267
 20
55.02101478729999
 30
0.0
 11
99.046801081190267
 21
69.759014787299989
 31
0.0
  0
ARC
  5
11D7
  8
0
 10
99.459301081190276
 20
69.759014787299989
 30
0.0
 40
0.4124999999999979
 50
90.0
 51
180.0
  0
LINE
  5
11D8
  8
0
 10
99.459301081190276
 20
70.171514787299984
 30
0.0
 11
127.5093010811902
 21
70.171514787299856
 31
0.0
  0
CIRCLE
  5
11D9
  8
0
 10
113.4843010811902
 20
65.26501478729999
 30
0.0
 40
1.9999999999999989
  0
CIRCLE
  5
11DA
  8
0
 10
113.4843010811902
 20
65.26501478729999
 30
0.0
 40
2.1874999999999991
  0
LINE
  5
11DB
  8
0
 10
100.0795510811902
 20
54.608514787299988
 30
0.0
 11
100.0795510811902
 21
70.171514787299984
 31
0.0
  0
LINE
  5
11DC
  8
0
 10
99.974051081190254
 20
54.608514787299988
 30
0.0
 11
99.974051081190254
 21
70.171514787299984
 31
0.0
  0
LINE
  5
11DD
  8
0
 10
101.1145510811902
 20
54.608514787299988
 30
0.0
 11
101.1145510811902
 21
54.977514787299988
 31
0.0
  0
LINE
  5
11DE
  8
0
 10
101.1145510811902
 20
55.252014787299991
 30
0.0
 11
101.1145510811902
 21
68.457764787299993
 31
0.0
  0
LINE
  5
11DF
  8
0
 10
101.1145510811902
 20
68.732264787299997
 30
0.0
 11
101.1145510811902
 21
70.171514787299984
 31
0.0
  0
LINE
  5
11E0
  8
0
 10
101.00905108119019
 20
54.608514787299988
 30
0.0
 11
101.00905108119019
 21
54.977514787299988
 31
0.0
  0
LINE
  5
11E1
  8
0
 10
101.00905108119019
 20
55.252014787299991
 30
0.0
 11
101.00905108119019
 21
68.457764787299993
 31
0.0
  0
LINE
  5
11E2
  8
0
 10
101.00905108119019
 20
68.732264787299997
 30
0.0
 11
101.00905108119019
 21
70.171514787299984
 31
0.0
  0
LINE
  5
11E3
  8
0
 10
102.1495510811902
 20
54.608514787299988
 30
0.0
 11
102.1495510811902
 21
70.171514787299984
 31
0.0
  0
LINE
  5
11E4
  8
0
 10
102.0440510811902
 20
54.608514787299988
 30
0.0
 11
102.0440510811902
 21
70.171514787299984
 31
0.0
  0
LINE
  5
11E5
  8
0
 10
103.18455108119019
 20
54.608514787299988
 30
0.0
 11
103.18455108119019
 21
70.171514787299969
 31
0.0
  0
LINE
  5
11E6
  8
0
 10
103.0790510811902
 20
54.608514787299988
 30
0.0
 11
103.0790510811902
 21
70.171514787299969
 31
0.0
  0
LINE
  5
11E7
  8
0
 10
104.2195510811902
 20
54.608514787299988
 30
0.0
 11
104.2195510811902
 21
70.171514787299969
 31
0.0
  0
LINE
  5
11E8
  8
0
 10
104.1140510811902
 20
54.608514787299988
 30
0.0
 11
104.1140510811902
 21
70.171514787299969
 31
0.0
  0
LINE
  5
11E9
  8
0
 10
105.2545510811903
 20
54.608514787299988
 30
0.0
 11
105.2545510811903
 21
70.171514787299969
 31
0.0
  0
LINE
  5
11EA
  8
0
 10
105.14905108119019
 20
54.608514787299988
 30
0.0
 11
105.14905108119019
 21
70.171514787299969
 31
0.0
  0
LINE
  5
11EB
  8
0
 10
106.2895510811902
 20
54.608514787299988
 30
0.0
 11
106.2895510811902
 21
70.171514787299955
 31
0.0
  0
LINE
  5
11EC
  8
0
 10
106.1840510811902
 20
54.608514787299988
 30
0.0
 11
106.1840510811902
 21
70.171514787299955
 31
0.0
  0
LINE
  5
11ED
  8
0
 10
107.32455108119029
 20
54.608514787299988
 30
0.0
 11
107.32455108119029
 21
70.171514787299955
 31
0.0
  0
LINE
  5
11EE
  8
0
 10
107.2190510811902
 20
54.608514787299988
 30
0.0
 11
107.2190510811902
 21
70.171514787299955
 31
0.0
  0
LINE
  5
11EF
  8
0
 10
108.3595510811902
 20
54.608514787299988
 30
0.0
 11
108.3595510811902
 21
70.171514787299955
 31
0.0
  0
LINE
  5
11F0
  8
0
 10
108.2540510811902
 20
54.608514787299988
 30
0.0
 11
108.2540510811902
 21
70.171514787299955
 31
0.0
  0
LINE
  5
11F1
  8
0
 10
109.3945510811902
 20
54.608514787299988
 30
0.0
 11
109.3945510811902
 21
70.171514787299941
 31
0.0
  0
LINE
  5
11F2
  8
0
 10
109.28905108119019
 20
54.608514787299988
 30
0.0
 11
109.28905108119019
 21
70.171514787299941
 31
0.0
  0
LINE
  5
11F3
  8
0
 10
110.4295510811902
 20
54.608514787299988
 30
0.0
 11
110.4295510811902
 21
70.171514787299941
 31
0.0
  0
LINE
  5
11F4
  8
0
 10
110.32405108119021
 20
54.608514787299988
 30
0.0
 11
110.32405108119021
 21
70.171514787299941
 31
0.0
  0
LINE
  5
11F5
  8
0
 10
111.46455108119019
 20
54.608514787299988
 30
0.0
 11
111.46455108119019
 21
64.424915871992994
 31
0.0
  0
LINE
  5
11F6
  8
0
 10
111.46455108119019
 20
66.105113702606985
 30
0.0
 11
111.46455108119019
 21
70.171514787299941
 31
0.0
  0
LINE
  5
11F7
  8
0
 10
111.3590510811902
 20
54.608514787299988
 30
0.0
 11
111.3590510811902
 21
64.746875146372943
 31
0.0
  0
LINE
  5
11F8
  8
0
 10
111.3590510811902
 20
65.783154428227022
 30
0.0
 11
111.3590510811902
 21
70.171514787299941
 31
0.0
  0
LINE
  5
11F9
  8
0
 10
99.538716045047622
 20
70.171514787299984
 30
0.0
 11
99.974051081190254
 21
70.015240671763863
 31
0.0
  0
LINE
  5
11FA
  8
0
 10
100.0795510811902
 20
69.977368876892626
 30
0.0
 11
101.00905108119019
 21
69.643702210230785
 31
0.0
  0
LINE
  5
11FB
  8
0
 10
101.1145510811902
 20
69.605830415359534
 30
0.0
 11
102.0440510811902
 21
69.272163748697707
 31
0.0
  0
LINE
  5
11FC
  8
0
 10
102.1495510811902
 20
69.234291953826457
 30
0.0
 11
103.0790510811902
 21
68.900625287164615
 31
0.0
  0
LINE
  5
11FD
  8
0
 10
103.18455108119019
 20
68.862753492293379
 30
0.0
 11
104.1140510811902
 21
68.529086825631552
 31
0.0
  0
LINE
  5
11FE
  8
0
 10
104.2195510811902
 20
68.491215030760301
 30
0.0
 11
105.14905108119019
 21
68.157548364098474
 31
0.0
  0
LINE
  5
11FF
  8
0
 10
105.2545510811903
 20
68.119676569227224
 30
0.0
 11
106.1840510811902
 21
67.786009902565382
 31
0.0
  0
LINE
  5
1200
  8
0
 10
106.2895510811902
 20
67.748138107694146
 30
0.0
 11
107.2190510811902
 21
67.414471441032305
 31
0.0
  0
LINE
  5
1201
  8
0
 10
107.32455108119029
 20
67.376599646161054
 30
0.0
 11
108.2540510811902
 21
67.042932979499227
 31
0.0
  0
LINE
  5
1202
  8
0
 10
108.3595510811902
 20
67.005061184627976
 30
0.0
 11
109.28905108119019
 21
66.671394517966135
 31
0.0
  0
LINE
  5
1203
  8
0
 10
109.3945510811902
 20
66.633522723094899
 30
0.0
 11
110.32405108119021
 21
66.299856056433072
 31
0.0
  0
LINE
  5
1204
  8
0
 10
110.4295510811902
 20
66.261984261561821
 30
0.0
 11
111.3590510811902
 21
65.928317594899994
 31
0.0
  0
LINE
  5
1205
  8
0
 10
111.3590510811902
 20
66.127532492499995
 30
0.0
 11
110.4295510811902
 21
66.46119915916961
 31
0.0
  0
LINE
  5
1206
  8
0
 10
110.32405108119021
 20
66.499070954041741
 30
0.0
 11
109.3945510811902
 21
66.832737620711384
 31
0.0
  0
LINE
  5
1207
  8
0
 10
109.28905108119019
 20
66.870609415583516
 30
0.0
 11
108.3595510811902
 21
67.204276082253131
 31
0.0
  0
LINE
  5
1208
  8
0
 10
108.2540510811902
 20
67.242147877125262
 30
0.0
 11
107.32455108119029
 21
67.575814543794905
 31
0.0
  0
LINE
  5
1209
  8
0
 10
107.2190510811902
 20
67.613686338667037
 30
0.0
 11
106.2895510811902
 21
67.947353005336652
 31
0.0
  0
LINE
  5
120A
  8
0
 10
106.1840510811902
 20
67.985224800208783
 30
0.0
 11
105.2545510811903
 21
68.318891466878426
 31
0.0
  0
LINE
  5
120B
  8
0
 10
105.14905108119019
 20
68.356763261750544
 30
0.0
 11
104.2195510811902
 21
68.690429928420173
 31
0.0
  0
LINE
  5
120C
  8
0
 10
104.1140510811902
 20
68.728301723292304
 30
0.0
 11
103.18455108119019
 21
69.061968389961933
 31
0.0
  0
LINE
  5
120D
  8
0
 10
103.0790510811902
 20
69.099840184834065
 30
0.0
 11
102.1495510811902
 21
69.433506851503694
 31
0.0
  0
LINE
  5
120E
  8
0
 10
102.0440510811902
 20
69.471378646375825
 30
0.0
 11
101.1145510811902
 21
69.805045313045454
 31
0.0
  0
LINE
  5
120F
  8
0
 10
101.00905108119019
 20
69.842917107917586
 30
0.0
 11
100.0936718314902
 21
70.171514787299984
 31
0.0
  0
LINE
  5
1210
  8
0
 10
111.29881093307699
 20
65.35876478729999
 30
0.0
 11
110.4295510811902
 21
65.35876478729999
 31
0.0
  0
LINE
  5
1211
  8
0
 10
110.32405108119021
 20
65.35876478729999
 30
0.0
 11
109.3945510811902
 21
65.35876478729999
 31
0.0
  0
LINE
  5
1212
  8
0
 10
109.28905108119019
 20
65.35876478729999
 30
0.0
 11
108.3595510811902
 21
65.35876478729999
 31
0.0
  0
LINE
  5
1213
  8
0
 10
108.2540510811902
 20
65.35876478729999
 30
0.0
 11
107.32455108119029
 21
65.35876478729999
 31
0.0
  0
LINE
  5
1214
  8
0
 10
107.2190510811902
 20
65.35876478729999
 30
0.0
 11
106.2895510811902
 21
65.35876478729999
 31
0.0
  0
LINE
  5
1215
  8
0
 10
106.1840510811902
 20
65.35876478729999
 30
0.0
 11
105.2545510811903
 21
65.35876478729999
 31
0.0
  0
LINE
  5
1216
  8
0
 10
105.14905108119019
 20
65.35876478729999
 30
0.0
 11
104.2195510811902
 21
65.35876478729999
 31
0.0
  0
LINE
  5
1217
  8
0
 10
104.1140510811902
 20
65.35876478729999
 30
0.0
 11
103.18455108119019
 21
65.35876478729999
 31
0.0
  0
LINE
  5
1218
  8
0
 10
103.0790510811902
 20
65.35876478729999
 30
0.0
 11
102.1495510811902
 21
65.35876478729999
 31
0.0
  0
LINE
  5
1219
  8
0
 10
102.0440510811902
 20
65.35876478729999
 30
0.0
 11
101.1145510811902
 21
65.35876478729999
 31
0.0
  0
LINE
  5
121A
  8
0
 10
101.00905108119019
 20
65.35876478729999
 30
0.0
 11
100.0795510811902
 21
65.35876478729999
 31
0.0
  0
LINE
  5
121B
  8
0
 10
99.974051081190254
 20
65.35876478729999
 30
0.0
 11
99.046801081190267
 21
65.35876478729999
 31
0.0
  0
LINE
  5
121C
  8
0
 10
111.29881093307699
 20
65.171264787299975
 30
0.0
 11
110.4295510811902
 21
65.171264787299975
 31
0.0
  0
LINE
  5
121D
  8
0
 10
110.32405108119021
 20
65.171264787299975
 30
0.0
 11
109.3945510811902
 21
65.171264787299975
 31
0.0
  0
LINE
  5
121E
  8
0
 10
109.28905108119019
 20
65.171264787299975
 30
0.0
 11
108.3595510811902
 21
65.171264787299975
 31
0.0
  0
LINE
  5
121F
  8
0
 10
108.2540510811902
 20
65.171264787299975
 30
0.0
 11
107.32455108119029
 21
65.171264787299975
 31
0.0
  0
LINE
  5
1220
  8
0
 10
107.2190510811902
 20
65.171264787299975
 30
0.0
 11
106.2895510811902
 21
65.171264787299975
 31
0.0
  0
LINE
  5
1221
  8
0
 10
106.1840510811902
 20
65.171264787299975
 30
0.0
 11
105.2545510811903
 21
65.171264787299975
 31
0.0
  0
LINE
  5
1222
  8
0
 10
105.14905108119019
 20
65.171264787299975
 30
0.0
 11
104.2195510811902
 21
65.171264787299975
 31
0.0
  0
LINE
  5
1223
  8
0
 10
104.1140510811902
 20
65.171264787299975
 30
0.0
 11
103.18455108119019
 21
65.171264787299975
 31
0.0
  0
LINE
  5
1224
  8
0
 10
103.0790510811902
 20
65.171264787299975
 30
0.0
 11
102.1495510811902
 21
65.171264787299975
 31
0.0
  0
LINE
  5
1225
  8
0
 10
102.0440510811902
 20
65.171264787299975
 30
0.0
 11
101.1145510811902
 21
65.171264787299975
 31
0.0
  0
LINE
  5
1226
  8
0
 10
101.00905108119019
 20
65.171264787299975
 30
0.0
 11
100.0795510811902
 21
65.171264787299975
 31
0.0
  0
LINE
  5
1227
  8
0
 10
99.974051081190254
 20
65.171264787299975
 30
0.0
 11
99.046801081190267
 21
65.171264787299975
 31
0.0
  0
LINE
  5
1228
  8
0
 10
99.046801081190267
 20
55.082001767499989
 30
0.0
 11
99.974051081190254
 21
55.743402764701401
 31
0.0
  0
LINE
  5
1229
  8
0
 10
100.0795510811902
 20
55.818655183363852
 30
0.0
 11
101.00905108119019
 21
56.481661089968
 31
0.0
  0
LINE
  5
122A
  8
0
 10
101.1145510811902
 20
56.556913508630451
 30
0.0
 11
102.0440510811902
 21
57.219919415234607
 31
0.0
  0
LINE
  5
122B
  8
0
 10
102.1495510811902
 20
57.295171833897058
 30
0.0
 11
103.0790510811902
 21
57.95817774050122
 31
0.0
  0
LINE
  5
122C
  8
0
 10
103.18455108119019
 20
58.033430159163657
 30
0.0
 11
104.1140510811902
 21
58.696436065767827
 31
0.0
  0
LINE
  5
122D
  8
0
 10
104.2195510811902
 20
58.771688484430271
 30
0.0
 11
105.14905108119019
 21
59.434694391034441
 31
0.0
  0
LINE
  5
122E
  8
0
 10
105.2545510811903
 20
59.509946809696871
 30
0.0
 11
106.1840510811902
 21
60.17295271630104
 31
0.0
  0
LINE
  5
122F
  8
0
 10
106.2895510811902
 20
60.248205134963477
 30
0.0
 11
107.2190510811902
 21
60.91121104156764
 31
0.0
  0
LINE
  5
1230
  8
0
 10
107.32455108119029
 20
60.986463460230077
 30
0.0
 11
108.2540510811902
 21
61.649469366834253
 31
0.0
  0
LINE
  5
1231
  8
0
 10
108.3595510811902
 20
61.724721785496698
 30
0.0
 11
109.28905108119019
 21
62.38772769210086
 31
0.0
  0
LINE
  5
1232
  8
0
 10
109.3945510811902
 20
62.462980110763297
 30
0.0
 11
110.32405108119021
 21
63.125986017367467
 31
0.0
  0
LINE
  5
1233
  8
0
 10
110.4295510811902
 20
63.201238436029911
 30
0.0
 11
111.3590510811902
 21
63.864244342634073
 31
0.0
  0
LINE
  5
1234
  8
0
 10
111.46455108119019
 20
63.93949676129651
 30
0.0
 11
111.65140960429019
 21
64.072781650499991
 31
0.0
  0
LINE
  5
1235
  8
0
 10
99.075263576490272
 20
54.871992572199993
 30
0.0
 11
99.974051081190254
 21
55.513091468817002
 31
0.0
  0
LINE
  5
1236
  8
0
 10
100.0795510811902
 20
55.588343887480377
 30
0.0
 11
101.00905108119019
 21
56.251349794092768
 31
0.0
  0
LINE
  5
1237
  8
0
 10
101.1145510811902
 20
56.326602212756143
 30
0.0
 11
102.0440510811902
 21
56.989608119368533
 31
0.0
  0
LINE
  5
1238
  8
0
 10
102.1495510811902
 20
57.064860538031908
 30
0.0
 11
103.0790510811902
 21
57.727866444644299
 31
0.0
  0
LINE
  5
1239
  8
0
 10
103.18455108119019
 20
57.803118863307681
 30
0.0
 11
104.1140510811902
 21
58.466124769920071
 31
0.0
  0
LINE
  5
123A
  8
0
 10
104.2195510811902
 20
58.541377188583439
 30
0.0
 11
105.14905108119019
 21
59.204383095195837
 31
0.0
  0
LINE
  5
123B
  8
0
 10
105.2545510811903
 20
59.279635513859212
 30
0.0
 11
106.1840510811902
 21
59.942641420471602
 31
0.0
  0
LINE
  5
123C
  8
0
 10
106.2895510811902
 20
60.01789383913497
 30
0.0
 11
107.2190510811902
 21
60.680899745747361
 31
0.0
  0
LINE
  5
123D
  8
0
 10
107.32455108119029
 20
60.756152164410729
 30
0.0
 11
108.2540510811902
 21
61.419158071023134
 31
0.0
  0
LINE
  5
123E
  8
0
 10
108.3595510811902
 20
61.494410489686501
 30
0.0
 11
109.28905108119019
 21
62.157416396298892
 31
0.0
  0
LINE
  5
123F
  8
0
 10
109.3945510811902
 20
62.232668814962281
 30
0.0
 11
110.32405108119021
 21
62.895674721574657
 31
0.0
  0
LINE
  5
1240
  8
0
 10
110.4295510811902
 20
62.970927140238039
 30
0.0
 11
111.3590510811902
 21
63.63393304685043
 31
0.0
  0
LINE
  5
1241
  8
0
 10
111.46455108119019
 20
63.709185465513791
 30
0.0
 11
111.75950053848329
 21
63.919570868781634
 31
0.0
  0
LINE
  5
1242
  8
0
 10
112.49955108119021
 20
54.608514787299981
 30
0.0
 11
112.49955108119021
 21
63.31170383215229
 31
0.0
  0
LINE
  5
1243
  8
0
 10
112.49955108119021
 20
67.218325742447689
 30
0.0
 11
112.49955108119021
 21
70.171514787299927
 31
0.0
  0
LINE
  5
1244
  8
0
 10
112.3940510811902
 20
54.608514787299981
 30
0.0
 11
112.3940510811902
 21
63.368567796872888
 31
0.0
  0
LINE
  5
1245
  8
0
 10
112.3940510811902
 20
67.161461777727084
 30
0.0
 11
112.3940510811902
 21
70.171514787299927
 31
0.0
  0
LINE
  5
1246
  8
0
 10
113.5370510811902
 20
54.608514787299981
 30
0.0
 11
113.5370297809402
 21
54.971091472299982
 31
0.0
  0
LINE
  5
1247
  8
0
 10
113.5370297809402
 20
55.245591472299992
 30
0.0
 11
113.537042420143
 21
63.078150685174421
 31
0.0
  0
LINE
  5
1248
  8
0
 10
113.53704947791741
 20
67.451878719199442
 30
0.0
 11
113.5370510811902
 21
68.445432665093122
 31
0.0
  0
LINE
  5
1249
  8
0
 10
113.43155108119019
 20
54.608514787299981
 30
0.0
 11
113.43155108119019
 21
54.972590379460172
 31
0.0
  0
LINE
  5
124A
  8
0
 10
113.43155108119019
 20
55.244092565139781
 30
0.0
 11
113.4315530256174
 21
63.078150847171742
 31
0.0
  0
LINE
  5
124B
  8
0
 10
113.4315541111843
 20
67.451878753612291
 30
0.0
 11
113.4315543576402
 21
68.444844740999983
 31
0.0
  0
ARC
  5
124C
  8
0
 10
101.06443036302549
 20
68.595014787749989
 30
0.0
 40
0.331325201595121
 50
99.621852512896083
 51
260.37814748710389
  0
ARC
  5
124D
  8
0
 10
101.22212673189139
 20
68.595014786599421
 30
0.0
 40
0.2908843938011701
 50
137.10352517272921
 51
222.89647508929511
  0
ARC
  5
124E
  8
0
 10
101.0618010811902
 20
68.457764787299993
 30
0.0
 40
0.0527499999999988
 50
0.0000000000020356
 51
180.0
  0
ARC
  5
124F
  8
0
 10
101.0618010811902
 20
68.732264787299997
 30
0.0
 40
0.0527499999999996
 50
180.0
 51
0.0
  0
LINE
  5
1250
  8
0
 10
101.11180108119019
 20
68.715455191825981
 30
0.0
 11
101.11180108119019
 21
68.680014787299996
 31
0.0
  0
ARC
  5
1251
  8
0
 10
101.1975153668479
 20
68.595014787275787
 30
0.0
 40
0.1207142856570507
 50
135.3700921604092
 51
224.76027011467519
  0
LINE
  5
1252
  8
0
 10
101.11180108119019
 20
68.510014787299994
 30
0.0
 11
101.11180108119019
 21
68.474574382773994
 31
0.0
  0
LINE
  5
1253
  8
0
 10
101.0118010811902
 20
68.715455191825981
 30
0.0
 11
101.0118010811902
 21
68.680014787299996
 31
0.0
  0
ARC
  5
1254
  8
0
 10
100.9260867955325
 20
68.595014787275787
 30
0.0
 40
0.1207142856570507
 50
315.23972988532478
 51
44.629907839590743
  0
LINE
  5
1255
  8
0
 10
101.0118010811902
 20
68.510014787299994
 30
0.0
 11
101.0118010811902
 21
68.474574382773994
 31
0.0
  0
ARC
  5
1256
  8
0
 10
101.0591717993549
 20
68.595014787749989
 30
0.0
 40
0.331325201595121
 50
279.621852512896
 51
80.378147487103917
  0
ARC
  5
1257
  8
0
 10
100.9014754304891
 20
68.595014786599421
 30
0.0
 40
0.2908843938011701
 50
317.10352491070489
 51
42.896474827270723
  0
ARC
  5
1258
  8
0
 10
113.4869336394755
 20
68.582094741449993
 30
0.0
 40
0.331325201595121
 50
99.621852512896083
 51
260.37814748710389
  0
ARC
  5
1259
  8
0
 10
113.64463000834139
 20
68.582094740299425
 30
0.0
 40
0.2908843938011701
 50
137.10352517272921
 51
222.89647508929511
  0
ARC
  5
125A
  8
0
 10
113.4843043576402
 20
68.444844740999983
 30
0.0
 40
0.0527499999999988
 50
0.0000000000020356
 51
180.0
  0
ARC
  5
125B
  8
0
 10
113.4843043576402
 20
68.719344740999986
 30
0.0
 40
0.0527499999999996
 50
180.0
 51
0.0
  0
LINE
  5
125C
  8
0
 10
113.5343043576402
 20
68.702535145525985
 30
0.0
 11
113.5343043576402
 21
68.667094740999985
 31
0.0
  0
ARC
  5
125D
  8
0
 10
113.6200186432979
 20
68.582094740975776
 30
0.0
 40
0.1207142856570507
 50
135.3700921604092
 51
224.76027011467519
  0
LINE
  5
125E
  8
0
 10
113.5343043576402
 20
68.497094740999984
 30
0.0
 11
113.5343043576402
 21
68.461654336473984
 31
0.0
  0
LINE
  5
125F
  8
0
 10
113.4343043576402
 20
68.702535145525985
 30
0.0
 11
113.4343043576402
 21
68.667094740999985
 31
0.0
  0
ARC
  5
1260
  8
0
 10
113.3485900719825
 20
68.582094740975776
 30
0.0
 40
0.1207142856570507
 50
315.23972988532478
 51
44.629907839590743
  0
LINE
  5
1261
  8
0
 10
113.4343043576402
 20
68.497094740999984
 30
0.0
 11
113.4343043576402
 21
68.461654336473984
 31
0.0
  0
ARC
  5
1262
  8
0
 10
113.4816750758049
 20
68.582094741449993
 30
0.0
 40
0.331325201595121
 50
279.621852512896
 51
80.378147487103917
  0
ARC
  5
1263
  8
0
 10
113.323978706939
 20
68.582094740299425
 30
0.0
 40
0.2908843938011701
 50
317.10352491070489
 51
42.896474827270723
  0
ARC
  5
1264
  8
0
 10
101.06443036302549
 20
55.114764787749991
 30
0.0
 40
0.331325201595121
 50
99.621852512896083
 51
260.37814748710389
  0
ARC
  5
1265
  8
0
 10
101.22212673189139
 20
55.114764786599409
 30
0.0
 40
0.2908843938011701
 50
137.10352517272921
 51
222.89647508929511
  0
ARC
  5
1266
  8
0
 10
101.0618010811902
 20
54.977514787299988
 30
0.0
 40
0.0527499999999988
 50
0.0000000000020356
 51
180.0
  0
ARC
  5
1267
  8
0
 10
101.0618010811902
 20
55.252014787299991
 30
0.0
 40
0.0527499999999996
 50
180.0
 51
0.0
  0
LINE
  5
1268
  8
0
 10
101.11180108119019
 20
55.235205191825983
 30
0.0
 11
101.11180108119019
 21
55.199764787299991
 31
0.0
  0
ARC
  5
1269
  8
0
 10
101.1975153668479
 20
55.114764787275782
 30
0.0
 40
0.1207142856570507
 50
135.3700921604092
 51
224.76027011467519
  0
LINE
  5
126A
  8
0
 10
101.11180108119019
 20
55.029764787299989
 30
0.0
 11
101.11180108119019
 21
54.994324382773989
 31
0.0
  0
LINE
  5
126B
  8
0
 10
101.0118010811902
 20
55.235205191825983
 30
0.0
 11
101.0118010811902
 21
55.199764787299991
 31
0.0
  0
ARC
  5
126C
  8
0
 10
100.9260867955325
 20
55.114764787275782
 30
0.0
 40
0.1207142856570507
 50
315.23972988532478
 51
44.629907839590743
  0
LINE
  5
126D
  8
0
 10
101.0118010811902
 20
55.029764787299989
 30
0.0
 11
101.0118010811902
 21
54.994324382773989
 31
0.0
  0
ARC
  5
126E
  8
0
 10
101.0591717993549
 20
55.114764787749991
 30
0.0
 40
0.331325201595121
 50
279.621852512896
 51
80.378147487103917
  0
ARC
  5
126F
  8
0
 10
100.9014754304891
 20
55.114764786599409
 30
0.0
 40
0.2908843938011701
 50
317.10352491070489
 51
42.896474827270723
  0
ARC
  5
1270
  8
0
 10
113.4869090627755
 20
55.108341472749991
 30
0.0
 40
0.331325201595121
 50
99.621852512896083
 51
260.37814748710389
  0
ARC
  5
1271
  8
0
 10
113.64460543164139
 20
55.108341471599417
 30
0.0
 40
0.2908843938011701
 50
137.10352517272921
 51
222.89647508929511
  0
ARC
  5
1272
  8
0
 10
113.4842797809402
 20
54.971091472299982
 30
0.0
 40
0.0527499999999988
 50
0.0000000000020356
 51
180.0
  0
ARC
  5
1273
  8
0
 10
113.4842797809402
 20
55.245591472299992
 30
0.0
 40
0.0527499999999996
 50
180.0
 51
0.0
  0
LINE
  5
1274
  8
0
 10
113.5342797809402
 20
55.22878187682597
 30
0.0
 11
113.5342797809402
 21
55.193341472299991
 31
0.0
  0
ARC
  5
1275
  8
0
 10
113.6199940665979
 20
55.108341472275782
 30
0.0
 40
0.1207142856570507
 50
135.3700921604092
 51
224.76027011467519
  0
LINE
  5
1276
  8
0
 10
113.5342797809402
 20
55.02334147229999
 30
0.0
 11
113.5342797809402
 21
54.98790106777399
 31
0.0
  0
LINE
  5
1277
  8
0
 10
113.4342797809402
 20
55.22878187682597
 30
0.0
 11
113.4342797809402
 21
55.193341472299991
 31
0.0
  0
ARC
  5
1278
  8
0
 10
113.3485654952826
 20
55.108341472275782
 30
0.0
 40
0.1207142856570507
 50
315.23972988532478
 51
44.629907839590743
  0
LINE
  5
1279
  8
0
 10
113.4342797809402
 20
55.02334147229999
 30
0.0
 11
113.4342797809402
 21
54.98790106777399
 31
0.0
  0
ARC
  5
127A
  8
0
 10
113.4816504991049
 20
55.108341472749991
 30
0.0
 40
0.331325201595121
 50
279.621852512896
 51
80.378147487103917
  0
ARC
  5
127B
  8
0
 10
113.3239541302391
 20
55.108341471599417
 30
0.0
 40
0.2908843938011701
 50
317.10352491070489
 51
42.896474827270723
  0
ARC
  5
127C
  8
0
 10
127.5093010811902
 20
69.759014787299989
 30
0.0
 40
0.6000000000000015
 50
0.0000000000004071
 51
90.0
  0
LINE
  5
127D
  8
0
 10
128.10930108119021
 20
69.759014787299989
 30
0.0
 11
128.10930108119021
 21
55.02101478729999
 31
0.0
  0
ARC
  5
127E
  8
0
 10
127.5093010811902
 20
55.02101478729999
 30
0.0
 40
0.6000000000000015
 50
270.0
 51
0.0
  0
ARC
  5
127F
  8
0
 10
127.5093010811902
 20
55.02101478729999
 30
0.0
 40
0.4125000000000006
 50
270.0
 51
0.0
  0
LINE
  5
1280
  8
0
 10
127.9218010811902
 20
55.02101478729999
 30
0.0
 11
127.9218010811902
 21
69.759014787299989
 31
0.0
  0
ARC
  5
1281
  8
0
 10
127.5093010811902
 20
69.759014787299989
 30
0.0
 40
0.4124999999999979
 50
0.0
 51
90.0
  0
LINE
  5
1282
  8
0
 10
126.8890510811903
 20
54.608514787299988
 30
0.0
 11
126.8890510811903
 21
70.171514787299856
 31
0.0
  0
LINE
  5
1283
  8
0
 10
126.9945510811902
 20
54.608514787299988
 30
0.0
 11
126.9945510811902
 21
70.171514787299856
 31
0.0
  0
LINE
  5
1284
  8
0
 10
125.85405108119021
 20
54.608514787299988
 30
0.0
 11
125.85405108119021
 21
54.977514787299988
 31
0.0
  0
LINE
  5
1285
  8
0
 10
125.85405108119021
 20
55.252014787299991
 30
0.0
 11
125.85405108119021
 21
68.457764787299993
 31
0.0
  0
LINE
  5
1286
  8
0
 10
125.85405108119021
 20
68.732264787299997
 30
0.0
 11
125.85405108119021
 21
70.171514787299984
 31
0.0
  0
LINE
  5
1287
  8
0
 10
125.9595510811902
 20
54.608514787299988
 30
0.0
 11
125.9595510811902
 21
54.977514787299988
 31
0.0
  0
LINE
  5
1288
  8
0
 10
125.9595510811902
 20
55.252014787299991
 30
0.0
 11
125.9595510811902
 21
68.457764787299993
 31
0.0
  0
LINE
  5
1289
  8
0
 10
125.9595510811902
 20
68.732264787299997
 30
0.0
 11
125.9595510811902
 21
70.171514787299984
 31
0.0
  0
LINE
  5
128A
  8
0
 10
124.8190510811902
 20
54.608514787299988
 30
0.0
 11
124.8190510811902
 21
70.17151478729987
 31
0.0
  0
LINE
  5
128B
  8
0
 10
124.9245510811902
 20
54.608514787299988
 30
0.0
 11
124.9245510811902
 21
70.17151478729987
 31
0.0
  0
LINE
  5
128C
  8
0
 10
123.7840510811902
 20
54.608514787299988
 30
0.0
 11
123.7840510811902
 21
70.17151478729987
 31
0.0
  0
LINE
  5
128D
  8
0
 10
123.88955108119021
 20
54.608514787299988
 30
0.0
 11
123.88955108119021
 21
70.171514787299884
 31
0.0
  0
LINE
  5
128E
  8
0
 10
122.7490510811902
 20
54.608514787299988
 30
0.0
 11
122.7490510811902
 21
70.171514787299884
 31
0.0
  0
LINE
  5
128F
  8
0
 10
122.85455108119019
 20
54.608514787299988
 30
0.0
 11
122.85455108119019
 21
70.171514787299884
 31
0.0
  0
LINE
  5
1290
  8
0
 10
121.71405108119021
 20
54.608514787299988
 30
0.0
 11
121.71405108119021
 21
70.171514787299884
 31
0.0
  0
LINE
  5
1291
  8
0
 10
121.8195510811902
 20
54.608514787299988
 30
0.0
 11
121.8195510811902
 21
70.171514787299884
 31
0.0
  0
LINE
  5
1292
  8
0
 10
120.6790510811902
 20
54.608514787299988
 30
0.0
 11
120.6790510811902
 21
70.171514787299884
 31
0.0
  0
LINE
  5
1293
  8
0
 10
120.7845510811902
 20
54.608514787299988
 30
0.0
 11
120.7845510811902
 21
70.171514787299898
 31
0.0
  0
LINE
  5
1294
  8
0
 10
119.6440510811902
 20
54.608514787299988
 30
0.0
 11
119.6440510811902
 21
70.171514787299898
 31
0.0
  0
LINE
  5
1295
  8
0
 10
119.74955108119021
 20
54.608514787299988
 30
0.0
 11
119.74955108119021
 21
70.171514787299898
 31
0.0
  0
LINE
  5
1296
  8
0
 10
118.6090510811902
 20
54.608514787299988
 30
0.0
 11
118.6090510811902
 21
70.171514787299898
 31
0.0
  0
LINE
  5
1297
  8
0
 10
118.71455108119019
 20
54.608514787299988
 30
0.0
 11
118.71455108119019
 21
70.171514787299898
 31
0.0
  0
LINE
  5
1298
  8
0
 10
117.57405108119021
 20
54.608514787299988
 30
0.0
 11
117.57405108119021
 21
70.171514787299913
 31
0.0
  0
LINE
  5
1299
  8
0
 10
117.6795510811902
 20
54.608514787299988
 30
0.0
 11
117.6795510811902
 21
70.171514787299913
 31
0.0
  0
LINE
  5
129A
  8
0
 10
116.53905108119019
 20
54.608514787299988
 30
0.0
 11
116.53905108119019
 21
70.171514787299913
 31
0.0
  0
LINE
  5
129B
  8
0
 10
116.6445510811902
 20
54.608514787299988
 30
0.0
 11
116.6445510811902
 21
70.171514787299913
 31
0.0
  0
LINE
  5
129C
  8
0
 10
115.5040510811902
 20
54.608514787299988
 30
0.0
 11
115.5040510811902
 21
64.424915871992994
 31
0.0
  0
LINE
  5
129D
  8
0
 10
115.6095510811902
 20
54.608514787299988
 30
0.0
 11
115.6095510811902
 21
64.746875146372943
 31
0.0
  0
LINE
  5
129E
  8
0
 10
127.4298861173329
 20
70.171514787299984
 30
0.0
 11
126.9945510811902
 21
70.015240671763863
 31
0.0
  0
LINE
  5
129F
  8
0
 10
126.8890510811903
 20
69.977368876892626
 30
0.0
 11
125.9595510811902
 21
69.643702210230785
 31
0.0
  0
LINE
  5
12A0
  8
0
 10
125.85405108119021
 20
69.605830415359534
 30
0.0
 11
124.9245510811902
 21
69.272163748697707
 31
0.0
  0
LINE
  5
12A1
  8
0
 10
124.8190510811902
 20
69.234291953826457
 30
0.0
 11
123.88955108119021
 21
68.900625287164615
 31
0.0
  0
LINE
  5
12A2
  8
0
 10
123.7840510811902
 20
68.862753492293379
 30
0.0
 11
122.85455108119019
 21
68.529086825631552
 31
0.0
  0
LINE
  5
12A3
  8
0
 10
122.7490510811902
 20
68.491215030760301
 30
0.0
 11
121.8195510811902
 21
68.157548364098474
 31
0.0
  0
LINE
  5
12A4
  8
0
 10
121.71405108119021
 20
68.119676569227224
 30
0.0
 11
120.7845510811902
 21
67.786009902565382
 31
0.0
  0
LINE
  5
12A5
  8
0
 10
120.6790510811902
 20
67.748138107694146
 30
0.0
 11
119.74955108119021
 21
67.414471441032305
 31
0.0
  0
LINE
  5
12A6
  8
0
 10
119.6440510811902
 20
67.376599646161054
 30
0.0
 11
118.71455108119019
 21
67.042932979499227
 31
0.0
  0
LINE
  5
12A7
  8
0
 10
118.6090510811902
 20
67.005061184627976
 30
0.0
 11
117.6795510811902
 21
66.671394517966135
 31
0.0
  0
LINE
  5
12A8
  8
0
 10
117.57405108119021
 20
66.633522723094899
 30
0.0
 11
116.6445510811902
 21
66.299856056433072
 31
0.0
  0
LINE
  5
12A9
  8
0
 10
116.53905108119019
 20
66.261984261561821
 30
0.0
 11
115.6095510811902
 21
65.928317594899994
 31
0.0
  0
LINE
  5
12AA
  8
0
 10
115.6095510811902
 20
66.127532492499995
 30
0.0
 11
116.53905108119019
 21
66.46119915916961
 31
0.0
  0
LINE
  5
12AB
  8
0
 10
116.6445510811902
 20
66.499070954041741
 30
0.0
 11
117.57405108119021
 21
66.832737620711384
 31
0.0
  0
LINE
  5
12AC
  8
0
 10
117.6795510811902
 20
66.870609415583516
 30
0.0
 11
118.6090510811902
 21
67.204276082253131
 31
0.0
  0
LINE
  5
12AD
  8
0
 10
118.71455108119019
 20
67.242147877125262
 30
0.0
 11
119.6440510811902
 21
67.575814543794905
 31
0.0
  0
LINE
  5
12AE
  8
0
 10
119.74955108119021
 20
67.613686338667037
 30
0.0
 11
120.6790510811902
 21
67.947353005336652
 31
0.0
  0
LINE
  5
12AF
  8
0
 10
120.7845510811902
 20
67.985224800208783
 30
0.0
 11
121.71405108119021
 21
68.318891466878426
 31
0.0
  0
LINE
  5
12B0
  8
0
 10
121.8195510811902
 20
68.356763261750544
 30
0.0
 11
122.7490510811902
 21
68.690429928420173
 31
0.0
  0
LINE
  5
12B1
  8
0
 10
122.85455108119019
 20
68.728301723292304
 30
0.0
 11
123.7840510811902
 21
69.061968389961933
 31
0.0
  0
LINE
  5
12B2
  8
0
 10
123.88955108119021
 20
69.099840184834065
 30
0.0
 11
124.8190510811902
 21
69.433506851503694
 31
0.0
  0
LINE
  5
12B3
  8
0
 10
124.9245510811902
 20
69.471378646375825
 30
0.0
 11
125.85405108119021
 21
69.805045313045454
 31
0.0
  0
LINE
  5
12B4
  8
0
 10
125.9595510811902
 20
69.842917107917586
 30
0.0
 11
126.87493033089029
 21
70.171514787299984
 31
0.0
  0
LINE
  5
12B5
  8
0
 10
115.6697912293035
 20
65.35876478729999
 30
0.0
 11
127.9218010811902
 21
65.35876478729999
 31
0.0
  0
LINE
  5
12B6
  8
0
 10
115.6697912293035
 20
65.171264787299975
 30
0.0
 11
127.9218010811902
 21
65.171264787299975
 31
0.0
  0
LINE
  5
12B7
  8
0
 10
127.9218010811902
 20
55.082001767499989
 30
0.0
 11
126.9945510811902
 21
55.743402764701401
 31
0.0
  0
LINE
  5
12B8
  8
0
 10
126.8890510811903
 20
55.818655183363852
 30
0.0
 11
125.9595510811902
 21
56.481661089968
 31
0.0
  0
LINE
  5
12B9
  8
0
 10
125.85405108119021
 20
56.556913508630451
 30
0.0
 11
124.9245510811902
 21
57.219919415234607
 31
0.0
  0
LINE
  5
12BA
  8
0
 10
124.8190510811902
 20
57.295171833897058
 30
0.0
 11
123.88955108119021
 21
57.95817774050122
 31
0.0
  0
LINE
  5
12BB
  8
0
 10
123.7840510811902
 20
58.033430159163657
 30
0.0
 11
122.85455108119019
 21
58.696436065767827
 31
0.0
  0
LINE
  5
12BC
  8
0
 10
122.7490510811902
 20
58.771688484430271
 30
0.0
 11
121.8195510811902
 21
59.434694391034441
 31
0.0
  0
LINE
  5
12BD
  8
0
 10
121.71405108119021
 20
59.509946809696871
 30
0.0
 11
120.7845510811902
 21
60.17295271630104
 31
0.0
  0
LINE
  5
12BE
  8
0
 10
120.6790510811902
 20
60.248205134963477
 30
0.0
 11
119.74955108119021
 21
60.91121104156764
 31
0.0
  0
LINE
  5
12BF
  8
0
 10
119.6440510811902
 20
60.986463460230077
 30
0.0
 11
118.71455108119019
 21
61.649469366834253
 31
0.0
  0
LINE
  5
12C0
  8
0
 10
118.6090510811902
 20
61.724721785496698
 30
0.0
 11
117.6795510811902
 21
62.38772769210086
 31
0.0
  0
LINE
  5
12C1
  8
0
 10
117.57405108119021
 20
62.462980110763297
 30
0.0
 11
116.6445510811902
 21
63.125986017367467
 31
0.0
  0
LINE
  5
12C2
  8
0
 10
116.53905108119019
 20
63.201238436029911
 30
0.0
 11
115.6095510811902
 21
63.864244342634073
 31
0.0
  0
LINE
  5
12C3
  8
0
 10
115.5040510811902
 20
63.93949676129651
 30
0.0
 11
115.3171925580902
 21
64.072781650499991
 31
0.0
  0
LINE
  5
12C4
  8
0
 10
127.89333858589021
 20
54.871992572199993
 30
0.0
 11
126.9945510811902
 21
55.513091468817002
 31
0.0
  0
LINE
  5
12C5
  8
0
 10
126.8890510811903
 20
55.588343887480377
 30
0.0
 11
125.9595510811902
 21
56.251349794092768
 31
0.0
  0
LINE
  5
12C6
  8
0
 10
125.85405108119021
 20
56.326602212756143
 30
0.0
 11
124.9245510811902
 21
56.989608119368533
 31
0.0
  0
LINE
  5
12C7
  8
0
 10
124.8190510811902
 20
57.064860538031908
 30
0.0
 11
123.88955108119021
 21
57.727866444644299
 31
0.0
  0
LINE
  5
12C8
  8
0
 10
123.7840510811902
 20
57.803118863307681
 30
0.0
 11
122.85455108119019
 21
58.466124769920071
 31
0.0
  0
LINE
  5
12C9
  8
0
 10
122.7490510811902
 20
58.541377188583439
 30
0.0
 11
121.8195510811902
 21
59.204383095195837
 31
0.0
  0
LINE
  5
12CA
  8
0
 10
121.71405108119021
 20
59.279635513859212
 30
0.0
 11
120.7845510811902
 21
59.942641420471602
 31
0.0
  0
LINE
  5
12CB
  8
0
 10
120.6790510811902
 20
60.01789383913497
 30
0.0
 11
119.74955108119021
 21
60.680899745747361
 31
0.0
  0
LINE
  5
12CC
  8
0
 10
119.6440510811902
 20
60.756152164410729
 30
0.0
 11
118.71455108119019
 21
61.419158071023134
 31
0.0
  0
LINE
  5
12CD
  8
0
 10
118.6090510811902
 20
61.494410489686501
 30
0.0
 11
117.6795510811902
 21
62.157416396298892
 31
0.0
  0
LINE
  5
12CE
  8
0
 10
117.57405108119021
 20
62.232668814962281
 30
0.0
 11
116.6445510811902
 21
62.895674721574657
 31
0.0
  0
LINE
  5
12CF
  8
0
 10
116.53905108119019
 20
62.970927140238039
 30
0.0
 11
115.6095510811902
 21
63.63393304685043
 31
0.0
  0
LINE
  5
12D0
  8
0
 10
115.5040510811902
 20
63.709185465513791
 30
0.0
 11
115.2091016238971
 21
63.919570868781634
 31
0.0
  0
LINE
  5
12D1
  8
0
 10
114.4690510811902
 20
54.608514787299981
 30
0.0
 11
114.4690510811902
 21
63.31170383215229
 31
0.0
  0
LINE
  5
12D2
  8
0
 10
114.57455108119019
 20
54.608514787299981
 30
0.0
 11
114.57455108119019
 21
63.368567796872888
 31
0.0
  0
ARC
  5
12D3
  8
0
 10
125.9041717993549
 20
68.595014787749989
 30
0.0
 40
0.331325201595121
 50
279.621852512896
 51
80.378147487103917
  0
ARC
  5
12D4
  8
0
 10
125.7464754304891
 20
68.595014786599421
 30
0.0
 40
0.2908843938011701
 50
317.10352491070489
 51
42.896474827270723
  0
ARC
  5
12D5
  8
0
 10
125.9068010811902
 20
68.457764787299993
 30
0.0
 40
0.0527499999999988
 50
0.0
 51
179.9999999999979
  0
ARC
  5
12D6
  8
0
 10
125.9068010811902
 20
68.732264787299997
 30
0.0
 40
0.0527499999999996
 50
180.0
 51
0.0
  0
LINE
  5
12D7
  8
0
 10
125.8568010811902
 20
68.715455191825981
 30
0.0
 11
125.8568010811902
 21
68.680014787299996
 31
0.0
  0
ARC
  5
12D8
  8
0
 10
125.7710867955325
 20
68.595014787275787
 30
0.0
 40
0.1207142856570507
 50
315.23972988532478
 51
44.629907839590743
  0
LINE
  5
12D9
  8
0
 10
125.8568010811902
 20
68.510014787299994
 30
0.0
 11
125.8568010811902
 21
68.474574382773994
 31
0.0
  0
LINE
  5
12DA
  8
0
 10
125.95680108119021
 20
68.715455191825981
 30
0.0
 11
125.95680108119021
 21
68.680014787299996
 31
0.0
  0
ARC
  5
12DB
  8
0
 10
126.04251536684789
 20
68.595014787275787
 30
0.0
 40
0.1207142856570507
 50
135.3700921604092
 51
224.76027011467519
  0
LINE
  5
12DC
  8
0
 10
125.95680108119021
 20
68.510014787299994
 30
0.0
 11
125.95680108119021
 21
68.474574382773994
 31
0.0
  0
ARC
  5
12DD
  8
0
 10
125.90943036302551
 20
68.595014787749989
 30
0.0
 40
0.331325201595121
 50
99.621852512896083
 51
260.37814748710389
  0
ARC
  5
12DE
  8
0
 10
126.06712673189141
 20
68.595014786599421
 30
0.0
 40
0.2908843938011701
 50
137.10352517272921
 51
222.89647508929511
  0
ARC
  5
12DF
  8
0
 10
125.9041717993549
 20
55.114764787749991
 30
0.0
 40
0.331325201595121
 50
279.621852512896
 51
80.378147487103917
  0
ARC
  5
12E0
  8
0
 10
125.7464754304891
 20
55.114764786599409
 30
0.0
 40
0.2908843938011701
 50
317.10352491070489
 51
42.896474827270723
  0
ARC
  5
12E1
  8
0
 10
125.9068010811902
 20
54.977514787299988
 30
0.0
 40
0.0527499999999988
 50
0.0
 51
179.9999999999979
  0
ARC
  5
12E2
  8
0
 10
125.9068010811902
 20
55.252014787299991
 30
0.0
 40
0.0527499999999996
 50
180.0
 51
0.0
  0
LINE
  5
12E3
  8
0
 10
125.8568010811902
 20
55.235205191825983
 30
0.0
 11
125.8568010811902
 21
55.199764787299991
 31
0.0
  0
ARC
  5
12E4
  8
0
 10
125.7710867955325
 20
55.114764787275782
 30
0.0
 40
0.1207142856570507
 50
315.23972988532478
 51
44.629907839590743
  0
LINE
  5
12E5
  8
0
 10
125.8568010811902
 20
55.029764787299989
 30
0.0
 11
125.8568010811902
 21
54.994324382773989
 31
0.0
  0
LINE
  5
12E6
  8
0
 10
125.95680108119021
 20
55.235205191825983
 30
0.0
 11
125.95680108119021
 21
55.199764787299991
 31
0.0
  0
ARC
  5
12E7
  8
0
 10
126.04251536684789
 20
55.114764787275782
 30
0.0
 40
0.1207142856570507
 50
135.3700921604092
 51
224.76027011467519
  0
LINE
  5
12E8
  8
0
 10
125.95680108119021
 20
55.029764787299989
 30
0.0
 11
125.95680108119021
 21
54.994324382773989
 31
0.0
  0
ARC
  5
12E9
  8
0
 10
125.90943036302551
 20
55.114764787749991
 30
0.0
 40
0.331325201595121
 50
99.621852512896083
 51
260.37814748710389
  0
ARC
  5
12EA
  8
0
 10
126.06712673189141
 20
55.114764786599409
 30
0.0
 40
0.2908843938011701
 50
137.10352517272921
 51
222.89647508929511
  0
LINE
  5
12EB
  8
0
 10
113.5370543576402
 20
68.719344740999986
 30
0.0
 11
113.5370543576402
 21
70.171514787299927
 31
0.0
  0
LINE
  5
12EC
  8
0
 10
113.4315543576402
 20
68.719344740999986
 30
0.0
 11
113.4315543576402
 21
70.171514787299927
 31
0.0
  0
LINE
  5
12ED
  8
0
 10
115.5040510811902
 20
66.105113702606985
 30
0.0
 11
115.5040510811902
 21
70.171514787299941
 31
0.0
  0
LINE
  5
12EE
  8
0
 10
115.6095510811902
 20
65.783154428227022
 30
0.0
 11
115.6095510811902
 21
70.171514787299941
 31
0.0
  0
LINE
  5
12EF
  8
0
 10
114.4690510811902
 20
67.218325742447689
 30
0.0
 11
114.4690510811902
 21
70.171514787299927
 31
0.0
  0
LINE
  5
12F0
  8
0
 10
114.57455108119019
 20
67.161461777727084
 30
0.0
 11
114.57455108119019
 21
70.171514787299927
 31
0.0
  0
LINE
  5
133C
  8
DEFPOINTS
 10
113.48430109237231
 20
72.295014781858455
 30
0.0
 11
113.48430109237231
 21
72.295014781858455
 31
0.0
  0
ENDSEC
  0
EOF
