  0
SECTION
  2
HEADER
  9
$ACADVER
  1
AC1009
  9
$INSBASE
 10
150.98867433609021
 20
37.526605768899998
 30
0.0
  9
$EXTMIN
 10
139.98267561451939
 20
28.056772420215282
 30
-0.0015258207003583
  9
$EXTMAX
 10
161.9936182152797
 20
37.527751077398079
 30
0.0000000349246037
  9
$LIMMIN
 10
0.0
 20
0.0
  9
$LIMMAX
 10
22.0
 20
17.0
  9
$ORTHOMODE
 70
     0
  9
$REGENMODE
 70
     1
  9
$FILLMODE
 70
     1
  9
$QTEXTMODE
 70
     0
  9
$MIRRTEXT
 70
     0
  9
$DRAGMODE
 70
     2
  9
$LTSCALE
 40
1.2099999999999991
  9
$OSMODE
 70
   231
  9
$ATTMODE
 70
     1
  9
$TEXTSIZE
 40
0.2
  9
$TRACEWID
 40
0.05
  9
$TEXTSTYLE
  7
STANDARD
  9
$CLAYER
  8
0
  9
$CELTYPE
  6
BYLAYER
  9
$CECOLOR
 62
   256
  9
$DIMSCALE
 40
1.0
  9
$DIMASZ
 40
0.1875
  9
$DIMEXO
 40
0.0625
  9
$DIMDLI
 40
0.8359999999999999
  9
$DIMRND
 40
0.0
  9
$DIMDLE
 40
0.0
  9
$DIMEXE
 40
0.125
  9
$DIMTP
 40
0.0
  9
$DIMTM
 40
0.0
  9
$DIMTXT
 40
0.15625
  9
$DIMCEN
 40
0.198
  9
$DIMTSZ
 40
0.0
  9
$DIMTOL
 70
     0
  9
$DIMLIM
 70
     0
  9
$DIMTIH
 70
     1
  9
$DIMTOH
 70
     1
  9
$DIMSE1
 70
     0
  9
$DIMSE2
 70
     0
  9
$DIMTAD
 70
     0
  9
$DIMZIN
 70
     0
  9
$DIMBLK
  1

  9
$DIMASO
 70
     1
  9
$DIMSHO
 70
     1
  9
$DIMPOST
  1

  9
$DIMAPOST
  1

  9
$DIMALT
 70
     0
  9
$DIMALTD
 70
     2
  9
$DIMALTF
 40
25.399999999999999
  9
$DIMLFAC
 40
1.0
  9
$DIMTOFL
 70
     0
  9
$DIMTVP
 40
0.0
  9
$DIMTIX
 70
     0
  9
$DIMSOXD
 70
     0
  9
$DIMSAH
 70
     0
  9
$DIMBLK1
  1

  9
$DIMBLK2
  1

  9
$DIMSTYLE
  2
STANDARD
  9
$DIMCLRD
 70
     0
  9
$DIMCLRE
 70
     0
  9
$DIMCLRT
 70
     0
  9
$DIMTFAC
 40
1.0
  9
$DIMGAP
 40
0.09
  9
$LUNITS
 70
     2
  9
$LUPREC
 70
     4
  9
$SKETCHINC
 40
0.1
  9
$FILLETRAD
 40
0.0
  9
$AUNITS
 70
     0
  9
$AUPREC
 70
     0
  9
$MENU
  1
.
  9
$ELEVATION
 40
0.0
  9
$PELEVATION
 40
0.0
  9
$THICKNESS
 40
0.0
  9
$LIMCHECK
 70
     0
  9
$BLIPMODE
 70
     0
  9
$CHAMFERA
 40
0.0
  9
$CHAMFERB
 40
0.0
  9
$SKPOLY
 70
     0
  9
$TDCREATE
 40
2457822.5741886809
  9
$TDUPDATE
 40
2457829.726522164
  9
$TDINDWG
 40
0.0185151042
  9
$TDUSRTIMER
 40
0.0185151042
  9
$USRTIMER
 70
     1
  9
$ANGBASE
 50
0.0
  9
$ANGDIR
 70
     0
  9
$PDMODE
 70
     0
  9
$PDSIZE
 40
0.3125
  9
$PLINEWID
 40
0.0
  9
$COORDS
 70
     1
  9
$SPLFRAME
 70
     0
  9
$SPLINETYPE
 70
     6
  9
$SPLINESEGS
 70
     8
  9
$ATTDIA
 70
     1
  9
$ATTREQ
 70
     1
  9
$HANDLING
 70
     1
  9
$HANDSEED
  5
1038
  9
$SURFTAB1
 70
     6
  9
$SURFTAB2
 70
     6
  9
$SURFTYPE
 70
     6
  9
$SURFU
 70
     6
  9
$SURFV
 70
     6
  9
$UCSNAME
  2

  9
$UCSORG
 10
0.0
 20
0.0
 30
0.0
  9
$UCSXDIR
 10
1.0
 20
0.0
 30
0.0
  9
$UCSYDIR
 10
0.0
 20
1.0
 30
0.0
  9
$PUCSNAME
  2

  9
$PUCSORG
 10
0.0
 20
0.0
 30
0.0
  9
$PUCSXDIR
 10
1.0
 20
0.0
 30
0.0
  9
$PUCSYDIR
 10
0.0
 20
1.0
 30
0.0
  9
$USERI1
 70
     0
  9
$USERI2
 70
     0
  9
$USERI3
 70
     0
  9
$USERI4
 70
     0
  9
$USERI5
 70
     0
  9
$USERR1
 40
0.0
  9
$USERR2
 40
0.0
  9
$USERR3
 40
0.0
  9
$USERR4
 40
0.0
  9
$USERR5
 40
0.0
  9
$WORLDVIEW
 70
     1
  9
$SHADEDGE
 70
     3
  9
$SHADEDIF
 70
    70
  9
$TILEMODE
 70
     1
  9
$MAXACTVP
 70
    48
  9
$PLIMCHECK
 70
     0
  9
$PEXTMIN
 10
1.0000000000000000E+020
 20
1.0000000000000000E+020
 30
1.0000000000000000E+020
  9
$PEXTMAX
 10
-1.0000000000000000E+020
 20
-1.0000000000000000E+020
 30
-1.0000000000000000E+020
  9
$PLIMMIN
 10
0.0
 20
0.0
  9
$PLIMMAX
 10
12.0
 20
9.0
  9
$UNITMODE
 70
     0
  9
$VISRETAIN
 70
     1
  9
$PLINEGEN
 70
     0
  9
$PSLTSCALE
 70
     1
  0
ENDSEC
  0
SECTION
  2
TABLES
  0
TABLE
  2
VPORT
 70
     1
  0
VPORT
  2
*ACTIVE
 70
     0
 10
0.0
 20
0.0
 11
1.0
 21
1.0
 12
-0.0005274211906681
 22
-0.000360080843322
 13
0.0
 23
0.0
 14
1.0
 24
1.0
 15
0.0
 25
0.0
 16
0.0
 26
0.0
 36
56.646234331050699
 17
150.98867433609021
 27
32.79262182965001
 37
0.0
 40
12.367701959794839
 41
1.786624203821656
 42
50.0
 43
0.0
 44
0.0
 50
0.0
 51
0.0
 71
     0
 72
   100
 73
     1
 74
     1
 75
     0
 76
     0
 77
     0
 78
     0
  0
ENDTAB
  0
TABLE
  2
LTYPE
 70
     2
  0
LTYPE
  2
CONTINUOUS
 70
     0
  3
Solid line
 72
    65
 73
     0
 40
0.0
  0
LTYPE
  2
PHANTOM2
 70
     0
  3
___ _ _ ___ _ _ ___ _ _ ___ _ _
 72
    65
 73
     6
 40
1.25
 49
0.625
 49
-0.125
 49
0.125
 49
-0.125
 49
0.125
 49
-0.125
  0
ENDTAB
  0
TABLE
  2
LAYER
 70
     3
  0
LAYER
  2
0
 70
     0
 62
     7
  6
CONTINUOUS
  0
LAYER
  2
DEFPOINTS
 70
     0
 62
     7
  6
CONTINUOUS
  0
ENDTAB
  0
TABLE
  2
STYLE
 70
     1
  0
STYLE
  2
STANDARD
 70
     0
 40
0.0
 41
0.8
 50
0.0
 71
     0
 42
0.2
  3
txt
  4

  0
ENDTAB
  0
TABLE
  2
VIEW
 70
     0
  0
ENDTAB
  0
TABLE
  2
UCS
 70
     0
  0
ENDTAB
  0
TABLE
  2
APPID
 70
     5
  0
APPID
  2
ACAD
 70
     0
  0
APPID
  2
ACAD_MLEADERVER
 70
     0
  0
APPID
  2
ACAD_NAV_VCDISPLAY
 70
     0
  0
APPID
  2
ACAD_EXEMPT_FROM_CAD_STANDARDS
 70
     0
  0
APPID
  2
ACDBATTR
 70
     0
  0
ENDTAB
  0
TABLE
  2
DIMSTYLE
 70
     1
  0
DIMSTYLE
  2
STANDARD
 70
     0
  3

  4

  5

  6

  7

 40
1.0
 41
0.1875
 42
0.0625
 43
0.38
 44
0.125
 45
0.0
 46
0.0
 47
1.5
 48
1.5
140
0.15625
141
0.09
142
0.0
143
25.399999999999999
144
1.0
145
0.0
146
1.0
147
0.09
 71
     0
 72
     0
 73
     1
 74
     1
 75
     0
 76
     0
 77
     0
 78
     4
170
     0
171
     2
172
     0
173
     0
174
     0
175
     0
176
     0
177
     0
178
     0
  0
ENDTAB
  0
ENDSEC
  0
SECTION
  2
BLOCKS
  0
BLOCK
  8
0
  2
$MODEL_SPACE
 70
     0
 10
0.0
 20
0.0
 30
0.0
  3
$MODEL_SPACE
  1

  0
ENDBLK
  5
21
  8
0
  0
BLOCK
 67
     1
  8
0
  2
$PAPER_SPACE
 70
     0
 10
0.0
 20
0.0
 30
0.0
  3
$PAPER_SPACE
  1

  0
ENDBLK
  5
1D
 67
     1
  8
0
  0
ENDSEC
  0
SECTION
  2
ENTITIES
  0
LINE
  5
580
  8
0
 10
139.9886743360903
 20
37.478605768900003
 30
0.0
 11
139.9886743360903
 21
37.526605768899998
 31
0.0
  0
LINE
  5
581
  8
0
 10
161.98867433609021
 20
37.526605768899998
 30
0.0
 11
161.98867433609021
 21
37.478605768900003
 31
0.0
  0
LINE
  5
582
  8
0
 10
161.98867433609021
 20
37.478605768900003
 30
0.0
 11
139.9886743360903
 21
37.478605768900003
 31
0.0
  0
LINE
  5
583
  8
0
 10
139.9886743360903
 20
37.526605768899998
 30
0.0
 11
161.98867433609021
 21
37.526605768899998
 31
0.0
  0
LINE
  5
584
  8
0
 10
141.23867433609021
 20
36.878669464799998
 30
0.0
 11
141.23867433609021
 21
37.478605768900003
 31
0.0
  0
LINE
  5
585
  8
0
 10
141.23867433609021
 20
36.878605768900002
 30
0.0
 11
160.73867433609021
 21
36.878605768900002
 31
0.0
  0
LINE
  5
586
  8
0
 10
160.73867433609021
 20
36.878605768900002
 30
0.0
 11
160.73867433609021
 21
37.478605768900003
 31
0.0
  0
LINE
  5
587
  8
0
 10
157.9616743360902
 20
36.878605768900002
 30
0.0
 11
157.9616743360902
 21
28.718130881
 31
0.0
  0
LINE
  5
588
  8
0
 10
157.9616743360902
 20
28.718130881
 30
0.0
 11
141.31567433609021
 21
28.718130881
 31
0.0
  0
LINE
  5
589
  8
0
 10
141.31567433609021
 20
28.718130881
 30
0.0
 11
141.31567433609021
 21
36.878605768900002
 31
0.0
  0
ARC
  5
58A
  8
0
 10
141.4266755047658
 20
28.71755212787869
 30
0.0
 40
0.1110026774565424
 50
179.70126611147771
 51
268.18004884661212
  0
ARC
  5
58B
  8
0
 10
157.85060705171821
 20
28.714705878777149
 30
0.0
 40
0.1111200805345584
 50
282.57641403032972
 51
1.766280734447359
  0
LINE
  5
58C
  8
0
 10
157.87480250295931
 20
28.606251960280652
 30
0.0
 11
154.88910653069021
 21
28.3024502711
 31
0.0
  0
ARC
  5
58D
  8
0
 10
154.8923259731302
 20
28.27061314732882
 30
0.0
 40
0.0319993620213268
 50
95.774251102794054
 51
143.97281015499749
  0
LINE
  5
58E
  8
0
 10
154.8664468646902
 20
28.289434172499998
 30
0.0
 11
154.81322226559021
 21
28.216250348799999
 31
0.0
  0
ARC
  5
58F
  8
0
 10
154.75014085094929
 20
28.262127741280469
 30
0.0
 40
0.0780000000891779
 50
288.00000017918552
 51
323.97262660639387
  0
LINE
  5
590
  8
0
 10
154.77424417677011
 20
28.187945332999998
 30
0.0
 11
154.37627678929019
 21
28.0586378904
 31
0.0
  0
LINE
  5
591
  8
0
 10
154.37627678929019
 20
28.0586378904
 30
0.0
 11
150.64107188299019
 21
28.0586378904
 31
0.0
  0
LINE
  5
592
  8
0
 10
150.64107188299019
 20
28.0586378904
 30
0.0
 11
150.2431044957375
 21
28.187945332926208
 31
0.0
  0
ARC
  5
593
  8
0
 10
150.2672078212903
 20
28.262127741200079
 30
0.0
 40
0.0780000000001106
 50
216.02737338521521
 51
251.9999998311298
  0
LINE
  5
594
  8
0
 10
150.20412640671469
 20
28.216250348781241
 30
0.0
 11
150.15280068679019
 21
28.2868232137
 31
0.0
  0
ARC
  5
595
  8
0
 10
150.1275579523207
 20
28.268476351190071
 30
0.0
 40
0.0312058168849331
 50
36.01031226403704
 51
89.516699923822742
  0
LINE
  5
596
  8
0
 10
150.1278211758069
 20
28.299681057899988
 30
0.0
 11
141.4231528508902
 21
28.6066891119
 31
0.0
  0
LINE
  5
597
  8
0
 10
150.1278211758069
 20
28.299681057899988
 30
0.0
 11
154.87903402788149
 21
28.299681057899988
 31
0.0
  0
LINE
  5
598
  8
0
 10
142.2954978284902
 20
28.515920725699999
 30
0.0
 11
142.29760766916419
 21
28.575847652806061
 31
0.0
  0
LINE
  5
599
  8
0
 10
142.2954978284902
 20
28.515920725699999
 30
0.0
 11
148.79146753280139
 21
28.287059192478889
 31
0.0
  0
LINE
  5
59A
  8
0
 10
148.79146753280139
 20
28.287059192478889
 30
0.0
 11
148.7935724066636
 21
28.34673915395566
 31
0.0
  0
ATTDEF
  5
8C7
  8
DEFPOINTS
 10
150.98560535377879
 20
37.517875360876431
 30
0.0
 40
0.001
  1
K-3821-1
  3

  2
MODELNUMBER
 70
     0
1001
ACDBATTR
1070
     0
1070
     1
  0
ATTDEF
  5
8C8
  8
DEFPOINTS
 10
150.98560535377879
 20
37.516208694209759
 30
0.0
 40
0.001
  1
VAULT
  3

  2
TRADENAME
 70
     0
1001
ACDBATTR
1070
     0
1070
     1
  0
ATTDEF
  5
8C9
  8
DEFPOINTS
 10
150.98560535377879
 20
37.514542027543087
 30
0.0
 40
0.001
  1
KITCHEN SINK
  3

  2
PRODUCT
 70
     0
1001
ACDBATTR
1070
     0
1070
     1
  0
ATTDEF
  5
8CA
  8
DEFPOINTS
 10
150.98560535377879
 20
37.512875360876421
 30
0.0
 40
0.001
  1
STAINLESS STEEL
  3

  2
MATERIAL
 70
     0
1001
ACDBATTR
1070
     0
1070
     1
  0
LINE
  5
DE3
  8
0
 10
140.58367433609021
 20
37.448605768900002
 30
0.0
 11
140.71869949284911
 21
37.448605755715363
 31
0.0
  0
LINE
  5
DE4
  8
0
 10
140.5836743384337
 20
37.448605768900002
 30
0.0
 11
140.56288967759019
 21
37.436605710699993
 31
0.0
  0
LINE
  5
DE5
  8
0
 10
140.56288967759019
 20
37.436605710699993
 30
0.0
 11
140.47187712209021
 21
37.278583911099993
 31
0.0
  0
LINE
  5
DE6
  8
0
 10
140.47187712209021
 20
37.278583911099993
 30
0.0
 11
140.4686743360902
 21
37.2666057689
 31
0.0
  0
LINE
  5
DE7
  8
0
 10
140.4686743360902
 20
37.2666057689
 30
0.0
 11
140.4686743360902
 21
36.9348557689
 31
0.0
  0
LINE
  5
DE8
  8
0
 10
140.5211743360903
 20
36.9348557689
 30
0.0
 11
140.5211743360903
 21
37.093605768899991
 31
0.0
  0
LINE
  5
DE9
  8
0
 10
140.5211743360903
 20
37.093605768899991
 30
0.0
 11
140.55117433609021
 21
37.093605768899991
 31
0.0
  0
LINE
  5
DEA
  8
0
 10
140.55117433609021
 20
37.093605768899991
 30
0.0
 11
140.55117433609021
 21
36.9348557689
 31
0.0
  0
LINE
  5
DEB
  8
0
 10
140.4386743360902
 20
36.9348557689
 30
0.0
 11
140.4386743360902
 21
37.2666057689
 31
0.0
  0
LINE
  5
DEC
  8
0
 10
140.4386743360902
 20
37.2666057689
 30
0.0
 11
140.44588060468311
 21
37.293556588887633
 31
0.0
  0
LINE
  5
DED
  8
0
 10
140.44588060468311
 20
37.293556588887633
 30
0.0
 11
140.53688060468309
 21
37.451556588887641
 31
0.0
  0
ARC
  5
DEE
  8
0
 10
140.49492433609029
 20
36.9348557689
 30
0.0
 40
0.0262499999999975
 50
180.0000000000154
 51
359.99999999998448
  0
ARC
  5
DEF
  8
0
 10
140.49492433609029
 20
36.9348557689
 30
0.0
 40
0.0562499999999986
 50
180.0000000000073
 51
359.99999999999272
  0
ARC
  5
DF0
  8
0
 10
140.58390686636619
 20
37.424373605104734
 30
0.0
 40
0.054317436383037
 50
93.210920494195733
 51
149.970439735073
  0
LINE
  5
DF1
  8
0
 10
140.7186994905056
 20
37.448605768900002
 30
0.0
 11
140.7394841513491
 21
37.436605710699993
 31
0.0
  0
LINE
  5
DF2
  8
0
 10
140.7394841513491
 20
37.436605710699993
 30
0.0
 11
140.83049670684909
 21
37.278583911099993
 31
0.0
  0
LINE
  5
DF3
  8
0
 10
140.83049670684909
 20
37.278583911099993
 30
0.0
 11
140.83369949284909
 21
37.2666057689
 31
0.0
  0
LINE
  5
DF4
  8
0
 10
140.83369949284909
 20
37.2666057689
 30
0.0
 11
140.83369949284909
 21
36.9348557689
 31
0.0
  0
LINE
  5
DF5
  8
0
 10
140.78119949284911
 20
36.9348557689
 30
0.0
 11
140.78119949284911
 21
37.093605768899991
 31
0.0
  0
LINE
  5
DF6
  8
0
 10
140.78119949284911
 20
37.093605768899991
 30
0.0
 11
140.75119949284911
 21
37.093605768899991
 31
0.0
  0
LINE
  5
DF7
  8
0
 10
140.75119949284911
 20
37.093605768899991
 30
0.0
 11
140.75119949284911
 21
36.9348557689
 31
0.0
  0
LINE
  5
DF8
  8
0
 10
140.86369949284909
 20
36.9348557689
 30
0.0
 11
140.86369949284909
 21
37.2666057689
 31
0.0
  0
LINE
  5
DF9
  8
0
 10
140.86369949284909
 20
37.2666057689
 30
0.0
 11
140.85649322425621
 21
37.293556588887633
 31
0.0
  0
LINE
  5
DFA
  8
0
 10
140.85649322425621
 20
37.293556588887633
 30
0.0
 11
140.7654932242562
 21
37.451556588887641
 31
0.0
  0
ARC
  5
DFB
  8
0
 10
140.80744949284909
 20
36.9348557689
 30
0.0
 40
0.0262499999999975
 50
180.0000000000154
 51
359.99999999998448
  0
ARC
  5
DFC
  8
0
 10
140.80744949284909
 20
36.9348557689
 30
0.0
 40
0.0562499999999986
 50
180.0000000000073
 51
359.99999999999272
  0
ARC
  5
DFD
  8
0
 10
140.71846696257319
 20
37.424373605104734
 30
0.0
 40
0.054317436383037
 50
30.02956026492669
 51
86.789079505804267
  0
LINE
  5
DFE
  8
0
 10
161.25867433609031
 20
37.448605768900002
 30
0.0
 11
161.39369949284909
 21
37.448605755715363
 31
0.0
  0
LINE
  5
DFF
  8
0
 10
161.25867433843371
 20
37.448605768900002
 30
0.0
 11
161.2378896775902
 21
37.436605710699993
 31
0.0
  0
LINE
  5
E00
  8
0
 10
161.2378896775902
 20
37.436605710699993
 30
0.0
 11
161.1468771220903
 21
37.278583911099993
 31
0.0
  0
LINE
  5
E01
  8
0
 10
161.1468771220903
 20
37.278583911099993
 30
0.0
 11
161.14367433609021
 21
37.2666057689
 31
0.0
  0
LINE
  5
E02
  8
0
 10
161.14367433609021
 20
37.2666057689
 30
0.0
 11
161.14367433609021
 21
36.9348557689
 31
0.0
  0
LINE
  5
E03
  8
0
 10
161.19617433609031
 20
36.9348557689
 30
0.0
 11
161.19617433609031
 21
37.093605768899991
 31
0.0
  0
LINE
  5
E04
  8
0
 10
161.19617433609031
 20
37.093605768899991
 30
0.0
 11
161.2261743360902
 21
37.093605768899991
 31
0.0
  0
LINE
  5
E05
  8
0
 10
161.2261743360902
 20
37.093605768899991
 30
0.0
 11
161.2261743360902
 21
36.9348557689
 31
0.0
  0
LINE
  5
E06
  8
0
 10
161.11367433609021
 20
36.9348557689
 30
0.0
 11
161.11367433609021
 21
37.2666057689
 31
0.0
  0
LINE
  5
E07
  8
0
 10
161.11367433609021
 20
37.2666057689
 30
0.0
 11
161.12088060468309
 21
37.293556588887633
 31
0.0
  0
LINE
  5
E08
  8
0
 10
161.12088060468309
 20
37.293556588887633
 30
0.0
 11
161.2118806046831
 21
37.451556588887641
 31
0.0
  0
ARC
  5
E09
  8
0
 10
161.16992433609019
 20
36.9348557689
 30
0.0
 40
0.0262499999999975
 50
180.0000000000154
 51
359.99999999998448
  0
ARC
  5
E0A
  8
0
 10
161.16992433609019
 20
36.9348557689
 30
0.0
 40
0.0562499999999986
 50
180.0000000000073
 51
359.99999999999272
  0
ARC
  5
E0B
  8
0
 10
161.2589068663662
 20
37.424373605104734
 30
0.0
 40
0.054317436383037
 50
93.210920494195733
 51
149.970439735073
  0
LINE
  5
E0C
  8
0
 10
161.39369949050561
 20
37.448605768900002
 30
0.0
 11
161.41448415134909
 21
37.436605710699993
 31
0.0
  0
LINE
  5
E0D
  8
0
 10
161.41448415134909
 20
37.436605710699993
 30
0.0
 11
161.5054967068491
 21
37.278583911099993
 31
0.0
  0
LINE
  5
E0E
  8
0
 10
161.5054967068491
 20
37.278583911099993
 30
0.0
 11
161.5086994928491
 21
37.2666057689
 31
0.0
  0
LINE
  5
E0F
  8
0
 10
161.5086994928491
 20
37.2666057689
 30
0.0
 11
161.5086994928491
 21
36.9348557689
 31
0.0
  0
LINE
  5
E10
  8
0
 10
161.45619949284909
 20
36.9348557689
 30
0.0
 11
161.45619949284909
 21
37.093605768899991
 31
0.0
  0
LINE
  5
E11
  8
0
 10
161.45619949284909
 20
37.093605768899991
 30
0.0
 11
161.42619949284909
 21
37.093605768899991
 31
0.0
  0
LINE
  5
E12
  8
0
 10
161.42619949284909
 20
37.093605768899991
 30
0.0
 11
161.42619949284909
 21
36.9348557689
 31
0.0
  0
LINE
  5
E13
  8
0
 10
161.5386994928491
 20
36.9348557689
 30
0.0
 11
161.5386994928491
 21
37.2666057689
 31
0.0
  0
LINE
  5
E14
  8
0
 10
161.5386994928491
 20
37.2666057689
 30
0.0
 11
161.5314932242562
 21
37.293556588887633
 31
0.0
  0
LINE
  5
E15
  8
0
 10
161.5314932242562
 20
37.293556588887633
 30
0.0
 11
161.44049322425619
 21
37.451556588887641
 31
0.0
  0
ARC
  5
E16
  8
0
 10
161.4824494928491
 20
36.9348557689
 30
0.0
 40
0.0262499999999975
 50
180.0000000000154
 51
359.99999999998448
  0
ARC
  5
E17
  8
0
 10
161.4824494928491
 20
36.9348557689
 30
0.0
 40
0.0562499999999986
 50
180.0000000000073
 51
359.99999999999272
  0
ARC
  5
E18
  8
0
 10
161.3934669625732
 20
37.424373605104734
 30
0.0
 40
0.054317436383037
 50
30.02956026492669
 51
86.789079505804267
  0
ENDSEC
  0
EOF
