  0
SECTION
  2
HEADER
  9
$ACADVER
  1
AC1009
  9
$INSBASE
 10
113.4843010811902
 20
63.745014787300001
 30
0.0
  9
$EXTMIN
 10
96.984301081190253
 20
52.745014787299993
 30
0.0
  9
$EXTMAX
 10
129.9843010811903
 20
74.745014787299993
 30
0.0
  9
$LIMMIN
 10
0.0
 20
0.0
  9
$LIMMAX
 10
22.0
 20
17.0
  9
$ORTHOMODE
 70
     0
  9
$REGENMODE
 70
     1
  9
$FILLMODE
 70
     1
  9
$QTEXTMODE
 70
     0
  9
$MIRRTEXT
 70
     0
  9
$DRAGMODE
 70
     2
  9
$LTSCALE
 40
1.2099999999999991
  9
$OSMODE
 70
  3071
  9
$ATTMODE
 70
     1
  9
$TEXTSIZE
 40
0.2
  9
$TRACEWID
 40
0.05
  9
$TEXTSTYLE
  7
STANDARD
  9
$CLAYER
  8
0
  9
$CELTYPE
  6
BYLAYER
  9
$CECOLOR
 62
   256
  9
$DIMSCALE
 40
1.0
  9
$DIMASZ
 40
0.1875
  9
$DIMEXO
 40
0.0625
  9
$DIMDLI
 40
0.8359999999999999
  9
$DIMRND
 40
0.0
  9
$DIMDLE
 40
0.0
  9
$DIMEXE
 40
0.125
  9
$DIMTP
 40
0.0
  9
$DIMTM
 40
0.0
  9
$DIMTXT
 40
0.15625
  9
$DIMCEN
 40
0.198
  9
$DIMTSZ
 40
0.0
  9
$DIMTOL
 70
     0
  9
$DIMLIM
 70
     0
  9
$DIMTIH
 70
     1
  9
$DIMTOH
 70
     1
  9
$DIMSE1
 70
     0
  9
$DIMSE2
 70
     0
  9
$DIMTAD
 70
     0
  9
$DIMZIN
 70
     0
  9
$DIMBLK
  1

  9
$DIMASO
 70
     1
  9
$DIMSHO
 70
     1
  9
$DIMPOST
  1

  9
$DIMAPOST
  1

  9
$DIMALT
 70
     0
  9
$DIMALTD
 70
     2
  9
$DIMALTF
 40
25.399999999999999
  9
$DIMLFAC
 40
1.0
  9
$DIMTOFL
 70
     0
  9
$DIMTVP
 40
0.0
  9
$DIMTIX
 70
     0
  9
$DIMSOXD
 70
     0
  9
$DIMSAH
 70
     0
  9
$DIMBLK1
  1

  9
$DIMBLK2
  1

  9
$DIMSTYLE
  2
STANDARD
  9
$DIMCLRD
 70
     0
  9
$DIMCLRE
 70
     0
  9
$DIMCLRT
 70
     0
  9
$DIMTFAC
 40
1.0
  9
$DIMGAP
 40
0.09
  9
$LUNITS
 70
     2
  9
$LUPREC
 70
     4
  9
$SKETCHINC
 40
0.1
  9
$FILLETRAD
 40
0.0
  9
$AUNITS
 70
     0
  9
$AUPREC
 70
     0
  9
$MENU
  1
.
  9
$ELEVATION
 40
0.0
  9
$PELEVATION
 40
0.0
  9
$THICKNESS
 40
0.0
  9
$LIMCHECK
 70
     0
  9
$BLIPMODE
 70
     0
  9
$CHAMFERA
 40
0.0
  9
$CHAMFERB
 40
0.0
  9
$SKPOLY
 70
     0
  9
$TDCREATE
 40
2457822.5741886809
  9
$TDUPDATE
 40
2457998.5994430091
  9
$TDINDWG
 40
0.0994875
  9
$TDUSRTIMER
 40
0.0994875
  9
$USRTIMER
 70
     1
  9
$ANGBASE
 50
0.0
  9
$ANGDIR
 70
     0
  9
$PDMODE
 70
     0
  9
$PDSIZE
 40
0.3125
  9
$PLINEWID
 40
0.0
  9
$COORDS
 70
     1
  9
$SPLFRAME
 70
     0
  9
$SPLINETYPE
 70
     6
  9
$SPLINESEGS
 70
     8
  9
$ATTDIA
 70
     1
  9
$ATTREQ
 70
     1
  9
$HANDLING
 70
     1
  9
$HANDSEED
  5
1604
  9
$SURFTAB1
 70
     6
  9
$SURFTAB2
 70
     6
  9
$SURFTYPE
 70
     6
  9
$SURFU
 70
     6
  9
$SURFV
 70
     6
  9
$UCSNAME
  2

  9
$UCSORG
 10
0.0
 20
0.0
 30
0.0
  9
$UCSXDIR
 10
1.0
 20
0.0
 30
0.0
  9
$UCSYDIR
 10
0.0
 20
1.0
 30
0.0
  9
$PUCSNAME
  2

  9
$PUCSORG
 10
0.0
 20
0.0
 30
0.0
  9
$PUCSXDIR
 10
1.0
 20
0.0
 30
0.0
  9
$PUCSYDIR
 10
0.0
 20
1.0
 30
0.0
  9
$USERI1
 70
     0
  9
$USERI2
 70
     0
  9
$USERI3
 70
     0
  9
$USERI4
 70
     0
  9
$USERI5
 70
     0
  9
$USERR1
 40
0.0
  9
$USERR2
 40
0.0
  9
$USERR3
 40
0.0
  9
$USERR4
 40
0.0
  9
$USERR5
 40
0.0
  9
$WORLDVIEW
 70
     1
  9
$SHADEDGE
 70
     3
  9
$SHADEDIF
 70
    70
  9
$TILEMODE
 70
     1
  9
$MAXACTVP
 70
    48
  9
$PLIMCHECK
 70
     0
  9
$PEXTMIN
 10
1.0000000000000000E+020
 20
1.0000000000000000E+020
 30
1.0000000000000000E+020
  9
$PEXTMAX
 10
-1.0000000000000000E+020
 20
-1.0000000000000000E+020
 30
-1.0000000000000000E+020
  9
$PLIMMIN
 10
0.0
 20
0.0
  9
$PLIMMAX
 10
12.0
 20
9.0
  9
$UNITMODE
 70
     0
  9
$VISRETAIN
 70
     1
  9
$PLINEGEN
 70
     0
  9
$PSLTSCALE
 70
     1
  0
ENDSEC
  0
SECTION
  2
TABLES
  0
TABLE
  2
VPORT
 70
     1
  0
VPORT
  2
*ACTIVE
 70
     0
 10
0.0
 20
0.0
 11
1.0
 21
1.0
 12
0.0
 22
0.0
 13
0.0
 23
0.0
 14
1.0
 24
1.0
 15
0.0
 25
0.0
 16
-0.0000000000000284
 26
0.0
 36
99.012543999269795
 17
113.4843010811902
 27
63.745014787300001
 37
0.0
 40
39.661064030103887
 41
1.794754846066134
 42
50.0
 43
0.0
 44
0.0
 50
0.0
 51
0.0
 71
     0
 72
   100
 73
     1
 74
     1
 75
     0
 76
     0
 77
     0
 78
     0
  0
ENDTAB
  0
TABLE
  2
LTYPE
 70
     2
  0
LTYPE
  2
CONTINUOUS
 70
     0
  3
Solid line
 72
    65
 73
     0
 40
0.0
  0
LTYPE
  2
PHANTOM2
 70
     0
  3
___ _ _ ___ _ _ ___ _ _ ___ _ _
 72
    65
 73
     6
 40
1.25
 49
0.625
 49
-0.125
 49
0.125
 49
-0.125
 49
0.125
 49
-0.125
  0
ENDTAB
  0
TABLE
  2
LAYER
 70
     2
  0
LAYER
  2
0
 70
     0
 62
     7
  6
CONTINUOUS
  0
LAYER
  2
DEFPOINTS
 70
     0
 62
     7
  6
CONTINUOUS
  0
ENDTAB
  0
TABLE
  2
STYLE
 70
     1
  0
STYLE
  2
STANDARD
 70
     0
 40
0.0
 41
0.8
 50
0.0
 71
     0
 42
0.2
  3
txt
  4

  0
ENDTAB
  0
TABLE
  2
VIEW
 70
     0
  0
ENDTAB
  0
TABLE
  2
UCS
 70
     0
  0
ENDTAB
  0
TABLE
  2
APPID
 70
     5
  0
APPID
  2
ACAD
 70
     0
  0
APPID
  2
ACAD_MLEADERVER
 70
     0
  0
APPID
  2
ACAD_NAV_VCDISPLAY
 70
     0
  0
APPID
  2
ACAD_EXEMPT_FROM_CAD_STANDARDS
 70
     0
  0
APPID
  2
ACDBATTR
 70
     0
  0
ENDTAB
  0
TABLE
  2
DIMSTYLE
 70
     2
  0
DIMSTYLE
  2
STANDARD
 70
     0
  3

  4

  5

  6

  7

 40
1.0
 41
0.1875
 42
0.0625
 43
0.38
 44
0.125
 45
0.0
 46
0.0
 47
1.5
 48
1.5
140
0.15625
141
0.09
142
0.0
143
25.399999999999999
144
1.0
145
0.0
146
1.0
147
0.09
 71
     0
 72
     0
 73
     1
 74
     1
 75
     0
 76
     0
 77
     0
 78
     4
170
     0
171
     2
172
     0
173
     0
174
     0
175
     0
176
     0
177
     0
178
     0
  0
ENDTAB
  0
ENDSEC
  0
SECTION
  2
BLOCKS
  0
BLOCK
  8
0
  2
$MODEL_SPACE
 70
     0
 10
0.0
 20
0.0
 30
0.0
  3
$MODEL_SPACE
  1

  0
ENDBLK
  5
21
  8
0
  0
BLOCK
 67
     1
  8
0
  2
$PAPER_SPACE
 70
     0
 10
0.0
 20
0.0
 30
0.0
  3
$PAPER_SPACE
  1

  0
ENDBLK
  5
1D
 67
     1
  8
0
  0
ENDSEC
  0
SECTION
  2
ENTITIES
  0
LINE
  5
4FC
  8
0
 10
96.984301081190253
 20
74.495014787299993
 30
0.0
 11
96.984301081190253
 21
52.995014787299993
 31
0.0
  0
LINE
  5
4FD
  8
0
 10
97.234301081190253
 20
52.745014787299993
 30
0.0
 11
129.73430108119021
 21
52.745014787299993
 31
0.0
  0
LINE
  5
4FE
  8
0
 10
129.9843010811903
 20
52.995014787299993
 30
0.0
 11
129.9843010811903
 21
74.495014787299993
 31
0.0
  0
LINE
  5
4FF
  8
0
 10
129.73430108119021
 20
74.745014787299993
 30
0.0
 11
97.234301081190253
 21
74.745014787299993
 31
0.0
  0
LINE
  5
500
  8
0
 10
98.248301081190249
 20
70.781014787299995
 30
0.0
 11
98.248301081190249
 21
54.009014787299989
 31
0.0
  0
LINE
  5
501
  8
0
 10
98.248301081190249
 20
54.009014787299989
 30
0.0
 11
128.7203010811902
 21
54.009014787299989
 31
0.0
  0
LINE
  5
502
  8
0
 10
128.7203010811902
 20
54.009014787299989
 30
0.0
 11
128.7203010811902
 21
70.781014787299995
 31
0.0
  0
LINE
  5
503
  8
0
 10
128.7203010811902
 20
70.781014787299995
 30
0.0
 11
98.248301081190249
 21
70.781014787299995
 31
0.0
  0
CIRCLE
  5
504
  8
0
 10
113.4843010811902
 20
72.295014787299991
 30
0.0
 40
0.7199999999999989
  0
ARC
  5
50C
  8
0
 10
129.73430108119021
 20
52.995014787300001
 30
0.0
 40
0.2500000000000142
 50
270.00000000000171
 51
359.99999999999682
  0
ARC
  5
50D
  8
0
 10
129.73430108119021
 20
74.495014787299993
 30
0.0
 40
0.25
 50
0.0
 51
90.0
  0
ARC
  5
50E
  8
0
 10
97.234301081190253
 20
74.495014787300022
 30
0.0
 40
0.2499999999999716
 50
89.999999999999204
 51
180.00000000000321
  0
ARC
  5
50F
  8
0
 10
97.234301081190253
 20
52.995014787299993
 30
0.0
 40
0.25
 50
180.0
 51
269.9999999999992
  0
ATTDEF
  5
7BE
  8
DEFPOINTS
 10
113.49099567694419
 20
63.741387385198379
 30
0.0
 40
0.001
  1
STAINLESS STEEL
  3

  2
MATERIAL
 70
     0
1001
ACDBATTR
1070
     0
1070
     1
  0
ATTDEF
  5
7BF
  8
DEFPOINTS
 10
113.49099567694419
 20
63.743054051865037
 30
0.0
 40
0.001
  1
KITCHEN SINK
  3

  2
PRODUCT
 70
     0
1001
ACDBATTR
1070
     0
1070
     1
  0
ATTDEF
  5
7C0
  8
DEFPOINTS
 10
113.49099567694419
 20
63.74472071853171
 30
0.0
 40
0.001
  1
VAULT
  3

  2
TRADENAME
 70
     0
1001
ACDBATTR
1070
     0
1070
     1
  0
ATTDEF
  5
7C1
  8
DEFPOINTS
 10
113.49099567694419
 20
63.746387385198382
 30
0.0
 40
0.001
  1
K-3821-1
  3

  2
MODELNUMBER
 70
     0
1001
ACDBATTR
1070
     0
1070
     1
  0
LINE
  5
C7F
  8
DEFPOINTS
 10
113.4843010811902
 20
72.295014787299991
 30
0.0
 11
113.4843010811902
 21
72.295014787299991
 31
0.0
  0
CIRCLE
  5
1001
  8
0
 10
113.4843010811902
 20
65.26501478729999
 30
0.0
 40
0.301
  0
CIRCLE
  5
1002
  8
0
 10
113.4843010811902
 20
65.26501478729999
 30
0.0
 40
0.275
  0
CIRCLE
  5
1004
  8
0
 10
113.4843010811902
 20
65.26501478729999
 30
0.0
 40
1.750999999999999
  0
CIRCLE
  5
1005
  8
0
 10
113.4843010811902
 20
65.26501478729999
 30
0.0
 40
1.865999999999999
  0
ARC
  5
144F
  8
0
 10
99.459301081190276
 20
69.759014787299989
 30
0.0
 40
0.6000000000000015
 50
90.0
 51
179.9999999999996
  0
LINE
  5
1450
  8
0
 10
99.459301081190276
 20
70.359014787299984
 30
0.0
 11
127.5093010811902
 21
70.359014787300069
 31
0.0
  0
LINE
  5
1451
  8
0
 10
98.859301081190253
 20
69.759014787299989
 30
0.0
 11
98.859301081190253
 21
55.02101478729999
 31
0.0
  0
ARC
  5
1452
  8
0
 10
99.459301081190276
 20
55.02101478729999
 30
0.0
 40
0.6000000000000015
 50
180.0
 51
270.0
  0
LINE
  5
1453
  8
0
 10
99.459301081190276
 20
54.421014787299981
 30
0.0
 11
127.5093010811902
 21
54.421014787299981
 31
0.0
  0
LINE
  5
1454
  8
0
 10
127.5093010811902
 20
54.608514787299988
 30
0.0
 11
99.459301081190276
 21
54.608514787299988
 31
0.0
  0
ARC
  5
1455
  8
0
 10
99.459301081190276
 20
55.02101478729999
 30
0.0
 40
0.4125000000000006
 50
180.0
 51
270.0
  0
LINE
  5
1456
  8
0
 10
99.046801081190267
 20
55.02101478729999
 30
0.0
 11
99.046801081190267
 21
69.759014787299989
 31
0.0
  0
ARC
  5
1457
  8
0
 10
99.459301081190276
 20
69.759014787299989
 30
0.0
 40
0.4124999999999979
 50
90.0
 51
180.0
  0
LINE
  5
1458
  8
0
 10
99.459301081190276
 20
70.171514787299984
 30
0.0
 11
127.5093010811902
 21
70.171514787299856
 31
0.0
  0
CIRCLE
  5
1459
  8
0
 10
113.4843010811902
 20
65.26501478729999
 30
0.0
 40
1.9999999999999989
  0
CIRCLE
  5
145A
  8
0
 10
113.4843010811902
 20
65.26501478729999
 30
0.0
 40
2.1874999999999991
  0
LINE
  5
145B
  8
0
 10
100.0795510811902
 20
54.608514787299988
 30
0.0
 11
100.0795510811902
 21
70.171514787299984
 31
0.0
  0
LINE
  5
145C
  8
0
 10
99.974051081190254
 20
54.608514787299988
 30
0.0
 11
99.974051081190254
 21
70.171514787299984
 31
0.0
  0
LINE
  5
145D
  8
0
 10
101.1145510811902
 20
54.608514787299988
 30
0.0
 11
101.1145510811902
 21
54.977514787299988
 31
0.0
  0
LINE
  5
145E
  8
0
 10
101.1145510811902
 20
55.252014787299991
 30
0.0
 11
101.1145510811902
 21
68.457764787299993
 31
0.0
  0
LINE
  5
145F
  8
0
 10
101.1145510811902
 20
68.732264787299997
 30
0.0
 11
101.1145510811902
 21
70.171514787299984
 31
0.0
  0
LINE
  5
1460
  8
0
 10
101.00905108119019
 20
54.608514787299988
 30
0.0
 11
101.00905108119019
 21
54.977514787299988
 31
0.0
  0
LINE
  5
1461
  8
0
 10
101.00905108119019
 20
55.252014787299991
 30
0.0
 11
101.00905108119019
 21
68.457764787299993
 31
0.0
  0
LINE
  5
1462
  8
0
 10
101.00905108119019
 20
68.732264787299997
 30
0.0
 11
101.00905108119019
 21
70.171514787299984
 31
0.0
  0
LINE
  5
1463
  8
0
 10
102.1495510811902
 20
54.608514787299988
 30
0.0
 11
102.1495510811902
 21
70.171514787299984
 31
0.0
  0
LINE
  5
1464
  8
0
 10
102.0440510811902
 20
54.608514787299988
 30
0.0
 11
102.0440510811902
 21
70.171514787299984
 31
0.0
  0
LINE
  5
1465
  8
0
 10
103.18455108119019
 20
54.608514787299988
 30
0.0
 11
103.18455108119019
 21
70.171514787299969
 31
0.0
  0
LINE
  5
1466
  8
0
 10
103.0790510811902
 20
54.608514787299988
 30
0.0
 11
103.0790510811902
 21
70.171514787299969
 31
0.0
  0
LINE
  5
1467
  8
0
 10
104.2195510811902
 20
54.608514787299988
 30
0.0
 11
104.2195510811902
 21
70.171514787299969
 31
0.0
  0
LINE
  5
1468
  8
0
 10
104.1140510811902
 20
54.608514787299988
 30
0.0
 11
104.1140510811902
 21
70.171514787299969
 31
0.0
  0
LINE
  5
1469
  8
0
 10
105.2545510811903
 20
54.608514787299988
 30
0.0
 11
105.2545510811903
 21
70.171514787299969
 31
0.0
  0
LINE
  5
146A
  8
0
 10
105.14905108119019
 20
54.608514787299988
 30
0.0
 11
105.14905108119019
 21
70.171514787299969
 31
0.0
  0
LINE
  5
146B
  8
0
 10
106.2895510811902
 20
54.608514787299988
 30
0.0
 11
106.2895510811902
 21
70.171514787299955
 31
0.0
  0
LINE
  5
146C
  8
0
 10
106.1840510811902
 20
54.608514787299988
 30
0.0
 11
106.1840510811902
 21
70.171514787299955
 31
0.0
  0
LINE
  5
146D
  8
0
 10
107.32455108119029
 20
54.608514787299988
 30
0.0
 11
107.32455108119029
 21
70.171514787299955
 31
0.0
  0
LINE
  5
146E
  8
0
 10
107.2190510811902
 20
54.608514787299988
 30
0.0
 11
107.2190510811902
 21
70.171514787299955
 31
0.0
  0
LINE
  5
146F
  8
0
 10
108.3595510811902
 20
54.608514787299988
 30
0.0
 11
108.3595510811902
 21
70.171514787299955
 31
0.0
  0
LINE
  5
1470
  8
0
 10
108.2540510811902
 20
54.608514787299988
 30
0.0
 11
108.2540510811902
 21
70.171514787299955
 31
0.0
  0
LINE
  5
1471
  8
0
 10
109.3945510811902
 20
54.608514787299988
 30
0.0
 11
109.3945510811902
 21
70.171514787299941
 31
0.0
  0
LINE
  5
1472
  8
0
 10
109.28905108119019
 20
54.608514787299988
 30
0.0
 11
109.28905108119019
 21
70.171514787299941
 31
0.0
  0
LINE
  5
1473
  8
0
 10
110.4295510811902
 20
54.608514787299988
 30
0.0
 11
110.4295510811902
 21
70.171514787299941
 31
0.0
  0
LINE
  5
1474
  8
0
 10
110.32405108119021
 20
54.608514787299988
 30
0.0
 11
110.32405108119021
 21
70.171514787299941
 31
0.0
  0
LINE
  5
1475
  8
0
 10
111.46455108119019
 20
54.608514787299988
 30
0.0
 11
111.46455108119019
 21
64.424915871992994
 31
0.0
  0
LINE
  5
1476
  8
0
 10
111.46455108119019
 20
66.105113702606985
 30
0.0
 11
111.46455108119019
 21
70.171514787299941
 31
0.0
  0
LINE
  5
1477
  8
0
 10
111.3590510811903
 20
54.608514787299988
 30
0.0
 11
111.3590510811903
 21
64.746875146372943
 31
0.0
  0
LINE
  5
1478
  8
0
 10
111.3590510811903
 20
65.783154428227022
 30
0.0
 11
111.3590510811903
 21
70.171514787299941
 31
0.0
  0
LINE
  5
1479
  8
0
 10
99.538716045047622
 20
70.171514787299984
 30
0.0
 11
99.974051081190254
 21
70.015240671763863
 31
0.0
  0
LINE
  5
147A
  8
0
 10
100.0795510811902
 20
69.977368876892626
 30
0.0
 11
101.00905108119019
 21
69.643702210230785
 31
0.0
  0
LINE
  5
147B
  8
0
 10
101.1145510811902
 20
69.605830415359534
 30
0.0
 11
102.0440510811902
 21
69.272163748697707
 31
0.0
  0
LINE
  5
147C
  8
0
 10
102.1495510811902
 20
69.234291953826457
 30
0.0
 11
103.0790510811902
 21
68.900625287164615
 31
0.0
  0
LINE
  5
147D
  8
0
 10
103.18455108119019
 20
68.862753492293379
 30
0.0
 11
104.1140510811902
 21
68.529086825631552
 31
0.0
  0
LINE
  5
147E
  8
0
 10
104.2195510811902
 20
68.491215030760301
 30
0.0
 11
105.14905108119019
 21
68.157548364098474
 31
0.0
  0
LINE
  5
147F
  8
0
 10
105.2545510811903
 20
68.119676569227224
 30
0.0
 11
106.1840510811902
 21
67.786009902565382
 31
0.0
  0
LINE
  5
1480
  8
0
 10
106.2895510811902
 20
67.748138107694146
 30
0.0
 11
107.2190510811902
 21
67.414471441032305
 31
0.0
  0
LINE
  5
1481
  8
0
 10
107.32455108119029
 20
67.376599646161054
 30
0.0
 11
108.2540510811902
 21
67.042932979499227
 31
0.0
  0
LINE
  5
1482
  8
0
 10
108.3595510811902
 20
67.005061184627991
 30
0.0
 11
109.28905108119019
 21
66.671394517966135
 31
0.0
  0
LINE
  5
1483
  8
0
 10
109.3945510811902
 20
66.633522723094899
 30
0.0
 11
110.32405108119021
 21
66.299856056433072
 31
0.0
  0
LINE
  5
1484
  8
0
 10
110.4295510811902
 20
66.261984261561821
 30
0.0
 11
111.3590510811903
 21
65.928317594899994
 31
0.0
  0
LINE
  5
1485
  8
0
 10
111.3590510811903
 20
66.127532492499995
 30
0.0
 11
110.4295510811902
 21
66.461199159169624
 31
0.0
  0
LINE
  5
1486
  8
0
 10
110.32405108119021
 20
66.499070954041755
 30
0.0
 11
109.3945510811902
 21
66.832737620711384
 31
0.0
  0
LINE
  5
1487
  8
0
 10
109.28905108119019
 20
66.870609415583502
 30
0.0
 11
108.3595510811902
 21
67.204276082253145
 31
0.0
  0
LINE
  5
1488
  8
0
 10
108.2540510811902
 20
67.242147877125277
 30
0.0
 11
107.32455108119029
 21
67.575814543794891
 31
0.0
  0
LINE
  5
1489
  8
0
 10
107.2190510811902
 20
67.613686338667023
 30
0.0
 11
106.2895510811902
 21
67.947353005336666
 31
0.0
  0
LINE
  5
148A
  8
0
 10
106.1840510811902
 20
67.985224800208798
 30
0.0
 11
105.2545510811903
 21
68.318891466878412
 31
0.0
  0
LINE
  5
148B
  8
0
 10
105.14905108119019
 20
68.356763261750544
 30
0.0
 11
104.2195510811902
 21
68.690429928420173
 31
0.0
  0
LINE
  5
148C
  8
0
 10
104.1140510811902
 20
68.728301723292304
 30
0.0
 11
103.18455108119019
 21
69.061968389961933
 31
0.0
  0
LINE
  5
148D
  8
0
 10
103.0790510811902
 20
69.099840184834065
 30
0.0
 11
102.1495510811902
 21
69.433506851503694
 31
0.0
  0
LINE
  5
148E
  8
0
 10
102.0440510811902
 20
69.471378646375825
 30
0.0
 11
101.1145510811902
 21
69.805045313045454
 31
0.0
  0
LINE
  5
148F
  8
0
 10
101.00905108119019
 20
69.842917107917586
 30
0.0
 11
100.0936718314902
 21
70.171514787299984
 31
0.0
  0
LINE
  5
1490
  8
0
 10
111.29881093307699
 20
65.35876478729999
 30
0.0
 11
110.4295510811902
 21
65.35876478729999
 31
0.0
  0
LINE
  5
1491
  8
0
 10
110.32405108119021
 20
65.35876478729999
 30
0.0
 11
109.3945510811902
 21
65.35876478729999
 31
0.0
  0
LINE
  5
1492
  8
0
 10
109.28905108119019
 20
65.35876478729999
 30
0.0
 11
108.3595510811902
 21
65.35876478729999
 31
0.0
  0
LINE
  5
1493
  8
0
 10
108.2540510811902
 20
65.35876478729999
 30
0.0
 11
107.32455108119029
 21
65.35876478729999
 31
0.0
  0
LINE
  5
1494
  8
0
 10
107.2190510811902
 20
65.35876478729999
 30
0.0
 11
106.2895510811902
 21
65.35876478729999
 31
0.0
  0
LINE
  5
1495
  8
0
 10
106.1840510811902
 20
65.35876478729999
 30
0.0
 11
105.2545510811903
 21
65.35876478729999
 31
0.0
  0
LINE
  5
1496
  8
0
 10
105.14905108119019
 20
65.35876478729999
 30
0.0
 11
104.2195510811902
 21
65.35876478729999
 31
0.0
  0
LINE
  5
1497
  8
0
 10
104.1140510811902
 20
65.35876478729999
 30
0.0
 11
103.18455108119019
 21
65.35876478729999
 31
0.0
  0
LINE
  5
1498
  8
0
 10
103.0790510811902
 20
65.35876478729999
 30
0.0
 11
102.1495510811902
 21
65.35876478729999
 31
0.0
  0
LINE
  5
1499
  8
0
 10
102.0440510811903
 20
65.35876478729999
 30
0.0
 11
101.1145510811902
 21
65.35876478729999
 31
0.0
  0
LINE
  5
149A
  8
0
 10
101.00905108119019
 20
65.35876478729999
 30
0.0
 11
100.0795510811902
 21
65.35876478729999
 31
0.0
  0
LINE
  5
149B
  8
0
 10
99.974051081190254
 20
65.35876478729999
 30
0.0
 11
99.046801081190267
 21
65.35876478729999
 31
0.0
  0
LINE
  5
149C
  8
0
 10
111.29881093307699
 20
65.171264787299975
 30
0.0
 11
110.4295510811902
 21
65.171264787299975
 31
0.0
  0
LINE
  5
149D
  8
0
 10
110.32405108119021
 20
65.171264787299975
 30
0.0
 11
109.3945510811902
 21
65.171264787299975
 31
0.0
  0
LINE
  5
149E
  8
0
 10
109.28905108119019
 20
65.171264787299975
 30
0.0
 11
108.3595510811902
 21
65.171264787299975
 31
0.0
  0
LINE
  5
149F
  8
0
 10
108.2540510811902
 20
65.171264787299975
 30
0.0
 11
107.32455108119029
 21
65.171264787299975
 31
0.0
  0
LINE
  5
14A0
  8
0
 10
107.2190510811902
 20
65.171264787299975
 30
0.0
 11
106.2895510811902
 21
65.171264787299975
 31
0.0
  0
LINE
  5
14A1
  8
0
 10
106.1840510811902
 20
65.171264787299975
 30
0.0
 11
105.2545510811903
 21
65.171264787299975
 31
0.0
  0
LINE
  5
14A2
  8
0
 10
105.14905108119019
 20
65.171264787299975
 30
0.0
 11
104.2195510811902
 21
65.171264787299975
 31
0.0
  0
LINE
  5
14A3
  8
0
 10
104.1140510811902
 20
65.171264787299975
 30
0.0
 11
103.18455108119019
 21
65.171264787299975
 31
0.0
  0
LINE
  5
14A4
  8
0
 10
103.0790510811902
 20
65.171264787299975
 30
0.0
 11
102.1495510811902
 21
65.171264787299975
 31
0.0
  0
LINE
  5
14A5
  8
0
 10
102.0440510811903
 20
65.171264787299975
 30
0.0
 11
101.1145510811902
 21
65.171264787299975
 31
0.0
  0
LINE
  5
14A6
  8
0
 10
101.00905108119019
 20
65.171264787299975
 30
0.0
 11
100.0795510811902
 21
65.171264787299975
 31
0.0
  0
LINE
  5
14A7
  8
0
 10
99.974051081190254
 20
65.171264787299975
 30
0.0
 11
99.046801081190267
 21
65.171264787299975
 31
0.0
  0
LINE
  5
14A8
  8
0
 10
99.046801081190267
 20
55.082001767499989
 30
0.0
 11
99.974051081190254
 21
55.743402764701401
 31
0.0
  0
LINE
  5
14A9
  8
0
 10
100.0795510811902
 20
55.818655183363852
 30
0.0
 11
101.00905108119019
 21
56.481661089968
 31
0.0
  0
LINE
  5
14AA
  8
0
 10
101.1145510811902
 20
56.556913508630451
 30
0.0
 11
102.0440510811902
 21
57.219919415234607
 31
0.0
  0
LINE
  5
14AB
  8
0
 10
102.1495510811902
 20
57.295171833897058
 30
0.0
 11
103.0790510811902
 21
57.95817774050122
 31
0.0
  0
LINE
  5
14AC
  8
0
 10
103.18455108119019
 20
58.033430159163657
 30
0.0
 11
104.1140510811902
 21
58.696436065767827
 31
0.0
  0
LINE
  5
14AD
  8
0
 10
104.2195510811902
 20
58.771688484430271
 30
0.0
 11
105.14905108119019
 21
59.434694391034427
 31
0.0
  0
LINE
  5
14AE
  8
0
 10
105.2545510811903
 20
59.509946809696878
 30
0.0
 11
106.1840510811902
 21
60.17295271630104
 31
0.0
  0
LINE
  5
14AF
  8
0
 10
106.2895510811902
 20
60.248205134963477
 30
0.0
 11
107.2190510811902
 21
60.911211041567647
 31
0.0
  0
LINE
  5
14B0
  8
0
 10
107.32455108119029
 20
60.986463460230091
 30
0.0
 11
108.2540510811902
 21
61.649469366834253
 31
0.0
  0
LINE
  5
14B1
  8
0
 10
108.3595510811902
 20
61.724721785496698
 30
0.0
 11
109.28905108119019
 21
62.387727692100853
 31
0.0
  0
LINE
  5
14B2
  8
0
 10
109.3945510811902
 20
62.462980110763297
 30
0.0
 11
110.32405108119021
 21
63.125986017367467
 31
0.0
  0
LINE
  5
14B3
  8
0
 10
110.4295510811902
 20
63.201238436029911
 30
0.0
 11
111.3590510811903
 21
63.864244342634073
 31
0.0
  0
LINE
  5
14B4
  8
0
 10
111.46455108119019
 20
63.93949676129651
 30
0.0
 11
111.65140960429019
 21
64.072781650499991
 31
0.0
  0
LINE
  5
14B5
  8
0
 10
99.075263576490272
 20
54.871992572199993
 30
0.0
 11
99.974051081190254
 21
55.513091468817002
 31
0.0
  0
LINE
  5
14B6
  8
0
 10
100.0795510811902
 20
55.588343887480377
 30
0.0
 11
101.00905108119019
 21
56.251349794092768
 31
0.0
  0
LINE
  5
14B7
  8
0
 10
101.1145510811902
 20
56.326602212756143
 30
0.0
 11
102.0440510811902
 21
56.989608119368533
 31
0.0
  0
LINE
  5
14B8
  8
0
 10
102.1495510811902
 20
57.064860538031908
 30
0.0
 11
103.0790510811902
 21
57.727866444644299
 31
0.0
  0
LINE
  5
14B9
  8
0
 10
103.18455108119019
 20
57.803118863307681
 30
0.0
 11
104.1140510811902
 21
58.466124769920071
 31
0.0
  0
LINE
  5
14BA
  8
0
 10
104.2195510811902
 20
58.541377188583439
 30
0.0
 11
105.14905108119019
 21
59.204383095195837
 31
0.0
  0
LINE
  5
14BB
  8
0
 10
105.2545510811903
 20
59.279635513859212
 30
0.0
 11
106.1840510811902
 21
59.942641420471602
 31
0.0
  0
LINE
  5
14BC
  8
0
 10
106.2895510811902
 20
60.01789383913497
 30
0.0
 11
107.2190510811902
 21
60.680899745747361
 31
0.0
  0
LINE
  5
14BD
  8
0
 10
107.32455108119029
 20
60.756152164410743
 30
0.0
 11
108.2540510811902
 21
61.419158071023134
 31
0.0
  0
LINE
  5
14BE
  8
0
 10
108.3595510811902
 20
61.494410489686501
 30
0.0
 11
109.28905108119019
 21
62.157416396298892
 31
0.0
  0
LINE
  5
14BF
  8
0
 10
109.3945510811902
 20
62.232668814962281
 30
0.0
 11
110.32405108119021
 21
62.895674721574657
 31
0.0
  0
LINE
  5
14C0
  8
0
 10
110.4295510811902
 20
62.970927140238039
 30
0.0
 11
111.3590510811903
 21
63.63393304685043
 31
0.0
  0
LINE
  5
14C1
  8
0
 10
111.46455108119019
 20
63.709185465513812
 30
0.0
 11
111.75950053848329
 21
63.919570868781634
 31
0.0
  0
LINE
  5
14C2
  8
0
 10
112.49955108119021
 20
54.608514787299981
 30
0.0
 11
112.49955108119021
 21
63.311703832152297
 31
0.0
  0
LINE
  5
14C3
  8
0
 10
112.49955108119021
 20
67.218325742447689
 30
0.0
 11
112.49955108119021
 21
70.171514787299927
 31
0.0
  0
LINE
  5
14C4
  8
0
 10
112.3940510811902
 20
54.608514787299981
 30
0.0
 11
112.3940510811902
 21
63.368567796872888
 31
0.0
  0
LINE
  5
14C5
  8
0
 10
112.3940510811902
 20
67.161461777727098
 30
0.0
 11
112.3940510811902
 21
70.171514787299927
 31
0.0
  0
LINE
  5
14C6
  8
0
 10
113.5370510811902
 20
54.608514787299981
 30
0.0
 11
113.5370297809402
 21
54.971091472299982
 31
0.0
  0
LINE
  5
14C7
  8
0
 10
113.5370297809402
 20
55.245591472299992
 30
0.0
 11
113.537042420143
 21
63.078150685174421
 31
0.0
  0
LINE
  5
14C8
  8
0
 10
113.53704947791741
 20
67.451878719199442
 30
0.0
 11
113.5370510811902
 21
68.445432665093122
 31
0.0
  0
LINE
  5
14C9
  8
0
 10
113.43155108119019
 20
54.608514787299981
 30
0.0
 11
113.43155108119019
 21
54.972590379460172
 31
0.0
  0
LINE
  5
14CA
  8
0
 10
113.43155108119019
 20
55.244092565139781
 30
0.0
 11
113.4315530256173
 21
63.078150847171727
 31
0.0
  0
LINE
  5
14CB
  8
0
 10
113.4315541111843
 20
67.451878753612291
 30
0.0
 11
113.4315543576402
 21
68.444844740999983
 31
0.0
  0
ARC
  5
14CC
  8
0
 10
101.06443036302549
 20
68.595014787749989
 30
0.0
 40
0.331325201595121
 50
99.621852512896112
 51
260.37814748710389
  0
ARC
  5
14CD
  8
0
 10
101.22212673189139
 20
68.595014786599421
 30
0.0
 40
0.2908843938011701
 50
137.10352517272921
 51
222.89647508929511
  0
ARC
  5
14CE
  8
0
 10
101.0618010811902
 20
68.457764787299993
 30
0.0
 40
0.0527499999999988
 50
0.0000000000020356
 51
180.0
  0
ARC
  5
14CF
  8
0
 10
101.0618010811902
 20
68.732264787299997
 30
0.0
 40
0.0527499999999996
 50
180.0
 51
0.0
  0
LINE
  5
14D0
  8
0
 10
101.11180108119019
 20
68.715455191825981
 30
0.0
 11
101.11180108119019
 21
68.680014787299996
 31
0.0
  0
ARC
  5
14D1
  8
0
 10
101.1975153668479
 20
68.595014787275787
 30
0.0
 40
0.1207142856570507
 50
135.3700921604092
 51
224.76027011467519
  0
LINE
  5
14D2
  8
0
 10
101.11180108119019
 20
68.510014787299994
 30
0.0
 11
101.11180108119019
 21
68.474574382773994
 31
0.0
  0
LINE
  5
14D3
  8
0
 10
101.0118010811902
 20
68.715455191825981
 30
0.0
 11
101.0118010811902
 21
68.680014787299996
 31
0.0
  0
ARC
  5
14D4
  8
0
 10
100.9260867955325
 20
68.595014787275787
 30
0.0
 40
0.1207142856570507
 50
315.23972988532478
 51
44.629907839590743
  0
LINE
  5
14D5
  8
0
 10
101.0118010811902
 20
68.510014787299994
 30
0.0
 11
101.0118010811902
 21
68.474574382773994
 31
0.0
  0
ARC
  5
14D6
  8
0
 10
101.0591717993549
 20
68.595014787749989
 30
0.0
 40
0.331325201595121
 50
279.62185251289611
 51
80.378147487103917
  0
ARC
  5
14D7
  8
0
 10
100.9014754304891
 20
68.595014786599421
 30
0.0
 40
0.2908843938011701
 50
317.10352491070489
 51
42.896474827270723
  0
ARC
  5
14D8
  8
0
 10
113.4869336394755
 20
68.582094741449993
 30
0.0
 40
0.331325201595121
 50
99.621852512896112
 51
260.37814748710389
  0
ARC
  5
14D9
  8
0
 10
113.64463000834139
 20
68.582094740299411
 30
0.0
 40
0.2908843938011701
 50
137.10352517272921
 51
222.89647508929511
  0
ARC
  5
14DA
  8
0
 10
113.4843043576402
 20
68.444844740999983
 30
0.0
 40
0.0527499999999988
 50
0.0000000000020356
 51
180.0
  0
ARC
  5
14DB
  8
0
 10
113.4843043576402
 20
68.719344740999986
 30
0.0
 40
0.0527499999999996
 50
180.0
 51
0.0
  0
LINE
  5
14DC
  8
0
 10
113.5343043576402
 20
68.702535145525985
 30
0.0
 11
113.5343043576402
 21
68.667094740999985
 31
0.0
  0
ARC
  5
14DD
  8
0
 10
113.6200186432979
 20
68.582094740975776
 30
0.0
 40
0.1207142856570507
 50
135.3700921604092
 51
224.76027011467519
  0
LINE
  5
14DE
  8
0
 10
113.5343043576402
 20
68.497094740999984
 30
0.0
 11
113.5343043576402
 21
68.461654336473984
 31
0.0
  0
LINE
  5
14DF
  8
0
 10
113.4343043576402
 20
68.702535145525985
 30
0.0
 11
113.4343043576402
 21
68.667094740999985
 31
0.0
  0
ARC
  5
14E0
  8
0
 10
113.3485900719825
 20
68.582094740975776
 30
0.0
 40
0.1207142856570507
 50
315.23972988532478
 51
44.629907839590743
  0
LINE
  5
14E1
  8
0
 10
113.4343043576402
 20
68.497094740999984
 30
0.0
 11
113.4343043576402
 21
68.461654336473984
 31
0.0
  0
ARC
  5
14E2
  8
0
 10
113.4816750758049
 20
68.582094741449993
 30
0.0
 40
0.331325201595121
 50
279.62185251289611
 51
80.378147487103917
  0
ARC
  5
14E3
  8
0
 10
113.323978706939
 20
68.582094740299411
 30
0.0
 40
0.2908843938011701
 50
317.10352491070489
 51
42.896474827270723
  0
ARC
  5
14E4
  8
0
 10
101.06443036302549
 20
55.114764787749991
 30
0.0
 40
0.331325201595121
 50
99.621852512896112
 51
260.37814748710389
  0
ARC
  5
14E5
  8
0
 10
101.22212673189139
 20
55.114764786599409
 30
0.0
 40
0.2908843938011701
 50
137.10352517272921
 51
222.89647508929511
  0
ARC
  5
14E6
  8
0
 10
101.0618010811902
 20
54.977514787299988
 30
0.0
 40
0.0527499999999988
 50
0.0000000000020356
 51
180.0
  0
ARC
  5
14E7
  8
0
 10
101.0618010811902
 20
55.252014787299991
 30
0.0
 40
0.0527499999999996
 50
180.0
 51
0.0
  0
LINE
  5
14E8
  8
0
 10
101.11180108119019
 20
55.235205191825983
 30
0.0
 11
101.11180108119019
 21
55.199764787299991
 31
0.0
  0
ARC
  5
14E9
  8
0
 10
101.1975153668479
 20
55.114764787275782
 30
0.0
 40
0.1207142856570507
 50
135.3700921604092
 51
224.76027011467519
  0
LINE
  5
14EA
  8
0
 10
101.11180108119019
 20
55.029764787299989
 30
0.0
 11
101.11180108119019
 21
54.994324382773989
 31
0.0
  0
LINE
  5
14EB
  8
0
 10
101.0118010811902
 20
55.235205191825983
 30
0.0
 11
101.0118010811902
 21
55.199764787299991
 31
0.0
  0
ARC
  5
14EC
  8
0
 10
100.9260867955325
 20
55.114764787275782
 30
0.0
 40
0.1207142856570507
 50
315.23972988532478
 51
44.629907839590743
  0
LINE
  5
14ED
  8
0
 10
101.0118010811902
 20
55.029764787299989
 30
0.0
 11
101.0118010811902
 21
54.994324382773989
 31
0.0
  0
ARC
  5
14EE
  8
0
 10
101.0591717993549
 20
55.114764787749991
 30
0.0
 40
0.331325201595121
 50
279.62185251289611
 51
80.378147487103917
  0
ARC
  5
14EF
  8
0
 10
100.9014754304891
 20
55.114764786599409
 30
0.0
 40
0.2908843938011701
 50
317.10352491070489
 51
42.896474827270723
  0
ARC
  5
14F0
  8
0
 10
113.4869090627755
 20
55.108341472749991
 30
0.0
 40
0.331325201595121
 50
99.621852512896112
 51
260.37814748710389
  0
ARC
  5
14F1
  8
0
 10
113.64460543164139
 20
55.108341471599417
 30
0.0
 40
0.2908843938011701
 50
137.10352517272921
 51
222.89647508929511
  0
ARC
  5
14F2
  8
0
 10
113.4842797809402
 20
54.971091472299982
 30
0.0
 40
0.0527499999999988
 50
0.0000000000020356
 51
180.0
  0
ARC
  5
14F3
  8
0
 10
113.4842797809402
 20
55.245591472299992
 30
0.0
 40
0.0527499999999996
 50
180.0
 51
0.0
  0
LINE
  5
14F4
  8
0
 10
113.5342797809402
 20
55.22878187682597
 30
0.0
 11
113.5342797809402
 21
55.193341472299991
 31
0.0
  0
ARC
  5
14F5
  8
0
 10
113.6199940665979
 20
55.108341472275782
 30
0.0
 40
0.1207142856570507
 50
135.3700921604092
 51
224.76027011467519
  0
LINE
  5
14F6
  8
0
 10
113.5342797809402
 20
55.02334147229999
 30
0.0
 11
113.5342797809402
 21
54.98790106777399
 31
0.0
  0
LINE
  5
14F7
  8
0
 10
113.4342797809402
 20
55.22878187682597
 30
0.0
 11
113.4342797809402
 21
55.193341472299991
 31
0.0
  0
ARC
  5
14F8
  8
0
 10
113.3485654952826
 20
55.108341472275782
 30
0.0
 40
0.1207142856570507
 50
315.23972988532478
 51
44.629907839590743
  0
LINE
  5
14F9
  8
0
 10
113.4342797809402
 20
55.02334147229999
 30
0.0
 11
113.4342797809402
 21
54.98790106777399
 31
0.0
  0
ARC
  5
14FA
  8
0
 10
113.4816504991049
 20
55.108341472749991
 30
0.0
 40
0.331325201595121
 50
279.62185251289611
 51
80.378147487103917
  0
ARC
  5
14FB
  8
0
 10
113.3239541302391
 20
55.108341471599417
 30
0.0
 40
0.2908843938011701
 50
317.10352491070489
 51
42.896474827270723
  0
ARC
  5
14FC
  8
0
 10
127.5093010811902
 20
69.759014787299989
 30
0.0
 40
0.6000000000000015
 50
0.0000000000004071
 51
90.0
  0
LINE
  5
14FD
  8
0
 10
128.10930108119021
 20
69.759014787299989
 30
0.0
 11
128.10930108119021
 21
55.02101478729999
 31
0.0
  0
ARC
  5
14FE
  8
0
 10
127.5093010811902
 20
55.02101478729999
 30
0.0
 40
0.6000000000000015
 50
270.0
 51
0.0
  0
ARC
  5
14FF
  8
0
 10
127.5093010811902
 20
55.02101478729999
 30
0.0
 40
0.4125000000000006
 50
270.0
 51
0.0
  0
LINE
  5
1500
  8
0
 10
127.9218010811902
 20
55.02101478729999
 30
0.0
 11
127.9218010811902
 21
69.759014787299989
 31
0.0
  0
ARC
  5
1501
  8
0
 10
127.5093010811902
 20
69.759014787299989
 30
0.0
 40
0.4124999999999979
 50
0.0
 51
90.0
  0
LINE
  5
1502
  8
0
 10
126.8890510811902
 20
54.608514787299988
 30
0.0
 11
126.8890510811903
 21
70.17151478729987
 31
0.0
  0
LINE
  5
1503
  8
0
 10
126.9945510811902
 20
54.608514787299988
 30
0.0
 11
126.9945510811902
 21
70.17151478729987
 31
0.0
  0
LINE
  5
1504
  8
0
 10
125.85405108119021
 20
54.608514787299988
 30
0.0
 11
125.85405108119021
 21
54.977514787299988
 31
0.0
  0
LINE
  5
1505
  8
0
 10
125.85405108119021
 20
55.252014787299991
 30
0.0
 11
125.85405108119021
 21
68.457764787299993
 31
0.0
  0
LINE
  5
1506
  8
0
 10
125.85405108119021
 20
68.732264787299997
 30
0.0
 11
125.85405108119021
 21
70.171514787299984
 31
0.0
  0
LINE
  5
1507
  8
0
 10
125.9595510811902
 20
54.608514787299988
 30
0.0
 11
125.9595510811902
 21
54.977514787299988
 31
0.0
  0
LINE
  5
1508
  8
0
 10
125.9595510811902
 20
55.252014787299991
 30
0.0
 11
125.9595510811902
 21
68.457764787299993
 31
0.0
  0
LINE
  5
1509
  8
0
 10
125.9595510811902
 20
68.732264787299997
 30
0.0
 11
125.9595510811902
 21
70.171514787299984
 31
0.0
  0
LINE
  5
150A
  8
0
 10
124.8190510811902
 20
54.608514787299988
 30
0.0
 11
124.8190510811902
 21
70.17151478729987
 31
0.0
  0
LINE
  5
150B
  8
0
 10
124.9245510811902
 20
54.608514787299988
 30
0.0
 11
124.9245510811902
 21
70.17151478729987
 31
0.0
  0
LINE
  5
150C
  8
0
 10
123.7840510811902
 20
54.608514787299988
 30
0.0
 11
123.7840510811902
 21
70.17151478729987
 31
0.0
  0
LINE
  5
150D
  8
0
 10
123.88955108119021
 20
54.608514787299988
 30
0.0
 11
123.88955108119021
 21
70.17151478729987
 31
0.0
  0
LINE
  5
150E
  8
0
 10
122.7490510811902
 20
54.608514787299988
 30
0.0
 11
122.7490510811902
 21
70.171514787299884
 31
0.0
  0
LINE
  5
150F
  8
0
 10
122.85455108119019
 20
54.608514787299988
 30
0.0
 11
122.85455108119019
 21
70.171514787299884
 31
0.0
  0
LINE
  5
1510
  8
0
 10
121.71405108119021
 20
54.608514787299988
 30
0.0
 11
121.71405108119021
 21
70.171514787299884
 31
0.0
  0
LINE
  5
1511
  8
0
 10
121.8195510811902
 20
54.608514787299988
 30
0.0
 11
121.8195510811902
 21
70.171514787299884
 31
0.0
  0
LINE
  5
1512
  8
0
 10
120.6790510811902
 20
54.608514787299988
 30
0.0
 11
120.6790510811902
 21
70.171514787299898
 31
0.0
  0
LINE
  5
1513
  8
0
 10
120.7845510811903
 20
54.608514787299988
 30
0.0
 11
120.7845510811903
 21
70.171514787299898
 31
0.0
  0
LINE
  5
1514
  8
0
 10
119.6440510811902
 20
54.608514787299988
 30
0.0
 11
119.6440510811902
 21
70.171514787299898
 31
0.0
  0
LINE
  5
1515
  8
0
 10
119.74955108119021
 20
54.608514787299988
 30
0.0
 11
119.74955108119021
 21
70.171514787299898
 31
0.0
  0
LINE
  5
1516
  8
0
 10
118.6090510811903
 20
54.608514787299988
 30
0.0
 11
118.6090510811903
 21
70.171514787299898
 31
0.0
  0
LINE
  5
1517
  8
0
 10
118.71455108119019
 20
54.608514787299988
 30
0.0
 11
118.71455108119019
 21
70.171514787299898
 31
0.0
  0
LINE
  5
1518
  8
0
 10
117.57405108119021
 20
54.608514787299988
 30
0.0
 11
117.57405108119021
 21
70.171514787299913
 31
0.0
  0
LINE
  5
1519
  8
0
 10
117.6795510811902
 20
54.608514787299988
 30
0.0
 11
117.6795510811902
 21
70.171514787299913
 31
0.0
  0
LINE
  5
151A
  8
0
 10
116.53905108119019
 20
54.608514787299988
 30
0.0
 11
116.53905108119019
 21
70.171514787299913
 31
0.0
  0
LINE
  5
151B
  8
0
 10
116.6445510811902
 20
54.608514787299988
 30
0.0
 11
116.6445510811902
 21
70.171514787299913
 31
0.0
  0
LINE
  5
151C
  8
0
 10
115.5040510811902
 20
54.608514787299988
 30
0.0
 11
115.5040510811902
 21
64.424915871992994
 31
0.0
  0
LINE
  5
151D
  8
0
 10
115.6095510811902
 20
54.608514787299988
 30
0.0
 11
115.6095510811902
 21
64.746875146372943
 31
0.0
  0
LINE
  5
151E
  8
0
 10
127.4298861173329
 20
70.171514787299984
 30
0.0
 11
126.9945510811902
 21
70.015240671763863
 31
0.0
  0
LINE
  5
151F
  8
0
 10
126.8890510811902
 20
69.977368876892626
 30
0.0
 11
125.9595510811902
 21
69.643702210230785
 31
0.0
  0
LINE
  5
1520
  8
0
 10
125.85405108119021
 20
69.605830415359534
 30
0.0
 11
124.9245510811902
 21
69.272163748697707
 31
0.0
  0
LINE
  5
1521
  8
0
 10
124.8190510811902
 20
69.234291953826457
 30
0.0
 11
123.88955108119021
 21
68.900625287164615
 31
0.0
  0
LINE
  5
1522
  8
0
 10
123.7840510811902
 20
68.862753492293379
 30
0.0
 11
122.85455108119019
 21
68.529086825631552
 31
0.0
  0
LINE
  5
1523
  8
0
 10
122.7490510811902
 20
68.491215030760301
 30
0.0
 11
121.8195510811902
 21
68.157548364098474
 31
0.0
  0
LINE
  5
1524
  8
0
 10
121.71405108119021
 20
68.119676569227224
 30
0.0
 11
120.7845510811903
 21
67.786009902565382
 31
0.0
  0
LINE
  5
1525
  8
0
 10
120.6790510811902
 20
67.748138107694146
 30
0.0
 11
119.74955108119021
 21
67.414471441032305
 31
0.0
  0
LINE
  5
1526
  8
0
 10
119.6440510811902
 20
67.376599646161054
 30
0.0
 11
118.71455108119019
 21
67.042932979499227
 31
0.0
  0
LINE
  5
1527
  8
0
 10
118.6090510811903
 20
67.005061184627991
 30
0.0
 11
117.6795510811902
 21
66.671394517966135
 31
0.0
  0
LINE
  5
1528
  8
0
 10
117.57405108119021
 20
66.633522723094899
 30
0.0
 11
116.6445510811902
 21
66.299856056433072
 31
0.0
  0
LINE
  5
1529
  8
0
 10
116.53905108119019
 20
66.261984261561821
 30
0.0
 11
115.6095510811902
 21
65.928317594899994
 31
0.0
  0
LINE
  5
152A
  8
0
 10
115.6095510811902
 20
66.127532492499995
 30
0.0
 11
116.53905108119019
 21
66.461199159169624
 31
0.0
  0
LINE
  5
152B
  8
0
 10
116.6445510811902
 20
66.499070954041755
 30
0.0
 11
117.57405108119021
 21
66.832737620711384
 31
0.0
  0
LINE
  5
152C
  8
0
 10
117.6795510811902
 20
66.870609415583502
 30
0.0
 11
118.6090510811903
 21
67.204276082253145
 31
0.0
  0
LINE
  5
152D
  8
0
 10
118.71455108119019
 20
67.242147877125277
 30
0.0
 11
119.6440510811902
 21
67.575814543794891
 31
0.0
  0
LINE
  5
152E
  8
0
 10
119.74955108119021
 20
67.613686338667023
 30
0.0
 11
120.6790510811902
 21
67.947353005336666
 31
0.0
  0
LINE
  5
152F
  8
0
 10
120.7845510811903
 20
67.985224800208798
 30
0.0
 11
121.71405108119021
 21
68.318891466878412
 31
0.0
  0
LINE
  5
1530
  8
0
 10
121.8195510811902
 20
68.356763261750544
 30
0.0
 11
122.7490510811902
 21
68.690429928420173
 31
0.0
  0
LINE
  5
1531
  8
0
 10
122.85455108119019
 20
68.728301723292304
 30
0.0
 11
123.7840510811902
 21
69.061968389961933
 31
0.0
  0
LINE
  5
1532
  8
0
 10
123.88955108119021
 20
69.099840184834065
 30
0.0
 11
124.8190510811902
 21
69.433506851503694
 31
0.0
  0
LINE
  5
1533
  8
0
 10
124.9245510811902
 20
69.471378646375825
 30
0.0
 11
125.85405108119021
 21
69.805045313045454
 31
0.0
  0
LINE
  5
1534
  8
0
 10
125.9595510811902
 20
69.842917107917586
 30
0.0
 11
126.87493033089029
 21
70.171514787299984
 31
0.0
  0
LINE
  5
1535
  8
0
 10
115.6697912293035
 20
65.35876478729999
 30
0.0
 11
127.9218010811902
 21
65.35876478729999
 31
0.0
  0
LINE
  5
1536
  8
0
 10
115.6697912293035
 20
65.171264787299975
 30
0.0
 11
127.9218010811902
 21
65.171264787299975
 31
0.0
  0
LINE
  5
1537
  8
0
 10
127.9218010811902
 20
55.082001767499989
 30
0.0
 11
126.9945510811902
 21
55.743402764701401
 31
0.0
  0
LINE
  5
1538
  8
0
 10
126.8890510811902
 20
55.818655183363852
 30
0.0
 11
125.9595510811902
 21
56.481661089968
 31
0.0
  0
LINE
  5
1539
  8
0
 10
125.85405108119021
 20
56.556913508630451
 30
0.0
 11
124.9245510811902
 21
57.219919415234607
 31
0.0
  0
LINE
  5
153A
  8
0
 10
124.8190510811902
 20
57.295171833897058
 30
0.0
 11
123.88955108119021
 21
57.95817774050122
 31
0.0
  0
LINE
  5
153B
  8
0
 10
123.7840510811902
 20
58.033430159163657
 30
0.0
 11
122.85455108119019
 21
58.696436065767827
 31
0.0
  0
LINE
  5
153C
  8
0
 10
122.7490510811902
 20
58.771688484430271
 30
0.0
 11
121.8195510811902
 21
59.434694391034427
 31
0.0
  0
LINE
  5
153D
  8
0
 10
121.71405108119021
 20
59.509946809696878
 30
0.0
 11
120.7845510811903
 21
60.17295271630104
 31
0.0
  0
LINE
  5
153E
  8
0
 10
120.6790510811902
 20
60.248205134963477
 30
0.0
 11
119.74955108119021
 21
60.911211041567647
 31
0.0
  0
LINE
  5
153F
  8
0
 10
119.6440510811902
 20
60.986463460230091
 30
0.0
 11
118.71455108119019
 21
61.649469366834253
 31
0.0
  0
LINE
  5
1540
  8
0
 10
118.6090510811903
 20
61.724721785496698
 30
0.0
 11
117.6795510811902
 21
62.387727692100853
 31
0.0
  0
LINE
  5
1541
  8
0
 10
117.57405108119021
 20
62.462980110763297
 30
0.0
 11
116.6445510811902
 21
63.125986017367467
 31
0.0
  0
LINE
  5
1542
  8
0
 10
116.53905108119019
 20
63.201238436029911
 30
0.0
 11
115.6095510811902
 21
63.864244342634073
 31
0.0
  0
LINE
  5
1543
  8
0
 10
115.5040510811902
 20
63.93949676129651
 30
0.0
 11
115.3171925580902
 21
64.072781650499991
 31
0.0
  0
LINE
  5
1544
  8
0
 10
127.89333858589021
 20
54.871992572199993
 30
0.0
 11
126.9945510811902
 21
55.513091468817002
 31
0.0
  0
LINE
  5
1545
  8
0
 10
126.8890510811902
 20
55.588343887480377
 30
0.0
 11
125.9595510811902
 21
56.251349794092768
 31
0.0
  0
LINE
  5
1546
  8
0
 10
125.85405108119021
 20
56.326602212756143
 30
0.0
 11
124.9245510811902
 21
56.989608119368533
 31
0.0
  0
LINE
  5
1547
  8
0
 10
124.8190510811902
 20
57.064860538031908
 30
0.0
 11
123.88955108119021
 21
57.727866444644299
 31
0.0
  0
LINE
  5
1548
  8
0
 10
123.7840510811902
 20
57.803118863307681
 30
0.0
 11
122.85455108119019
 21
58.466124769920071
 31
0.0
  0
LINE
  5
1549
  8
0
 10
122.7490510811902
 20
58.541377188583439
 30
0.0
 11
121.8195510811902
 21
59.204383095195837
 31
0.0
  0
LINE
  5
154A
  8
0
 10
121.71405108119021
 20
59.279635513859212
 30
0.0
 11
120.7845510811903
 21
59.942641420471602
 31
0.0
  0
LINE
  5
154B
  8
0
 10
120.6790510811902
 20
60.01789383913497
 30
0.0
 11
119.74955108119021
 21
60.680899745747361
 31
0.0
  0
LINE
  5
154C
  8
0
 10
119.6440510811902
 20
60.756152164410743
 30
0.0
 11
118.71455108119019
 21
61.419158071023134
 31
0.0
  0
LINE
  5
154D
  8
0
 10
118.6090510811903
 20
61.494410489686501
 30
0.0
 11
117.6795510811902
 21
62.157416396298892
 31
0.0
  0
LINE
  5
154E
  8
0
 10
117.57405108119021
 20
62.232668814962281
 30
0.0
 11
116.6445510811902
 21
62.895674721574657
 31
0.0
  0
LINE
  5
154F
  8
0
 10
116.53905108119019
 20
62.970927140238039
 30
0.0
 11
115.6095510811902
 21
63.63393304685043
 31
0.0
  0
LINE
  5
1550
  8
0
 10
115.5040510811902
 20
63.709185465513812
 30
0.0
 11
115.2091016238971
 21
63.919570868781634
 31
0.0
  0
LINE
  5
1551
  8
0
 10
114.4690510811902
 20
54.608514787299981
 30
0.0
 11
114.4690510811902
 21
63.31170383215229
 31
0.0
  0
LINE
  5
1552
  8
0
 10
114.57455108119019
 20
54.608514787299981
 30
0.0
 11
114.57455108119019
 21
63.368567796872888
 31
0.0
  0
ARC
  5
1553
  8
0
 10
125.9041717993549
 20
68.595014787749989
 30
0.0
 40
0.331325201595121
 50
279.62185251289611
 51
80.378147487103917
  0
ARC
  5
1554
  8
0
 10
125.7464754304891
 20
68.595014786599421
 30
0.0
 40
0.2908843938011701
 50
317.10352491070489
 51
42.896474827270723
  0
ARC
  5
1555
  8
0
 10
125.9068010811902
 20
68.457764787299993
 30
0.0
 40
0.0527499999999988
 50
0.0
 51
179.9999999999979
  0
ARC
  5
1556
  8
0
 10
125.9068010811902
 20
68.732264787299997
 30
0.0
 40
0.0527499999999996
 50
180.0
 51
0.0
  0
LINE
  5
1557
  8
0
 10
125.8568010811902
 20
68.715455191825981
 30
0.0
 11
125.8568010811902
 21
68.680014787299996
 31
0.0
  0
ARC
  5
1558
  8
0
 10
125.7710867955325
 20
68.595014787275787
 30
0.0
 40
0.1207142856570507
 50
315.23972988532478
 51
44.629907839590743
  0
LINE
  5
1559
  8
0
 10
125.8568010811902
 20
68.510014787299994
 30
0.0
 11
125.8568010811902
 21
68.474574382773994
 31
0.0
  0
LINE
  5
155A
  8
0
 10
125.95680108119021
 20
68.715455191825981
 30
0.0
 11
125.95680108119021
 21
68.680014787299996
 31
0.0
  0
ARC
  5
155B
  8
0
 10
126.04251536684789
 20
68.595014787275787
 30
0.0
 40
0.1207142856570507
 50
135.3700921604092
 51
224.76027011467519
  0
LINE
  5
155C
  8
0
 10
125.95680108119021
 20
68.510014787299994
 30
0.0
 11
125.95680108119021
 21
68.474574382773994
 31
0.0
  0
ARC
  5
155D
  8
0
 10
125.90943036302551
 20
68.595014787749989
 30
0.0
 40
0.331325201595121
 50
99.621852512896112
 51
260.37814748710389
  0
ARC
  5
155E
  8
0
 10
126.06712673189141
 20
68.595014786599421
 30
0.0
 40
0.2908843938011701
 50
137.10352517272921
 51
222.89647508929511
  0
ARC
  5
155F
  8
0
 10
125.9041717993549
 20
55.114764787749991
 30
0.0
 40
0.331325201595121
 50
279.62185251289611
 51
80.378147487103917
  0
ARC
  5
1560
  8
0
 10
125.7464754304891
 20
55.114764786599409
 30
0.0
 40
0.2908843938011701
 50
317.10352491070489
 51
42.896474827270723
  0
ARC
  5
1561
  8
0
 10
125.9068010811902
 20
54.977514787299988
 30
0.0
 40
0.0527499999999988
 50
0.0
 51
179.9999999999979
  0
ARC
  5
1562
  8
0
 10
125.9068010811902
 20
55.252014787299991
 30
0.0
 40
0.0527499999999996
 50
180.0
 51
0.0
  0
LINE
  5
1563
  8
0
 10
125.8568010811902
 20
55.235205191825983
 30
0.0
 11
125.8568010811902
 21
55.199764787299991
 31
0.0
  0
ARC
  5
1564
  8
0
 10
125.7710867955325
 20
55.114764787275782
 30
0.0
 40
0.1207142856570507
 50
315.23972988532478
 51
44.629907839590743
  0
LINE
  5
1565
  8
0
 10
125.8568010811902
 20
55.029764787299989
 30
0.0
 11
125.8568010811902
 21
54.994324382773989
 31
0.0
  0
LINE
  5
1566
  8
0
 10
125.95680108119021
 20
55.235205191825983
 30
0.0
 11
125.95680108119021
 21
55.199764787299991
 31
0.0
  0
ARC
  5
1567
  8
0
 10
126.04251536684789
 20
55.114764787275782
 30
0.0
 40
0.1207142856570507
 50
135.3700921604092
 51
224.76027011467519
  0
LINE
  5
1568
  8
0
 10
125.95680108119021
 20
55.029764787299989
 30
0.0
 11
125.95680108119021
 21
54.994324382773989
 31
0.0
  0
ARC
  5
1569
  8
0
 10
125.90943036302551
 20
55.114764787749991
 30
0.0
 40
0.331325201595121
 50
99.621852512896112
 51
260.37814748710389
  0
ARC
  5
156A
  8
0
 10
126.06712673189141
 20
55.114764786599409
 30
0.0
 40
0.2908843938011701
 50
137.10352517272921
 51
222.89647508929511
  0
LINE
  5
156B
  8
0
 10
113.5370543576402
 20
68.719344740999986
 30
0.0
 11
113.5370543576402
 21
70.171514787299927
 31
0.0
  0
LINE
  5
156C
  8
0
 10
113.4315543576402
 20
68.719344740999986
 30
0.0
 11
113.4315543576402
 21
70.171514787299927
 31
0.0
  0
LINE
  5
156D
  8
0
 10
115.5040510811902
 20
66.105113702606985
 30
0.0
 11
115.5040510811902
 21
70.171514787299941
 31
0.0
  0
LINE
  5
156E
  8
0
 10
115.6095510811902
 20
65.783154428227022
 30
0.0
 11
115.6095510811902
 21
70.171514787299941
 31
0.0
  0
LINE
  5
156F
  8
0
 10
114.4690510811902
 20
67.218325742447689
 30
0.0
 11
114.4690510811902
 21
70.171514787299927
 31
0.0
  0
LINE
  5
1570
  8
0
 10
114.57455108119019
 20
67.161461777727098
 30
0.0
 11
114.57455108119019
 21
70.171514787299927
 31
0.0
  0
ENDSEC
  0
EOF
