  0
SECTION
  2
HEADER
  9
$ACADVER
  1
AC1009
  9
$INSBASE
 10
157.17137091070251
 20
63.78260019079999
 30
0.0
  9
$EXTMIN
 10
150.02839715905989
 20
34.985179459837703
 30
0.0
  9
$EXTMAX
 10
164.3143444655023
 20
63.788982833790719
 30
0.0
  9
$LIMMIN
 10
0.0
 20
0.0
  9
$LIMMAX
 10
11.692913385800001
 20
8.2677165353999982
  9
$ORTHOMODE
 70
     0
  9
$REGENMODE
 70
     1
  9
$FILLMODE
 70
     1
  9
$QTEXTMODE
 70
     0
  9
$MIRRTEXT
 70
     0
  9
$DRAGMODE
 70
     2
  9
$LTSCALE
 40
0.6431102362
  9
$OSMODE
 70
  3071
  9
$ATTMODE
 70
     1
  9
$TEXTSIZE
 40
0.2
  9
$TRACEWID
 40
0.05
  9
$TEXTSTYLE
  7
STANDARD
  9
$CLAYER
  8
0
  9
$CELTYPE
  6
BYLAYER
  9
$CECOLOR
 62
   256
  9
$DIMSCALE
 40
1.0
  9
$DIMASZ
 40
0.1875
  9
$DIMEXO
 40
0.0625
  9
$DIMDLI
 40
0.4443307087
  9
$DIMRND
 40
0.0
  9
$DIMDLE
 40
0.0
  9
$DIMEXE
 40
0.125
  9
$DIMTP
 40
0.01
  9
$DIMTM
 40
0.01
  9
$DIMTXT
 40
1.0
  9
$DIMCEN
 40
0.1052362205
  9
$DIMTSZ
 40
0.0
  9
$DIMTOL
 70
     1
  9
$DIMLIM
 70
     0
  9
$DIMTIH
 70
     1
  9
$DIMTOH
 70
     1
  9
$DIMSE1
 70
     0
  9
$DIMSE2
 70
     0
  9
$DIMTAD
 70
     0
  9
$DIMZIN
 70
     0
  9
$DIMBLK
  1

  9
$DIMASO
 70
     1
  9
$DIMSHO
 70
     1
  9
$DIMPOST
  1
\X
  9
$DIMAPOST
  1

  9
$DIMALT
 70
     1
  9
$DIMALTD
 70
     2
  9
$DIMALTF
 40
25.399999999999999
  9
$DIMLFAC
 40
1.0
  9
$DIMTOFL
 70
     0
  9
$DIMTVP
 40
0.0
  9
$DIMTIX
 70
     0
  9
$DIMSOXD
 70
     0
  9
$DIMSAH
 70
     0
  9
$DIMBLK1
  1

  9
$DIMBLK2
  1

  9
$DIMSTYLE
  2
STANDARD
  9
$DIMCLRD
 70
     0
  9
$DIMCLRE
 70
     0
  9
$DIMCLRT
 70
     0
  9
$DIMTFAC
 40
1.0
  9
$DIMGAP
 40
0.09
  9
$LUNITS
 70
     2
  9
$LUPREC
 70
     4
  9
$SKETCHINC
 40
0.1
  9
$FILLETRAD
 40
0.0
  9
$AUNITS
 70
     0
  9
$AUPREC
 70
     0
  9
$MENU
  1
.
  9
$ELEVATION
 40
0.0
  9
$PELEVATION
 40
0.0
  9
$THICKNESS
 40
0.0
  9
$LIMCHECK
 70
     0
  9
$BLIPMODE
 70
     0
  9
$CHAMFERA
 40
0.0
  9
$CHAMFERB
 40
0.0
  9
$SKPOLY
 70
     0
  9
$TDCREATE
 40
2458255.408833507
  9
$TDUPDATE
 40
2458262.615845718
  9
$TDINDWG
 40
0.1643952083
  9
$TDUSRTIMER
 40
0.1643952083
  9
$USRTIMER
 70
     1
  9
$ANGBASE
 50
0.0
  9
$ANGDIR
 70
     0
  9
$PDMODE
 70
     0
  9
$PDSIZE
 40
0.3125
  9
$PLINEWID
 40
0.0
  9
$COORDS
 70
     1
  9
$SPLFRAME
 70
     0
  9
$SPLINETYPE
 70
     6
  9
$SPLINESEGS
 70
     8
  9
$ATTDIA
 70
     1
  9
$ATTREQ
 70
     1
  9
$HANDLING
 70
     1
  9
$HANDSEED
  5
1C19
  9
$SURFTAB1
 70
     6
  9
$SURFTAB2
 70
     6
  9
$SURFTYPE
 70
     6
  9
$SURFU
 70
     6
  9
$SURFV
 70
     6
  9
$UCSNAME
  2

  9
$UCSORG
 10
0.0
 20
0.0
 30
0.0
  9
$UCSXDIR
 10
1.0
 20
0.0
 30
0.0
  9
$UCSYDIR
 10
0.0
 20
1.0
 30
0.0
  9
$PUCSNAME
  2

  9
$PUCSORG
 10
0.0
 20
0.0
 30
0.0
  9
$PUCSXDIR
 10
1.0
 20
0.0
 30
0.0
  9
$PUCSYDIR
 10
0.0
 20
1.0
 30
0.0
  9
$USERI1
 70
     0
  9
$USERI2
 70
     0
  9
$USERI3
 70
     0
  9
$USERI4
 70
     0
  9
$USERI5
 70
     0
  9
$USERR1
 40
0.0
  9
$USERR2
 40
0.0
  9
$USERR3
 40
0.0
  9
$USERR4
 40
0.0
  9
$USERR5
 40
0.0
  9
$WORLDVIEW
 70
     1
  9
$SHADEDGE
 70
     3
  9
$SHADEDIF
 70
    70
  9
$TILEMODE
 70
     1
  9
$MAXACTVP
 70
    64
  9
$PLIMCHECK
 70
     0
  9
$PEXTMIN
 10
1.0000000000000000E+020
 20
1.0000000000000000E+020
 30
1.0000000000000000E+020
  9
$PEXTMAX
 10
-1.0000000000000000E+020
 20
-1.0000000000000000E+020
 30
-1.0000000000000000E+020
  9
$PLIMMIN
 10
0.0
 20
0.0
  9
$PLIMMAX
 10
12.0
 20
9.0
  9
$UNITMODE
 70
     0
  9
$VISRETAIN
 70
     1
  9
$PLINEGEN
 70
     0
  9
$PSLTSCALE
 70
     1
  0
ENDSEC
  0
SECTION
  2
TABLES
  0
TABLE
  2
VPORT
 70
     1
  0
VPORT
  2
*ACTIVE
 70
     0
 10
0.0
 20
0.0
 11
1.0
 21
1.0
 12
0.0
 22
0.0
 13
0.0
 23
0.0
 14
1.0
 24
1.0
 15
0.0
 25
0.0
 16
-0.0000000000000284
 26
0.0
 36
90.490606181199055
 17
157.17137081228111
 27
49.387081146814211
 37
0.0
 40
32.151942075834199
 41
2.1006711409395971
 42
50.0
 43
0.0
 44
0.0
 50
0.0
 51
0.0
 71
     0
 72
   100
 73
     1
 74
     1
 75
     0
 76
     0
 77
     0
 78
     0
  0
ENDTAB
  0
TABLE
  2
LTYPE
 70
     2
  0
LTYPE
  2
CONTINUOUS
 70
     0
  3
Solid line
 72
    65
 73
     0
 40
0.0
  0
LTYPE
  2
PHANTOM2
 70
     0
  3
___ _ _ ___ _ _ ___ _ _ ___ _ _
 72
    65
 73
     6
 40
1.25
 49
0.625
 49
-0.125
 49
0.125
 49
-0.125
 49
0.125
 49
-0.125
  0
ENDTAB
  0
TABLE
  2
LAYER
 70
     2
  0
LAYER
  2
0
 70
     0
 62
   255
  6
CONTINUOUS
  0
LAYER
  2
DEFPOINTS
 70
     0
 62
     7
  6
CONTINUOUS
  0
ENDTAB
  0
TABLE
  2
STYLE
 70
     1
  0
STYLE
  2
STANDARD
 70
     0
 40
0.0
 41
0.8
 50
0.0
 71
     0
 42
0.2
  3
txt
  4

  0
ENDTAB
  0
TABLE
  2
VIEW
 70
     0
  0
ENDTAB
  0
TABLE
  2
UCS
 70
     0
  0
ENDTAB
  0
TABLE
  2
APPID
 70
     9
  0
APPID
  2
ACAD
 70
     0
  0
APPID
  2
ACAD_MLEADERVER
 70
     0
  0
APPID
  2
ACAD_EXEMPT_FROM_CAD_STANDARDS
 70
     0
  0
APPID
  2
ACAD_NAV_VCDISPLAY
 70
     0
  0
APPID
  2
ACAD_DSTYLE_DIMJAG
 70
     0
  0
APPID
  2
ACAD_DSTYLE_DIMTALN
 70
     0
  0
APPID
  2
ACAECLAYERSTANDARD
 70
     0
  0
APPID
  2
ACCMTRANSPARENCY
 70
     0
  0
APPID
  2
AcDbAttr
 70
     0
  0
ENDTAB
  0
TABLE
  2
DIMSTYLE
 70
     1
  0
DIMSTYLE
  2
STANDARD
 70
     0
  3

  4

  5

  6

  7

 40
1.0
 41
0.1875
 42
0.0625
 43
0.38
 44
0.125
 45
0.0
 46
0.0
 47
0.01
 48
0.01
140
0.15625
141
0.09
142
0.0
143
25.399999999999999
144
1.0
145
0.0
146
1.0
147
0.09
 71
     1
 72
     0
 73
     1
 74
     1
 75
     0
 76
     0
 77
     0
 78
     4
170
     0
171
     2
172
     0
173
     0
174
     0
175
     0
176
     0
177
     0
178
     0
  0
ENDTAB
  0
ENDSEC
  0
SECTION
  2
BLOCKS
  0
BLOCK
  8
0
  2
$MODEL_SPACE
 70
     0
 10
0.0
 20
0.0
 30
0.0
  3
$MODEL_SPACE
  1

  0
ENDBLK
  5
21
  8
0
  0
BLOCK
 67
     1
  8
0
  2
$PAPER_SPACE
 70
     0
 10
0.0
 20
0.0
 30
0.0
  3
$PAPER_SPACE
  1

  0
ENDBLK
  5
1D
 67
     1
  8
0
  0
ENDSEC
  0
SECTION
  2
ENTITIES
  0
LINE
  5
15A5
  8
0
 10
151.01460506766301
 20
62.46526857218845
 30
0.0
 11
150.98314931836831
 21
58.785053056717082
 31
0.0
  0
LINE
  5
15A6
  8
0
 10
153.6179555957811
 20
52.9155301483
 30
0.0
 11
153.6132738802811
 21
52.980960016400012
 31
0.0
  0
LINE
  5
15A7
  8
0
 10
153.9213708251811
 20
53.038540813099999
 30
0.0
 11
153.9213708251811
 21
53.033410311200001
 31
0.0
  0
LINE
  5
15A8
  8
0
 10
153.6421497389197
 20
53.001930893800001
 30
0.0
 11
153.6515834380811
 21
54.082925744099988
 31
0.0
  0
LINE
  5
15A9
  8
0
 10
153.64801171709729
 20
52.895669129315827
 30
0.0
 11
153.65556422788109
 21
53.001930819199991
 31
0.0
  0
LINE
  5
15AA
  8
0
 10
154.9213708251811
 20
53.033410311200001
 30
0.0
 11
154.9213708251811
 21
53.038540813099999
 31
0.0
  0
LINE
  5
15AB
  8
0
 10
153.61321027048109
 20
52.981407247299998
 30
0.0
 11
153.6132738802811
 21
52.980960016400012
 31
0.0
  0
LINE
  5
15AC
  8
0
 10
155.2005919114811
 20
53.001930893800001
 30
0.0
 11
155.1911582101132
 21
54.082925991049173
 31
0.0
  0
LINE
  5
15AD
  8
0
 10
153.61321027048109
 20
52.981407247299998
 30
0.0
 11
153.18379672195289
 21
52.9814073235992
 31
0.0
  0
LINE
  5
15AE
  8
0
 10
153.02421889458111
 20
52.984812846200001
 30
0.0
 11
152.6367638018811
 21
52.984812846200001
 31
0.0
  0
LINE
  5
15AF
  8
0
 10
153.71768271688109
 20
53.001930473400002
 30
0.0
 11
153.6421497388811
 21
53.001930893800001
 31
0.0
  0
LINE
  5
15B0
  8
0
 10
155.12505893348111
 20
53.001930473400002
 30
0.0
 11
155.2005919114811
 21
53.001930893800001
 31
0.0
  0
LINE
  5
15B1
  8
0
 10
153.97284014798109
 20
53.005224117200001
 30
0.0
 11
154.8699015026811
 21
53.005224117200001
 31
0.0
  0
LINE
  5
15B2
  8
0
 10
153.9213708251811
 20
53.033410311200001
 30
0.0
 11
154.9213708251811
 21
53.033410311200001
 31
0.0
  0
LINE
  5
15B3
  8
0
 10
153.77030795208111
 20
53.038540813099999
 30
0.0
 11
155.07243369828109
 21
53.038540813099999
 31
0.0
  0
ARC
  5
15D9
  8
0
 10
154.70638599289941
 20
53.124565552760721
 30
0.0
 40
0.1249624290314049
 50
287.25027285396931
 51
313.1587577063525
  0
ARC
  5
15DA
  8
0
 10
154.1363714635755
 20
53.124601648722532
 30
0.0
 40
0.1250015813653449
 50
226.8462922753609
 51
252.74772524967329
  0
ARC
  5
15DB
  8
0
 10
153.02421943216311
 20
52.924815744651347
 30
0.0
 40
0.0599971015510483
 50
3.9958210843315758
 51
90.000513377810563
  0
ARC
  5
15DC
  8
0
 10
154.69117724858111
 20
54.078562723300003
 30
0.0
 40
0.5
 50
0.4999999999999972
 51
52.086791347799661
  0
ARC
  5
15DD
  8
0
 10
154.1515644013335
 20
54.078562723583403
 30
0.0
 40
0.4999999995628289
 50
127.9132086407302
 51
179.5000283314092
  0
ARC
  5
15DE
  8
0
 10
151.8247024603599
 20
62.458306858173643
 30
0.0
 40
0.810127305499763
 50
116.46357649421709
 51
179.50763079097479
  0
ARC
  5
15DF
  8
0
 10
151.85468781109051
 20
62.461829309481907
 30
0.0
 40
0.8208281905905154
 50
92.534033804040916
 51
118.44727726007859
  0
ARC
  5
15E0
  8
0
 10
151.85309002293809
 20
62.47480317772763
 30
0.0
 40
0.8077970135976775
 50
90.002066305454974
 51
92.461501338082357
  0
ARC
  5
15E1
  8
0
 10
157.44077459418111
 20
58.702733347299997
 30
0.0
 40
0.03
 50
216.74477358280001
 51
290.2597887450998
  0
ARC
  5
15E2
  8
0
 10
157.36362398968109
 20
58.678728371000012
 30
0.0
 40
0.03
 50
284.30668295999919
 51
35.353362559499963
  0
CIRCLE
  5
15E3
  8
0
 10
157.1713708251811
 20
59.432600190800002
 30
0.0
 40
1.1000000000000001
  0
CIRCLE
  5
15E4
  8
0
 10
157.1713708251811
 20
59.432600190800002
 30
0.0
 40
0.8279999999999999
  0
ARC
  5
15E5
  8
0
 10
157.1713708251811
 20
59.432600190800002
 30
0.0
 40
0.8080000000000001
 50
290.2597887450998
 51
69.740211254900174
  0
ARC
  5
15E6
  8
0
 10
157.1713708251811
 20
59.432600190800002
 30
0.0
 40
0.8080000000000001
 50
75.693317039900037
 51
284.30668296009998
  0
ARC
  5
15E7
  8
0
 10
157.44077459418111
 20
60.162467034300001
 30
0.0
 40
0.03
 50
69.740211254900174
 51
143.25522629359969
  0
ARC
  5
15E8
  8
0
 10
157.36362398968109
 20
60.186472010600014
 30
0.0
 40
0.03
 50
324.6466373600997
 51
75.693317039900037
  0
ARC
  5
15E9
  8
0
 10
158.42625544058109
 20
59.432600190800002
 30
0.0
 40
1.2728846153999991
 50
144.6466374405
 51
215.35336255949991
  0
ARC
  5
15EA
  8
0
 10
158.42625544058109
 20
59.432600190800002
 30
0.0
 40
1.2728846153999991
 50
144.64663744239991
 51
215.35336255530029
  0
ARC
  5
15EB
  8
0
 10
158.41837082518111
 20
59.432600190800002
 30
0.0
 40
1.25
 50
143.25522628189989
 51
216.74477371510011
  0
LINE
  5
160E
  8
0
 10
153.6179555957811
 20
52.9155301483
 30
0.0
 11
153.61823267788111
 21
52.907643004100002
 31
0.0
  0
LINE
  5
1646
  8
0
 10
162.48968093072401
 20
63.282600190799997
 30
0.0
 11
151.85306089068109
 21
63.282600190799997
 31
0.0
  0
ARC
  5
1647
  8
0
 10
156.0169268763926
 20
58.76712439914786
 30
0.0
 40
5.0338094859094564
 50
179.79593216911601
 51
188.9483703820483
  0
ARC
  5
1648
  8
0
 10
153.1631377114484
 20
58.219673094675919
 30
0.0
 40
2.1318043703985521
 50
186.34319629360701
 51
247.61454399052539
  0
ARC
  5
1649
  8
0
 10
153.65470317305821
 20
59.707985605601927
 30
0.0
 40
3.696872844190382
 50
249.35497808882189
 51
271.20841652190683
  0
LINE
  5
164A
  8
0
 10
153.7326675723811
 20
56.011934959499989
 30
0.0
 11
160.6100742489821
 21
56.011934959499968
 31
0.0
  0
ARC
  5
164B
  8
0
 10
114.15906487526961
 20
58.834512441401721
 30
0.0
 40
37.465945387781517
 50
353.53938936950561
 51
356.89214114464193
  0
ARC
  5
164C
  8
0
 10
94.650186290376382
 20
61.113343351986273
 30
0.0
 40
57.1073880723157
 50
349.8319400218212
 51
353.46994353601718
  0
ARC
  5
164D
  8
0
 10
669.86114872692895
 20
-41.407047542688773
 30
0.0
 40
527.16833927946334
 50
169.9009834581116
 51
170.2918159537268
  0
ARC
  5
164E
  8
0
 10
162.11777035646591
 20
45.212545771433852
 30
0.0
 40
12.09189353696013
 50
169.14644750564929
 51
178.8301570983644
  0
ARC
  5
164F
  8
0
 10
166.3049069555654
 20
45.531346118332991
 30
0.0
 40
16.276668733819189
 50
180.25320259686021
 51
182.90992087484199
  0
ARC
  5
1650
  8
0
 10
162.39965117973961
 20
45.441632828947142
 30
0.0
 40
12.372371218729359
 50
183.41310781467141
 51
187.2672204107779
  0
ARC
  5
1651
  8
0
 10
163.98773597687031
 20
45.836612086929748
 30
0.0
 40
13.99896456205868
 50
188.04864594431791
 51
208.0418899973362
  0
ARC
  5
1652
  8
0
 10
160.7057900897706
 20
43.702035608367133
 30
0.0
 40
10.104563448058711
 50
206.10745826738469
 51
228.89575564003741
  0
ARC
  5
1653
  8
0
 10
157.15340427852149
 20
39.849280126129877
 30
0.0
 40
4.8681327004937991
 50
230.58909757556549
 51
253.45947888349991
  0
ARC
  5
1654
  8
0
 10
157.17678211826291
 20
40.114093450057823
 30
0.0
 40
5.1289168447824647
 50
254.0513375593649
 51
269.93955023911462
  0
ARC
  5
1655
  8
0
 10
158.10839327361711
 20
48.387431627173967
 30
0.0
 40
7.2152396630493056
 50
141.14921886522021
 51
154.73881954436681
  0
ARC
  5
1656
  8
0
 10
165.87260671196489
 20
44.450618648379198
 30
0.0
 40
15.918908563432691
 50
153.8497674040843
 51
159.7216133369503
  0
ARC
  5
1657
  8
0
 10
166.2504848179685
 20
44.481315345924081
 30
0.0
 40
16.263511464071581
 50
160.2844505334381
 51
165.32086096822789
  0
ARC
  5
1658
  8
0
 10
162.2268110725567
 20
45.503119466151702
 30
0.0
 40
12.11227917107375
 50
165.1734167000171
 51
183.44253015932
  0
ARC
  5
1659
  8
0
 10
163.70493248250611
 20
45.638466851578833
 30
0.0
 40
13.59593959873294
 50
183.63784062072341
 51
197.1664062094049
  0
ARC
  5
165A
  8
0
 10
164.5625336865549
 20
45.886939765034683
 30
0.0
 40
14.48868080367447
 50
197.10425950732159
 51
214.8945077163454
  0
ARC
  5
165B
  8
0
 10
160.49248059252281
 20
43.368837968594327
 30
0.0
 40
9.7134329362073402
 50
216.44591495648839
 51
228.5517309081668
  0
ARC
  5
165C
  8
0
 10
152.63661158398261
 20
52.79697251268459
 30
0.0
 40
0.1878403951908887
 50
89.953569922513665
 51
141.65403462138531
  0
ARC
  5
165D
  8
0
 10
148.95400355961669
 20
52.640906070834241
 30
0.0
 40
4.1401027312622274
 50
359.28347661785182
 51
3.9901714093943341
  0
ARC
  5
165E
  8
0
 10
153.15377677899039
 20
52.589162914522952
 30
0.0
 40
0.0599942317371689
 50
180.0289796915994
 51
269.68333092667581
  0
ARC
  5
165F
  8
0
 10
137.50922953959591
 20
-1543.518236563561
 30
0.0
 40
1596.1240754409121
 50
89.294173788121043
 51
89.438413405965889
  0
ARC
  5
1660
  8
0
 10
161.0324329050529
 20
52.845488052763763
 30
0.0
 40
7.9089974780615924
 50
179.4506137501979
 51
182.2551418638875
  0
ARC
  5
1661
  8
0
 10
153.1837956023314
 20
52.921410663054999
 30
0.0
 40
0.0599966605546475
 50
89.998930780666001
 51
180.08362563496661
  0
ARC
  5
1662
  8
0
 10
127.0084421770494
 20
52.494104573836253
 30
0.0
 40
26.61300367360769
 50
0.0654689479808862
 51
0.8903527252280078
  0
ARC
  5
1663
  8
0
 10
176.64880334121449
 20
52.538798217891831
 30
0.0
 40
23.003559989346869
 50
179.111093354925
 51
180.0361778683515
  0
ARC
  5
1664
  8
0
 10
153.7182711584482
 20
53.0344873059151
 30
0.0
 40
0.0325621499120383
 50
268.96453232580433
 51
353.39548208017652
  0
ARC
  5
1665
  8
0
 10
153.76912898411669
 20
53.012759798156601
 30
0.0
 40
0.0258079580163381
 50
87.381683382361899
 51
135.83111784629
  0
ARC
  5
1666
  8
0
 10
155.12463910773141
 20
53.034682921838467
 30
0.0
 40
0.0327551390223786
 50
186.80390364143511
 51
270.73438559411528
  0
ARC
  5
1667
  8
0
 10
155.0733793705821
 20
53.012049711868919
 30
0.0
 40
0.0265079750365184
 50
45.026559228030642
 51
92.044461387359405
  0
ARC
  5
1668
  8
0
 10
153.8462222121002
 20
55.848585037717207
 30
0.0
 40
2.8461787410511068
 50
267.6893390354258
 51
272.54975849221699
  0
ARC
  5
1669
  8
0
 10
154.99628410279411
 20
55.804142860971709
 30
0.0
 40
2.8017706358386949
 50
267.4146179533588
 51
272.35410639537838
  0
ARC
  5
166A
  8
0
 10
153.97281941231151
 20
53.095462467228813
 30
0.0
 40
0.0902383524112144
 50
219.10859815429839
 51
270.01316586953499
  0
ARC
  5
166B
  8
0
 10
154.86986819180581
 20
53.095576159031538
 30
0.0
 40
0.090352047972042
 50
270.02112373383181
 51
320.85709102676589
  0
ARC
  5
166C
  8
0
 10
154.1578321957964
 20
54.04730128724438
 30
0.0
 40
0.5287072817914889
 50
91.18990158825585
 51
126.36721642350319
  0
ARC
  5
166D
  8
0
 10
154.67233803725131
 20
54.016534142958363
 30
0.0
 40
0.5609951125097461
 50
54.462200101257878
 51
85.624957381560108
  0
LINE
  5
166E
  8
0
 10
154.14685295058109
 20
54.575894558100003
 30
0.0
 11
154.71513339018111
 21
54.575894558100003
 31
0.0
  0
LINE
  5
166F
  8
0
 10
155.20011109488109
 20
53.057027016999989
 30
0.0
 11
157.1713708878861
 21
53.057027016999989
 31
0.0
  0
LINE
  5
1670
  8
0
 10
163.32813675369911
 20
62.46526857218845
 30
0.0
 11
163.35959250299391
 21
58.785053056717082
 31
0.0
  0
LINE
  5
1671
  8
0
 10
160.72478622558111
 20
52.9155301483
 30
0.0
 11
160.72946794108111
 21
52.980960016400012
 31
0.0
  0
LINE
  5
1672
  8
0
 10
160.42137099618111
 20
53.038540813099999
 30
0.0
 11
160.42137099618111
 21
53.033410311200001
 31
0.0
  0
LINE
  5
1673
  8
0
 10
160.70059208244251
 20
53.001930893800001
 30
0.0
 11
160.69115838328111
 21
54.082925744099988
 31
0.0
  0
LINE
  5
1674
  8
0
 10
160.69473010426489
 20
52.895669129315827
 30
0.0
 11
160.6871775934811
 21
53.001930819199991
 31
0.0
  0
LINE
  5
1675
  8
0
 10
159.42137099618111
 20
53.033410311200001
 30
0.0
 11
159.42137099618111
 21
53.038540813099999
 31
0.0
  0
LINE
  5
1676
  8
0
 10
160.72953155088109
 20
52.981407247299998
 30
0.0
 11
160.72946794108111
 21
52.980960016400012
 31
0.0
  0
LINE
  5
1677
  8
0
 10
159.14214990988111
 20
53.001930893800001
 30
0.0
 11
159.15158361124901
 21
54.082925991049173
 31
0.0
  0
LINE
  5
1678
  8
0
 10
160.72953155088109
 20
52.981407247299998
 30
0.0
 11
161.15894509940929
 21
52.9814073235992
 31
0.0
  0
LINE
  5
1679
  8
0
 10
161.3185229267811
 20
52.984812846200001
 30
0.0
 11
161.70597801948111
 21
52.984812846200001
 31
0.0
  0
LINE
  5
167A
  8
0
 10
160.6250591044811
 20
53.001930473400002
 30
0.0
 11
160.70059208248111
 21
53.001930893800001
 31
0.0
  0
LINE
  5
167B
  8
0
 10
159.2176828878811
 20
53.001930473400002
 30
0.0
 11
159.14214990988111
 21
53.001930893800001
 31
0.0
  0
LINE
  5
167C
  8
0
 10
160.36990167338109
 20
53.005224117200001
 30
0.0
 11
159.47284031868111
 21
53.005224117200001
 31
0.0
  0
LINE
  5
167D
  8
0
 10
160.42137099618111
 20
53.033410311200001
 30
0.0
 11
159.42137099618111
 21
53.033410311200001
 31
0.0
  0
LINE
  5
167E
  8
0
 10
160.5724338692811
 20
53.038540813099999
 30
0.0
 11
159.27030812308109
 21
53.038540813099999
 31
0.0
  0
ARC
  5
167F
  8
0
 10
159.63635582846291
 20
53.124565552760721
 30
0.0
 40
0.1249624290314049
 50
226.84124229364741
 51
252.74972714603069
  0
ARC
  5
1680
  8
0
 10
160.20637035778671
 20
53.124601648722532
 30
0.0
 40
0.1250015813653449
 50
287.25227475032671
 51
313.15370772463899
  0
ARC
  5
1681
  8
0
 10
161.3185223891991
 20
52.924815744651347
 30
0.0
 40
0.0599971015510483
 50
89.999486622189423
 51
176.0041789156684
  0
ARC
  5
1682
  8
0
 10
159.6515645727811
 20
54.078562723300003
 30
0.0
 40
0.5
 50
127.9132086522003
 51
179.5
  0
ARC
  5
1683
  8
0
 10
160.19117742002871
 20
54.078562723583403
 30
0.0
 40
0.4999999995628289
 50
0.4999716685908053
 51
52.086791359269768
  0
ARC
  5
1684
  8
0
 10
162.51803936100231
 20
62.458306858173643
 30
0.0
 40
0.810127305499763
 50
0.4923692090252004
 51
63.536423505782857
  0
ARC
  5
1685
  8
0
 10
162.4880540102717
 20
62.461829309481907
 30
0.0
 40
0.8208281905905154
 50
61.552722739921343
 51
87.465966195959069
  0
ARC
  5
1686
  8
0
 10
162.48965179842409
 20
62.47480317772763
 30
0.0
 40
0.8077970135976775
 50
87.538498661917615
 51
89.997933694545011
  0
LINE
  5
1687
  8
0
 10
160.72478622558111
 20
52.9155301483
 30
0.0
 11
160.7245091434811
 21
52.907643004100002
 31
0.0
  0
ARC
  5
1688
  8
0
 10
158.32581494496961
 20
58.76712439914786
 30
0.0
 40
5.0338094859094564
 50
351.05162961795168
 51
0.2040678308839771
  0
ARC
  5
1689
  8
0
 10
161.1796041099139
 20
58.219673094675919
 30
0.0
 40
2.1318043703985521
 50
292.38545600947458
 51
353.65680370639302
  0
ARC
  5
168A
  8
0
 10
160.68803864830409
 20
59.707985605601927
 30
0.0
 40
3.696872844190382
 50
268.79158347809317
 51
290.64502191117811
  0
ARC
  5
168B
  8
0
 10
200.18367694609259
 20
58.834512441401721
 30
0.0
 40
37.465945387781517
 50
183.10785885535799
 51
186.4606106304945
  0
ARC
  5
168C
  8
0
 10
219.69255553098591
 20
61.113343351986273
 30
0.0
 40
57.1073880723157
 50
186.5300564639827
 51
190.1680599781788
  0
ARC
  5
168D
  8
0
 10
-355.51840690556668
 20
-41.407047542688773
 30
0.0
 40
527.16833927946334
 50
9.7081840462731872
 51
10.09901654188841
  0
ARC
  5
168E
  8
0
 10
152.22499875975569
 20
45.212549817870347
 30
0.0
 40
12.09186596841853
 50
1.1698263916343761
 51
10.85355801716938
  0
ARC
  5
168F
  8
0
 10
148.03820074715881
 20
45.531331770052418
 30
0.0
 40
16.276302595828909
 50
357.09006418366431
 51
359.74684221652711
  0
ARC
  5
1690
  8
0
 10
151.9430906416226
 20
45.441632828947142
 30
0.0
 40
12.372371218729359
 50
352.7327795892221
 51
356.58689218532851
  0
ARC
  5
1691
  8
0
 10
150.3550058444919
 20
45.836612086929748
 30
0.0
 40
13.99896456205868
 50
331.95811000266377
 51
351.95135405568197
  0
ARC
  5
1692
  8
0
 10
153.63695173159161
 20
43.702035608367133
 30
0.0
 40
10.104563448058711
 50
311.10424435996259
 51
333.8925417326152
  0
ARC
  5
1693
  8
0
 10
157.18933754284069
 20
39.849280126129877
 30
0.0
 40
4.8681327004937991
 50
286.54052111650009
 51
309.4109024244346
  0
ARC
  5
1694
  8
0
 10
157.16595970405041
 20
40.114093445574341
 30
0.0
 40
5.1289168402102341
 50
270.06044882113429
 51
285.94866244418159
  0
ARC
  5
1695
  8
0
 10
156.2343485477451
 20
48.387431627173967
 30
0.0
 40
7.2152396630493056
 50
25.261180455633191
 51
38.850781134779751
  0
ARC
  5
1696
  8
0
 10
148.47013510939729
 20
44.450618648379198
 30
0.0
 40
15.918908563432691
 50
20.278386663049659
 51
26.15023259591571
  0
ARC
  5
1697
  8
0
 10
148.0922570033936
 20
44.481315345924081
 30
0.0
 40
16.263511464071581
 50
14.67913903177207
 51
19.715549466561932
  0
ARC
  5
1698
  8
0
 10
152.11593074880551
 20
45.503119466151702
 30
0.0
 40
12.11227917107375
 50
356.55746984067991
 51
14.826583299982911
  0
ARC
  5
1699
  8
0
 10
150.6378093388561
 20
45.638466851578833
 30
0.0
 40
13.59593959873294
 50
342.83359379059499
 51
356.36215937927648
  0
ARC
  5
169A
  8
0
 10
149.78020813480731
 20
45.886939765034683
 30
0.0
 40
14.48868080367447
 50
325.10549228365448
 51
342.89574049267839
  0
ARC
  5
169B
  8
0
 10
153.8502612288394
 20
43.368837968594327
 30
0.0
 40
9.7134329362073402
 50
311.4482690918332
 51
323.55408504351152
  0
ARC
  5
169C
  8
0
 10
161.7061302373796
 20
52.79697251268459
 30
0.0
 40
0.1878403951908887
 50
38.3459653786147
 51
90.046430077486335
  0
ARC
  5
169D
  8
0
 10
165.38873826174549
 20
52.640906070834241
 30
0.0
 40
4.1401027312622274
 50
176.00982859060559
 51
180.71652338214821
  0
ARC
  5
169E
  8
0
 10
161.18896504237179
 20
52.589162914522952
 30
0.0
 40
0.0599942317371689
 50
270.31666907332408
 51
359.97102030840063
  0
ARC
  5
169F
  8
0
 10
176.83351607500671
 20
-1543.5186002087701
 30
0.0
 40
1596.1244391058331
 50
90.561586602248354
 51
90.705826188908006
  0
ARC
  5
16A0
  8
0
 10
153.31030891630931
 20
52.845488052763763
 30
0.0
 40
7.9089974780615924
 50
357.7448581361125
 51
0.5493862498020748
  0
ARC
  5
16A1
  8
0
 10
161.15894621903081
 20
52.921410663054999
 30
0.0
 40
0.0599966605546475
 50
359.91637436503339
 51
90.001069219333985
  0
ARC
  5
16A2
  8
0
 10
187.33429964431281
 20
52.494104573836253
 30
0.0
 40
26.61300367360769
 50
179.10964727477199
 51
179.93453105201911
  0
ARC
  5
16A3
  8
0
 10
137.69393848014769
 20
52.538798217891831
 30
0.0
 40
23.003559989346869
 50
359.96382213164839
 51
0.8889066450750293
  0
ARC
  5
16A4
  8
0
 10
160.62447066291401
 20
53.0344873059151
 30
0.0
 40
0.0325621499120383
 50
186.60451791982339
 51
271.03546767419567
  0
ARC
  5
16A5
  8
0
 10
160.57361283724549
 20
53.012759798156601
 30
0.0
 40
0.0258079580163381
 50
44.168882153709923
 51
92.618316617638072
  0
ARC
  5
16A6
  8
0
 10
159.21810271363071
 20
53.034682921838467
 30
0.0
 40
0.0327551390223786
 50
269.26561440588472
 51
353.19609635856477
  0
ARC
  5
16A7
  8
0
 10
159.26936245078011
 20
53.012049711868919
 30
0.0
 40
0.0265079750365184
 50
87.955538612640595
 51
134.97344077196939
  0
ARC
  5
16A8
  8
0
 10
160.49651960926201
 20
55.848585037717207
 30
0.0
 40
2.8461787410511068
 50
267.45024150778289
 51
272.31066096457408
  0
ARC
  5
16A9
  8
0
 10
159.3464577185681
 20
55.804142860971709
 30
0.0
 40
2.8017706358386949
 50
267.64589360462162
 51
272.5853820466412
  0
ARC
  5
16AA
  8
0
 10
160.3699224090507
 20
53.095462467228813
 30
0.0
 40
0.0902383524112144
 50
269.98683413046501
 51
320.89140184570158
  0
ARC
  5
16AB
  8
0
 10
159.4728736295564
 20
53.095576159031538
 30
0.0
 40
0.090352047972042
 50
219.142908973234
 51
269.97887626616819
  0
ARC
  5
16AC
  8
0
 10
160.18490962556581
 20
54.04730128724438
 30
0.0
 40
0.5287072817914889
 50
53.632783576496813
 51
88.810098411744164
  0
ARC
  5
16AD
  8
0
 10
159.6704037841109
 20
54.016534142958363
 30
0.0
 40
0.5609951125097461
 50
94.375042618439878
 51
125.53779989874209
  0
LINE
  5
16AE
  8
0
 10
160.19588887078109
 20
54.575894558100003
 30
0.0
 11
159.6276084311811
 21
54.575894558100003
 31
0.0
  0
LINE
  5
16AF
  8
0
 10
159.14263072648109
 20
53.057027016999989
 30
0.0
 11
157.1713708878861
 21
53.057027016999989
 31
0.0
  0
ATTDEF
  5
1B0B
  8
DEFPOINTS
 10
157.16859210519829
 20
63.787982833790721
 30
0.0
 40
0.001
  1
K-3815
  3

  2
MODELNUMBER
 70
     0
1001
AcDbAttr
1070
     0
1070
     1
  0
ATTDEF
  5
1B0C
  8
DEFPOINTS
 10
157.16859210519829
 20
63.786316167124049
 30
0.0
 40
0.001
  1
PERSUADE CIRC
  3

  2
TRADENAME
 70
     0
1001
AcDbAttr
1070
     0
1070
     1
  0
ATTDEF
  5
1B0D
  8
DEFPOINTS
 10
157.16859210519829
 20
63.784649500457391
 30
0.0
 40
0.001
  1
TOILET
  3

  2
PRODUCT
 70
     0
1001
AcDbAttr
1070
     0
1070
     1
  0
ATTDEF
  5
1B0E
  8
DEFPOINTS
 10
157.16859210519829
 20
63.782982833790733
 30
0.0
 40
0.001
  1
VITREOUS CHINA
  3

  2
MATERIAL
 70
     0
1001
AcDbAttr
1070
     0
1070
     1
  0
ENDSEC
  0
EOF
