  0
SECTION
  2
HEADER
  9
$ACADVER
  1
AC1009
  9
$INSBASE
 10
212.46274613098791
 20
-11.10855548044597
 30
0.0
  9
$EXTMIN
 10
205.31990633108791
 20
-11.11540669165575
 30
0.0
  9
$EXTMAX
 10
219.60558593088791
 20
22.68218731583142
 30
0.0
  9
$LIMMIN
 10
0.0
 20
0.0
  9
$LIMMAX
 10
11.692913385800001
 20
8.2677165353999982
  9
$ORTHOMODE
 70
     0
  9
$REGENMODE
 70
     1
  9
$FILLMODE
 70
     1
  9
$QTEXTMODE
 70
     0
  9
$MIRRTEXT
 70
     0
  9
$DRAGMODE
 70
     2
  9
$LTSCALE
 40
0.6431102362
  9
$OSMODE
 70
  3071
  9
$ATTMODE
 70
     1
  9
$TEXTSIZE
 40
0.2
  9
$TRACEWID
 40
0.05
  9
$TEXTSTYLE
  7
STANDARD
  9
$CLAYER
  8
0
  9
$CELTYPE
  6
BYLAYER
  9
$CECOLOR
 62
   256
  9
$DIMSCALE
 40
1.0
  9
$DIMASZ
 40
0.1875
  9
$DIMEXO
 40
0.0625
  9
$DIMDLI
 40
0.4443307087
  9
$DIMRND
 40
0.0
  9
$DIMDLE
 40
0.0
  9
$DIMEXE
 40
0.125
  9
$DIMTP
 40
0.01
  9
$DIMTM
 40
0.01
  9
$DIMTXT
 40
1.0
  9
$DIMCEN
 40
0.1052362205
  9
$DIMTSZ
 40
0.0
  9
$DIMTOL
 70
     1
  9
$DIMLIM
 70
     0
  9
$DIMTIH
 70
     1
  9
$DIMTOH
 70
     1
  9
$DIMSE1
 70
     0
  9
$DIMSE2
 70
     0
  9
$DIMTAD
 70
     0
  9
$DIMZIN
 70
     0
  9
$DIMBLK
  1

  9
$DIMASO
 70
     1
  9
$DIMSHO
 70
     1
  9
$DIMPOST
  1
\X
  9
$DIMAPOST
  1

  9
$DIMALT
 70
     1
  9
$DIMALTD
 70
     2
  9
$DIMALTF
 40
25.399999999999999
  9
$DIMLFAC
 40
1.0
  9
$DIMTOFL
 70
     0
  9
$DIMTVP
 40
0.0
  9
$DIMTIX
 70
     0
  9
$DIMSOXD
 70
     0
  9
$DIMSAH
 70
     0
  9
$DIMBLK1
  1

  9
$DIMBLK2
  1

  9
$DIMSTYLE
  2
STANDARD
  9
$DIMCLRD
 70
     0
  9
$DIMCLRE
 70
     0
  9
$DIMCLRT
 70
     0
  9
$DIMTFAC
 40
1.0
  9
$DIMGAP
 40
0.09
  9
$LUNITS
 70
     2
  9
$LUPREC
 70
     4
  9
$SKETCHINC
 40
0.1
  9
$FILLETRAD
 40
0.0
  9
$AUNITS
 70
     0
  9
$AUPREC
 70
     0
  9
$MENU
  1
.
  9
$ELEVATION
 40
0.0
  9
$PELEVATION
 40
0.0
  9
$THICKNESS
 40
0.0
  9
$LIMCHECK
 70
     0
  9
$BLIPMODE
 70
     0
  9
$CHAMFERA
 40
0.0
  9
$CHAMFERB
 40
0.0
  9
$SKPOLY
 70
     0
  9
$TDCREATE
 40
2458255.408833507
  9
$TDUPDATE
 40
2458262.6241709138
  9
$TDINDWG
 40
0.166311875
  9
$TDUSRTIMER
 40
0.166311875
  9
$USRTIMER
 70
     1
  9
$ANGBASE
 50
0.0
  9
$ANGDIR
 70
     0
  9
$PDMODE
 70
     0
  9
$PDSIZE
 40
0.3125
  9
$PLINEWID
 40
0.0
  9
$COORDS
 70
     1
  9
$SPLFRAME
 70
     0
  9
$SPLINETYPE
 70
     6
  9
$SPLINESEGS
 70
     8
  9
$ATTDIA
 70
     1
  9
$ATTREQ
 70
     1
  9
$HANDLING
 70
     1
  9
$HANDSEED
  5
1D3A
  9
$SURFTAB1
 70
     6
  9
$SURFTAB2
 70
     6
  9
$SURFTYPE
 70
     6
  9
$SURFU
 70
     6
  9
$SURFV
 70
     6
  9
$UCSNAME
  2

  9
$UCSORG
 10
0.0
 20
0.0
 30
0.0
  9
$UCSXDIR
 10
1.0
 20
0.0
 30
0.0
  9
$UCSYDIR
 10
0.0
 20
1.0
 30
0.0
  9
$PUCSNAME
  2

  9
$PUCSORG
 10
0.0
 20
0.0
 30
0.0
  9
$PUCSXDIR
 10
1.0
 20
0.0
 30
0.0
  9
$PUCSYDIR
 10
0.0
 20
1.0
 30
0.0
  9
$USERI1
 70
     0
  9
$USERI2
 70
     0
  9
$USERI3
 70
     0
  9
$USERI4
 70
     0
  9
$USERI5
 70
     0
  9
$USERR1
 40
0.0
  9
$USERR2
 40
0.0
  9
$USERR3
 40
0.0
  9
$USERR4
 40
0.0
  9
$USERR5
 40
0.0
  9
$WORLDVIEW
 70
     1
  9
$SHADEDGE
 70
     3
  9
$SHADEDIF
 70
    70
  9
$TILEMODE
 70
     1
  9
$MAXACTVP
 70
    64
  9
$PLIMCHECK
 70
     0
  9
$PEXTMIN
 10
1.0000000000000000E+020
 20
1.0000000000000000E+020
 30
1.0000000000000000E+020
  9
$PEXTMAX
 10
-1.0000000000000000E+020
 20
-1.0000000000000000E+020
 30
-1.0000000000000000E+020
  9
$PLIMMIN
 10
0.0
 20
0.0
  9
$PLIMMAX
 10
12.0
 20
9.0
  9
$UNITMODE
 70
     0
  9
$VISRETAIN
 70
     1
  9
$PLINEGEN
 70
     0
  9
$PSLTSCALE
 70
     1
  0
ENDSEC
  0
SECTION
  2
TABLES
  0
TABLE
  2
VPORT
 70
     1
  0
VPORT
  2
*ACTIVE
 70
     0
 10
0.0
 20
0.0
 11
1.0
 21
1.0
 12
0.0
 22
0.0
 13
0.0
 23
0.0
 14
1.0
 24
1.0
 15
0.0
 25
0.0
 16
-0.0000000000000284
 26
0.0
 36
103.27086099027871
 17
212.46274613098791
 27
5.7833903120878354
 37
0.0
 40
36.692855543836828
 41
2.1006711409395971
 42
50.0
 43
0.0
 44
0.0
 50
0.0
 51
0.0
 71
     0
 72
   100
 73
     1
 74
     1
 75
     0
 76
     0
 77
     0
 78
     0
  0
ENDTAB
  0
TABLE
  2
LTYPE
 70
     2
  0
LTYPE
  2
CONTINUOUS
 70
     0
  3
Solid line
 72
    65
 73
     0
 40
0.0
  0
LTYPE
  2
PHANTOM2
 70
     0
  3
___ _ _ ___ _ _ ___ _ _ ___ _ _
 72
    65
 73
     6
 40
1.25
 49
0.625
 49
-0.125
 49
0.125
 49
-0.125
 49
0.125
 49
-0.125
  0
ENDTAB
  0
TABLE
  2
LAYER
 70
     2
  0
LAYER
  2
0
 70
     0
 62
   255
  6
CONTINUOUS
  0
LAYER
  2
DEFPOINTS
 70
     0
 62
     7
  6
CONTINUOUS
  0
ENDTAB
  0
TABLE
  2
STYLE
 70
     1
  0
STYLE
  2
STANDARD
 70
     0
 40
0.0
 41
0.8
 50
0.0
 71
     0
 42
0.2
  3
txt
  4

  0
ENDTAB
  0
TABLE
  2
VIEW
 70
     0
  0
ENDTAB
  0
TABLE
  2
UCS
 70
     0
  0
ENDTAB
  0
TABLE
  2
APPID
 70
     9
  0
APPID
  2
ACAD
 70
     0
  0
APPID
  2
ACAD_MLEADERVER
 70
     0
  0
APPID
  2
ACAD_EXEMPT_FROM_CAD_STANDARDS
 70
     0
  0
APPID
  2
ACAD_NAV_VCDISPLAY
 70
     0
  0
APPID
  2
ACAD_DSTYLE_DIMJAG
 70
     0
  0
APPID
  2
ACAD_DSTYLE_DIMTALN
 70
     0
  0
APPID
  2
ACAECLAYERSTANDARD
 70
     0
  0
APPID
  2
ACCMTRANSPARENCY
 70
     0
  0
APPID
  2
ACDBATTR
 70
     0
  0
ENDTAB
  0
TABLE
  2
DIMSTYLE
 70
     1
  0
DIMSTYLE
  2
STANDARD
 70
     0
  3

  4

  5

  6

  7

 40
1.0
 41
0.1875
 42
0.0625
 43
0.38
 44
0.125
 45
0.0
 46
0.0
 47
0.01
 48
0.01
140
0.15625
141
0.09
142
0.0
143
25.399999999999999
144
1.0
145
0.0
146
1.0
147
0.09
 71
     1
 72
     0
 73
     1
 74
     1
 75
     0
 76
     0
 77
     0
 78
     4
170
     0
171
     2
172
     0
173
     0
174
     0
175
     0
176
     0
177
     0
178
     0
  0
ENDTAB
  0
ENDSEC
  0
SECTION
  2
BLOCKS
  0
BLOCK
  8
0
  2
$MODEL_SPACE
 70
     0
 10
0.0
 20
0.0
 30
0.0
  3
$MODEL_SPACE
  1

  0
ENDBLK
  5
21
  8
0
  0
BLOCK
 67
     1
  8
0
  2
$PAPER_SPACE
 70
     0
 10
0.0
 20
0.0
 30
0.0
  3
$PAPER_SPACE
  1

  0
ENDBLK
  5
1D
 67
     1
  8
0
  0
ENDSEC
  0
SECTION
  2
ENTITIES
  0
ATTDEF
  5
1B4C
  8
DEFPOINTS
 10
212.45681990371921
 20
-11.110406691655751
 30
0.0
 40
0.001
  1
K-3815
  3

  2
MODELNUMBER
 70
     0
1001
ACDBATTR
1070
     0
1070
     1
  0
ATTDEF
  5
1B4D
  8
DEFPOINTS
 10
212.45681990371921
 20
-11.11207335832241
 30
0.0
 40
0.001
  1
PERSUADE CIRC
  3

  2
TRADENAME
 70
     0
1001
ACDBATTR
1070
     0
1070
     1
  0
ATTDEF
  5
1B4E
  8
DEFPOINTS
 10
212.45681990371921
 20
-11.113740024989079
 30
0.0
 40
0.001
  1
TOILET
  3

  2
PRODUCT
 70
     0
1001
ACDBATTR
1070
     0
1070
     1
  0
ATTDEF
  5
1B4F
  8
DEFPOINTS
 10
212.45681990371921
 20
-11.115406691655741
 30
0.0
 40
0.001
  1
VITREOUS CHINA
  3

  2
MATERIAL
 70
     0
1001
ACDBATTR
1070
     0
1070
     1
  0
LINE
  5
1C28
  8
0
 10
206.27432640898789
 20
22.150222869754039
 30
0.0
 11
206.3053770747878
 21
20.38538185735403
 31
0.0
  0
LINE
  5
1C29
  8
0
 10
206.96440904608789
 20
-11.009103548445969
 30
0.0
 11
206.93224242318789
 21
-4.5500378302459694
 31
0.0
  0
LINE
  5
1C2A
  8
0
 10
206.8885010588283
 20
5.3914445193540308
 30
0.0
 11
206.8893045779879
 21
5.4919635193540328
 31
0.0
  0
LINE
  5
1C2B
  8
0
 10
211.3627461438879
 20
22.43590101375403
 30
0.0
 11
211.3627461438879
 21
22.401677418461521
 31
0.0
  0
LINE
  5
1C2C
  8
0
 10
206.2143010786879
 20
5.4919635193540328
 30
0.0
 11
207.6372067685879
 21
5.4919635193540328
 31
0.0
  0
LINE
  5
1C2D
  8
0
 10
213.56274614388789
 20
22.43590101375403
 30
0.0
 11
213.56274614388789
 21
22.401677418461521
 31
0.0
  0
LINE
  5
1C2E
  8
0
 10
213.56274614388789
 20
22.43590101375403
 30
0.0
 11
211.3627461438879
 21
22.43590101375403
 31
0.0
  0
LINE
  5
1C2F
  8
0
 10
213.30074614388789
 20
22.545294510454031
 30
0.0
 11
211.6247461438879
 21
22.545294510454031
 31
0.0
  0
ARC
  5
1C30
  8
0
 10
206.2143010786879
 20
5.5519635193540324
 30
0.0
 40
0.06
 50
192.13563716659991
 51
270.0
  0
ARC
  5
1C31
  8
0
 10
211.68474506371859
 20
22.53371731354224
 30
0.0
 40
0.0299978793459039
 50
107.33596976307081
 51
157.29827326963581
  0
ARC
  5
1C32
  8
0
 10
211.37274614388789
 20
22.43590101375403
 30
0.0
 40
0.01
 50
114.4763366296007
 51
180.0
  0
ARC
  5
1C33
  8
0
 10
211.6247461438879
 20
22.53529451045404
 30
0.0
 40
0.01
 50
90.0
 51
108.5740639155001
  0
ARC
  5
1C34
  8
0
 10
212.4627461438879
 20
20.041494192054031
 30
0.0
 40
2.6408333332999998
 50
72.663133362600561
 51
89.407463506099319
  0
ARC
  5
1C35
  8
0
 10
212.4662591901843
 20
20.026593481681878
 30
0.0
 40
2.6561041653565951
 50
91.123176726738208
 51
107.31342279648869
  0
ARC
  5
1C36
  8
0
 10
212.4627461438879
 20
20.041494192054031
 30
0.0
 40
2.6408333332999998
 50
108.5740639153008
 51
114.4763366309999
  0
ARC
  5
1C37
  8
0
 10
212.4627461389457
 20
20.04149417851222
 30
0.0
 40
2.6408333477106858
 50
65.52366339315833
 51
71.425936076645542
  0
ARC
  5
1C38
  8
0
 10
212.48981014838321
 20
22.652142019272169
 30
0.0
 40
0.0300452965592524
 50
89.530403854858449
 51
160.24038248591199
  0
ARC
  5
1C39
  8
0
 10
213.24074614388789
 20
22.533715429154029
 30
0.0
 40
0.03
 50
22.721784898900591
 51
72.663133362499934
  0
ARC
  5
1C3A
  8
0
 10
212.6550007757491
 20
22.533717832908039
 30
0.0
 40
0.0299971932645717
 50
22.701199630254031
 51
63.274213949214079
  0
ARC
  5
1C3B
  8
0
 10
213.5527461438879
 20
22.43590101375403
 30
0.0
 40
0.01
 50
0.0
 51
65.523663370399277
  0
ARC
  5
1C3C
  8
0
 10
213.30074614388789
 20
22.53529451045404
 30
0.0
 40
0.01
 50
71.425936084499909
 51
90.0
  0
LINE
  5
1C3D
  8
0
 10
217.86030284458789
 20
-11.108555480445959
 30
0.0
 11
207.0651894173879
 21
-11.10855548044597
 31
0.0
  0
ARC
  5
1C3E
  8
0
 10
207.06574997065741
 20
-11.007198195847529
 30
0.0
 40
0.101358834647685
 50
181.0771147205181
 51
269.68313072688011
  0
ARC
  5
1C3F
  8
0
 10
-773.58192493830734
 20
-6.7830632198062411
 30
0.0
 40
980.51671010697021
 50
0.1304853243657276
 51
0.3669689550328552
  0
ARC
  5
1C40
  8
0
 10
205.75294843639441
 20
-0.6449508052674098
 30
0.0
 40
1.1703566281839779
 50
6.9626969815699153
 51
21.75186380864346
  0
ARC
  5
1C41
  8
0
 10
189.78762439143611
 20
-6.4336169256472386
 30
0.0
 40
18.152153311185469
 50
20.046978310148731
 51
24.787692187116662
  0
ARC
  5
1C42
  8
0
 10
215.0964113267928
 20
5.3828665482054836
 30
0.0
 40
9.7797164729561317
 50
181.46838117592671
 51
205.47266564935421
  0
ARC
  5
1C43
  8
0
 10
205.57076427150309
 20
5.1404545568504751
 30
0.0
 40
0.2509917937364472
 50
90.218866817659105
 51
181.87129280345411
  0
LINE
  5
1C44
  8
0
 10
205.56980549858781
 20
5.3914445193540308
 30
0.0
 11
219.35568676338789
 21
5.3914445193540308
 31
0.0
  0
LINE
  5
1C45
  8
0
 10
212.4627461496942
 20
5.6244445271812351
 30
0.0
 11
205.46124069368781
 21
5.6244445193540322
 31
0.0
  0
ARC
  5
1C46
  8
0
 10
205.46137068869581
 20
5.6844451177491031
 30
0.0
 40
0.0600007392160191
 50
177.48259290695921
 51
269.87586534371718
  0
ARC
  5
1C47
  8
0
 10
209.27780687848229
 20
5.3003100165243744
 30
0.0
 40
3.895626491502636
 50
159.20787479926551
 51
174.30210094078541
  0
ARC
  5
1C48
  8
0
 10
205.9415242039706
 20
6.5597146617154891
 30
0.0
 40
0.3296321534979208
 50
94.777935023507126
 51
158.00439983698041
  0
ARC
  5
1C49
  8
0
 10
209.91361525070531
 20
-16.386859325669992
 30
0.0
 40
23.616198448256061
 50
94.111582823122532
 51
99.750383933686663
  0
LINE
  5
1C4A
  8
0
 10
208.22035545668791
 20
7.1685583190540321
 30
0.0
 11
212.46274615142039
 21
7.1685583190540321
 31
0.0
  0
ARC
  5
1C4B
  8
0
 10
-278872.27095951838
 20
-10774.31139776015
 30
0.0
 40
279287.30211772048
 50
2.2123416332331551
 51
2.2150052436536249
  0
ARC
  5
1C4C
  8
0
 10
206.5468573704533
 20
20.000761068473619
 30
0.0
 40
0.1911907693068283
 50
110.1274200741076
 51
178.80138244692711
  0
ARC
  5
1C4D
  8
0
 10
206.4093704000534
 20
20.34660037340511
 30
0.0
 40
0.1811194775013846
 50
293.31911607693007
 51
344.50781381294672
  0
LINE
  5
1C4E
  8
0
 10
206.3801252832879
 20
20.298222100954028
 30
0.0
 11
218.54536697868789
 21
20.298222100954028
 31
0.0
  0
ARC
  5
1C4F
  8
0
 10
206.39560563880701
 20
20.387129964707881
 30
0.0
 40
0.0902454965318
 50
181.10992173600681
 51
260.12286004892331
  0
ARC
  5
1C50
  8
0
 10
206.52466164863449
 20
22.151340047550448
 30
0.0
 40
0.2503377324639027
 50
90.097377902240737
 51
180.25569371638881
  0
LINE
  5
1C51
  8
0
 10
206.5242361835879
 20
22.401677418461521
 30
0.0
 11
218.401256075063
 21
22.401677418461521
 31
0.0
  0
ARC
  5
1C52
  8
0
 10
207.66645352622959
 20
23.055956860587418
 30
0.0
 40
16.498219321417569
 50
262.93022176334517
 51
271.433420886514
  0
ARC
  5
1C53
  8
0
 10
212.0549189635118
 20
1143.778220252816
 30
0.0
 40
1137.222269592937
 50
269.7996921156676
 51
270.02054723841059
  0
ARC
  5
1C54
  8
0
 10
205.97845210993239
 20
2.5740758088117519
 30
0.0
 40
3.3563394705945462
 50
57.078616831662423
 51
65.345254676293166
  0
ARC
  5
1C55
  8
0
 10
205.96670487282509
 20
5.4971625853412069
 30
0.0
 40
0.1935897164293719
 50
12.58697323885379
 51
41.108188091617983
  0
LINE
  5
1C56
  8
0
 10
218.65116585298779
 20
22.150222869754039
 30
0.0
 11
218.62011518718791
 21
20.38538185735403
 31
0.0
  0
LINE
  5
1C57
  8
0
 10
217.96108321588781
 20
-11.009103548445969
 30
0.0
 11
217.9932498387879
 21
-4.5500378302459694
 31
0.0
  0
LINE
  5
1C58
  8
0
 10
218.03699120314749
 20
5.3914445193540308
 30
0.0
 11
218.03618768398781
 21
5.4919635193540328
 31
0.0
  0
LINE
  5
1C59
  8
0
 10
218.71119118328789
 20
5.4919635193540328
 30
0.0
 11
217.28828549338789
 21
5.4919635193540328
 31
0.0
  0
ARC
  5
1C5A
  8
0
 10
218.71119118328789
 20
5.5519635193540324
 30
0.0
 40
0.06
 50
270.0
 51
347.86436283340009
  0
ARC
  5
1C5B
  8
0
 10
217.8597422913183
 20
-11.007198195847529
 30
0.0
 40
0.101358834647685
 50
270.31686927312001
 51
358.92288527948187
  0
ARC
  5
1C5C
  8
0
 10
1198.507417200283
 20
-6.7830632198062411
 30
0.0
 40
980.51671010697021
 50
179.63303104496711
 51
179.86951467563429
  0
ARC
  5
1C5D
  8
0
 10
219.1725438255813
 20
-0.6449508052674098
 30
0.0
 40
1.1703566281839779
 50
158.24813619135651
 51
173.0373030184299
  0
ARC
  5
1C5E
  8
0
 10
235.13786787053959
 20
-6.4336169256472386
 30
0.0
 40
18.152153311185469
 50
155.2123078128833
 51
159.9530216898512
  0
ARC
  5
1C5F
  8
0
 10
209.82908093518299
 20
5.3828665482054836
 30
0.0
 40
9.7797164729561317
 50
334.52733435064579
 51
358.53161882407318
  0
ARC
  5
1C60
  8
0
 10
219.35472799047261
 20
5.1404545568504751
 30
0.0
 40
0.2509917937364472
 50
358.12870719654592
 51
89.781133182340895
  0
LINE
  5
1C61
  8
0
 10
212.4627461496942
 20
5.6244445271812351
 30
0.0
 11
219.46425156828789
 21
5.6244445193540322
 31
0.0
  0
ARC
  5
1C62
  8
0
 10
219.4641215732799
 20
5.6844451177491031
 30
0.0
 40
0.0600007392160191
 50
270.12413465628282
 51
2.5174070930407262
  0
ARC
  5
1C63
  8
0
 10
215.64768538349341
 20
5.3003100165243744
 30
0.0
 40
3.895626491502636
 50
5.6978990592145822
 51
20.792125200734478
  0
ARC
  5
1C64
  8
0
 10
218.9839680580051
 20
6.5597146617154891
 30
0.0
 40
0.3296321534979208
 50
21.99560016301961
 51
85.222064976492874
  0
ARC
  5
1C65
  8
0
 10
215.0118770112704
 20
-16.386859325669992
 30
0.0
 40
23.616198448256061
 50
80.249616066313337
 51
85.888417176877468
  0
LINE
  5
1C66
  8
0
 10
216.70513680528779
 20
7.1685583190540321
 30
0.0
 11
212.46274615142039
 21
7.1685583190540321
 31
0.0
  0
ARC
  5
1C67
  8
0
 10
279297.19645178039
 20
-10774.31139776015
 30
0.0
 40
279287.30211772048
 50
177.78499475634641
 51
177.78765836676681
  0
ARC
  5
1C68
  8
0
 10
218.37863489152241
 20
20.000761068473619
 30
0.0
 40
0.1911907693068283
 50
1.1986175530728289
 51
69.872579925892367
  0
ARC
  5
1C69
  8
0
 10
218.5161218619223
 20
20.34660037340511
 30
0.0
 40
0.1811194775013846
 50
195.49218618705331
 51
246.6808839230699
  0
ARC
  5
1C6A
  8
0
 10
218.52988662316881
 20
20.387129964707881
 30
0.0
 40
0.0902454965318
 50
279.87713995107509
 51
358.89007826399319
  0
ARC
  5
1C6B
  8
0
 10
218.4008306133569
 20
22.15134004756041
 30
0.0
 40
0.2503377324482801
 50
359.74430628131438
 51
89.902622862305051
  0
ARC
  5
1C6C
  8
0
 10
217.2590387357462
 20
23.055956860587418
 30
0.0
 40
16.498219321417569
 50
268.566579113486
 51
277.06977823665483
  0
ARC
  5
1C6D
  8
0
 10
212.8705733081199
 20
1143.7782164388559
 30
0.0
 40
1137.2222657789659
 50
269.97945276302409
 51
270.20030788451641
  0
ARC
  5
1C6E
  8
0
 10
218.94704015204329
 20
2.5740758088117519
 30
0.0
 40
3.3563394705945462
 50
114.65474532370681
 51
122.9213831683376
  0
ARC
  5
1C6F
  8
0
 10
218.95878738915059
 20
5.4971625853412069
 30
0.0
 40
0.1935897164293719
 50
138.89181190838201
 51
167.4130267611462
  0
ARC
  5
1C70
  8
0
 10
212.41228231497891
 20
22.644546403924789
 30
0.0
 40
0.0376894540587524
 50
65.766095677225806
 51
87.091735889516258
  0
LINE
  5
1C71
  8
0
 10
212.42775243012429
 20
22.678914564839172
 30
0.0
 11
212.66849114398789
 21
22.560510398454031
 31
0.0
  0
ENDSEC
  0
EOF
