  0
SECTION
  2
HEADER
  9
$ACADVER
  1
AC1009
  9
$INSBASE
 10
256.91739428428042
 20
-1.0987032749677139
 30
0.0
  9
$EXTMIN
 10
227.02802367476701
 20
-1.0987032749749801
 30
0.0
  9
$EXTMAX
 10
256.92449539706593
 20
22.84756558917941
 30
0.0
  9
$LIMMIN
 10
0.0
 20
0.0
  9
$LIMMAX
 10
11.692913385800001
 20
8.2677165353999982
  9
$ORTHOMODE
 70
     1
  9
$REGENMODE
 70
     1
  9
$FILLMODE
 70
     1
  9
$QTEXTMODE
 70
     0
  9
$MIRRTEXT
 70
     0
  9
$DRAGMODE
 70
     2
  9
$LTSCALE
 40
0.6431102362
  9
$OSMODE
 70
  3071
  9
$ATTMODE
 70
     1
  9
$TEXTSIZE
 40
0.2
  9
$TRACEWID
 40
0.05
  9
$TEXTSTYLE
  7
STANDARD
  9
$CLAYER
  8
0
  9
$CELTYPE
  6
BYLAYER
  9
$CECOLOR
 62
   256
  9
$DIMSCALE
 40
1.0
  9
$DIMASZ
 40
0.1875
  9
$DIMEXO
 40
0.0625
  9
$DIMDLI
 40
0.4443307087
  9
$DIMRND
 40
0.0
  9
$DIMDLE
 40
0.0
  9
$DIMEXE
 40
0.125
  9
$DIMTP
 40
0.01
  9
$DIMTM
 40
0.01
  9
$DIMTXT
 40
1.0
  9
$DIMCEN
 40
0.1052362205
  9
$DIMTSZ
 40
0.0
  9
$DIMTOL
 70
     1
  9
$DIMLIM
 70
     0
  9
$DIMTIH
 70
     1
  9
$DIMTOH
 70
     1
  9
$DIMSE1
 70
     0
  9
$DIMSE2
 70
     0
  9
$DIMTAD
 70
     0
  9
$DIMZIN
 70
     0
  9
$DIMBLK
  1

  9
$DIMASO
 70
     1
  9
$DIMSHO
 70
     1
  9
$DIMPOST
  1
\X
  9
$DIMAPOST
  1

  9
$DIMALT
 70
     1
  9
$DIMALTD
 70
     2
  9
$DIMALTF
 40
25.399999999999999
  9
$DIMLFAC
 40
1.0
  9
$DIMTOFL
 70
     0
  9
$DIMTVP
 40
0.0
  9
$DIMTIX
 70
     0
  9
$DIMSOXD
 70
     0
  9
$DIMSAH
 70
     0
  9
$DIMBLK1
  1

  9
$DIMBLK2
  1

  9
$DIMSTYLE
  2
STANDARD
  9
$DIMCLRD
 70
     0
  9
$DIMCLRE
 70
     0
  9
$DIMCLRT
 70
     0
  9
$DIMTFAC
 40
1.0
  9
$DIMGAP
 40
0.09
  9
$LUNITS
 70
     2
  9
$LUPREC
 70
     4
  9
$SKETCHINC
 40
0.1
  9
$FILLETRAD
 40
0.0
  9
$AUNITS
 70
     0
  9
$AUPREC
 70
     0
  9
$MENU
  1
.
  9
$ELEVATION
 40
0.0
  9
$PELEVATION
 40
0.0
  9
$THICKNESS
 40
0.0
  9
$LIMCHECK
 70
     0
  9
$BLIPMODE
 70
     0
  9
$CHAMFERA
 40
0.0
  9
$CHAMFERB
 40
0.0
  9
$SKPOLY
 70
     0
  9
$TDCREATE
 40
2458213.454031331
  9
$TDUPDATE
 40
2458233.4812826151
  9
$TDINDWG
 40
0.1452197917
  9
$TDUSRTIMER
 40
0.1452197917
  9
$USRTIMER
 70
     1
  9
$ANGBASE
 50
0.0
  9
$ANGDIR
 70
     0
  9
$PDMODE
 70
     0
  9
$PDSIZE
 40
0.3125
  9
$PLINEWID
 40
0.0
  9
$COORDS
 70
     1
  9
$SPLFRAME
 70
     0
  9
$SPLINETYPE
 70
     6
  9
$SPLINESEGS
 70
     8
  9
$ATTDIA
 70
     1
  9
$ATTREQ
 70
     1
  9
$HANDLING
 70
     1
  9
$HANDSEED
  5
12DA
  9
$SURFTAB1
 70
     6
  9
$SURFTAB2
 70
     6
  9
$SURFTYPE
 70
     6
  9
$SURFU
 70
     6
  9
$SURFV
 70
     6
  9
$UCSNAME
  2

  9
$UCSORG
 10
0.0
 20
0.0
 30
0.0
  9
$UCSXDIR
 10
1.0
 20
0.0
 30
0.0
  9
$UCSYDIR
 10
0.0
 20
1.0
 30
0.0
  9
$PUCSNAME
  2

  9
$PUCSORG
 10
0.0
 20
0.0
 30
0.0
  9
$PUCSXDIR
 10
1.0
 20
0.0
 30
0.0
  9
$PUCSYDIR
 10
0.0
 20
1.0
 30
0.0
  9
$USERI1
 70
     0
  9
$USERI2
 70
     0
  9
$USERI3
 70
     0
  9
$USERI4
 70
     0
  9
$USERI5
 70
     0
  9
$USERR1
 40
0.0
  9
$USERR2
 40
0.0
  9
$USERR3
 40
0.0
  9
$USERR4
 40
0.0
  9
$USERR5
 40
0.0
  9
$WORLDVIEW
 70
     1
  9
$SHADEDGE
 70
     3
  9
$SHADEDIF
 70
    70
  9
$TILEMODE
 70
     1
  9
$MAXACTVP
 70
    64
  9
$PLIMCHECK
 70
     0
  9
$PEXTMIN
 10
1.0000000000000000E+020
 20
1.0000000000000000E+020
 30
1.0000000000000000E+020
  9
$PEXTMAX
 10
-1.0000000000000000E+020
 20
-1.0000000000000000E+020
 30
-1.0000000000000000E+020
  9
$PLIMMIN
 10
0.0
 20
0.0
  9
$PLIMMAX
 10
12.0
 20
9.0
  9
$UNITMODE
 70
     0
  9
$VISRETAIN
 70
     1
  9
$PLINEGEN
 70
     0
  9
$PSLTSCALE
 70
     1
  0
ENDSEC
  0
SECTION
  2
TABLES
  0
TABLE
  2
VPORT
 70
     1
  0
VPORT
  2
*ACTIVE
 70
     0
 10
0.0
 20
0.0
 11
1.0
 21
1.0
 12
0.0
 22
0.0
 13
0.0
 23
0.0
 14
1.0
 24
1.0
 15
0.0
 25
0.0
 16
-0.0000000000000284
 26
0.0
 36
107.8063450270411
 17
241.9762595359164
 27
10.87443115710221
 37
0.0
 40
38.31967647520954
 41
2.1006711409395971
 42
50.0
 43
0.0
 44
0.0
 50
0.0
 51
0.0
 71
     0
 72
   100
 73
     1
 74
     1
 75
     0
 76
     0
 77
     0
 78
     0
  0
ENDTAB
  0
TABLE
  2
LTYPE
 70
     2
  0
LTYPE
  2
CONTINUOUS
 70
     0
  3
Solid line
 72
    65
 73
     0
 40
0.0
  0
LTYPE
  2
PHANTOM2
 70
     0
  3
___ _ _ ___ _ _ ___ _ _ ___ _ _
 72
    65
 73
     6
 40
1.25
 49
0.625
 49
-0.125
 49
0.125
 49
-0.125
 49
0.125
 49
-0.125
  0
ENDTAB
  0
TABLE
  2
LAYER
 70
     2
  0
LAYER
  2
0
 70
     0
 62
   255
  6
CONTINUOUS
  0
LAYER
  2
DEFPOINTS
 70
     0
 62
     7
  6
CONTINUOUS
  0
ENDTAB
  0
TABLE
  2
STYLE
 70
     1
  0
STYLE
  2
STANDARD
 70
     0
 40
0.0
 41
0.8
 50
0.0
 71
     0
 42
0.2
  3
txt
  4

  0
ENDTAB
  0
TABLE
  2
VIEW
 70
     0
  0
ENDTAB
  0
TABLE
  2
UCS
 70
     0
  0
ENDTAB
  0
TABLE
  2
APPID
 70
     9
  0
APPID
  2
ACAD
 70
     0
  0
APPID
  2
ACAD_MLEADERVER
 70
     0
  0
APPID
  2
ACAD_EXEMPT_FROM_CAD_STANDARDS
 70
     0
  0
APPID
  2
ACAD_DSTYLE_DIMJAG
 70
     0
  0
APPID
  2
ACAD_DSTYLE_DIMTALN
 70
     0
  0
APPID
  2
ACAD_NAV_VCDISPLAY
 70
     0
  0
APPID
  2
ACAECLAYERSTANDARD
 70
     0
  0
APPID
  2
ACCMTRANSPARENCY
 70
     0
  0
APPID
  2
ACDBATTR
 70
     0
  0
ENDTAB
  0
TABLE
  2
DIMSTYLE
 70
     1
  0
DIMSTYLE
  2
STANDARD
 70
     0
  3

  4

  5

  6

  7

 40
1.0
 41
0.1875
 42
0.0625
 43
0.38
 44
0.125
 45
0.0
 46
0.0
 47
0.01
 48
0.01
140
0.15625
141
0.09
142
0.0
143
25.399999999999999
144
1.0
145
0.0
146
1.0
147
0.09
 71
     1
 72
     0
 73
     1
 74
     1
 75
     0
 76
     0
 77
     0
 78
     4
170
     0
171
     2
172
     0
173
     0
174
     0
175
     0
176
     0
177
     0
178
     0
  0
ENDTAB
  0
ENDSEC
  0
SECTION
  2
BLOCKS
  0
BLOCK
  8
0
  2
$MODEL_SPACE
 70
     0
 10
0.0
 20
0.0
 30
0.0
  3
$MODEL_SPACE
  1

  0
ENDBLK
  5
21
  8
0
  0
BLOCK
 67
     1
  8
0
  2
$PAPER_SPACE
 70
     0
 10
0.0
 20
0.0
 30
0.0
  3
$PAPER_SPACE
  1

  0
ENDBLK
  5
1D
 67
     1
  8
0
  0
ENDSEC
  0
SECTION
  2
ENTITIES
  0
ATTDEF
  5
10BE
  8
DEFPOINTS
 10
256.91382873039919
 20
-1.0854636548289101
 30
0.0
 40
0.001
  1
K-3722
  3

  2
MODELNUMBER
 70
     0
1001
ACDBATTR
1070
     0
1070
     1
  0
ATTDEF
  5
10BF
  8
DEFPOINTS
 10
256.91382873039919
 20
-1.087130321495575
 30
0.0
 40
0.001
  1
SAN RAPHAEL
  3

  2
TRADENAME
 70
     0
1001
ACDBATTR
1070
     0
1070
     1
  0
ATTDEF
  5
10C0
  8
DEFPOINTS
 10
256.91382873039919
 20
-1.0887969881622399
 30
0.0
 40
0.001
  1
TOILET
  3

  2
PRODUCT
 70
     0
1001
ACDBATTR
1070
     0
1070
     1
  0
ATTDEF
  5
10C1
  8
DEFPOINTS
 10
256.91382873039919
 20
-1.0904636548289051
 30
0.0
 40
0.001
  1
VITREOUS CHINA
  3

  2
MATERIAL
 70
     0
1001
ACDBATTR
1070
     0
1070
     1
  0
LINE
  5
11D2
  8
0
 10
256.03215489536132
 20
11.780805131634031
 30
0.0
 11
227.0280236747671
 21
11.780805133445361
 31
0.0
  0
LINE
  5
11D3
  8
0
 10
227.61459102238049
 20
14.118400185032611
 30
0.0
 11
227.61461292561259
 21
14.19321697309142
 31
0.0
  0
LINE
  5
11D4
  8
0
 10
227.63676196238049
 20
14.3402389098326
 30
0.0
 11
227.88548859586029
 21
15.14775077342726
 31
0.0
  0
LINE
  5
11D5
  8
0
 10
228.1393909756805
 20
-1.0987032749673951
 30
0.0
 11
255.53372083988049
 21
-1.0987032749673951
 31
0.0
  0
LINE
  5
11D6
  8
0
 10
241.0092929383805
 20
14.016693050632609
 30
0.0
 11
241.01441762039909
 21
14.11447780799522
 31
0.0
  0
LINE
  5
11D7
  8
0
 10
227.84561695928039
 20
13.8619266462326
 30
0.0
 11
239.6428753984805
 21
13.8619266462326
 31
0.0
  0
LINE
  5
11D8
  8
0
 10
240.4341932654805
 20
13.921926646232601
 30
0.0
 11
240.9094299856516
 21
13.921926646232601
 31
0.0
  0
LINE
  5
11D9
  8
0
 10
227.61459102238049
 20
14.118400185032611
 30
0.0
 11
242.070522708846
 21
14.11416866650614
 31
0.0
  0
LINE
  5
11DA
  8
0
 10
255.47491365028051
 20
21.787202236832599
 30
0.0
 11
255.51405066278039
 21
21.787202236832599
 31
0.0
  0
LINE
  5
11DB
  8
0
 10
254.97921939978039
 20
8.5323049084326037
 30
0.0
 11
255.53372083988049
 21
-1.0987032749673951
 31
0.0
  0
LINE
  5
11DC
  8
0
 10
256.04239428428042
 20
11.5312967249326
 30
0.0
 11
255.62257272278049
 21
21.761302610632601
 31
0.0
  0
LINE
  5
11DD
  8
0
 10
255.63405066278051
 20
21.90720223683261
 30
0.0
 11
255.63405066278051
 21
22.448038719132612
 31
0.0
  0
LINE
  5
11DE
  8
0
 10
255.7536729562805
 20
9.7086528690326048
 30
0.0
 11
256.04239428428042
 21
11.5312967249326
 31
0.0
  0
ARC
  5
11DF
  8
0
 10
-1425.2005110586099
 20
269.45552697494151
 30
0.0
 40
1675.330541464841
 50
350.70643149154921
 51
350.95667785714949
  0
ARC
  5
11E0
  8
0
 10
488.06200769647518
 20
-66.483585002529523
 30
0.0
 40
272.51432178438148
 50
162.891395919263
 51
163.30998007007111
  0
ARC
  5
11E1
  8
0
 10
228.1173756213727
 20
14.192654508881761
 30
0.0
 40
0.5027630103874856
 50
162.92959099040499
 51
179.93590055076251
  0
ARC
  5
11E2
  8
0
 10
240.9094299848804
 20
14.0219266462326
 30
0.0
 40
0.1
 50
270.00000044180013
 51
356.99999999999977
  0
ARC
  5
11E3
  8
0
 10
240.434244930034
 20
14.02217118909655
 30
0.0
 40
0.1002445561775197
 50
198.37146924402859
 51
269.9704706059149
  0
ARC
  5
11E4
  8
0
 10
231.09311426772069
 20
13.971393257585209
 30
0.0
 40
0.1098346115361622
 50
187.6915178364923
 51
265.30848216470753
  0
ARC
  5
11E5
  8
0
 10
255.0718007628804
 20
22.097202236832612
 30
0.0
 40
0.4400000000000001
 50
270.0
 51
305.74791035429769
  0
ARC
  5
11E6
  8
0
 10
255.47491365028051
 20
21.537202236832599
 30
0.0
 40
0.25
 50
90.0
 51
125.74820453159791
  0
ARC
  5
11E7
  8
0
 10
255.48287430078051
 20
21.507202236832612
 30
0.0
 40
0.15
 50
2.3500004717001062
 51
90.0
  0
ARC
  5
11E8
  8
0
 10
255.51405066278039
 20
21.90720223683261
 30
0.0
 40
0.12
 50
270.0
 51
0.0
  0
ARC
  5
11E9
  8
0
 10
255.52257397625129
 20
21.757164225158821
 30
0.0
 40
0.1000843421406375
 50
2.369797664539258
 51
40.484306470532097
  0
LINE
  5
11EA
  8
0
 10
255.2439133293
 20
22.847565589179389
 30
0.0
 11
249.44051264538049
 21
22.847565589179389
 31
0.0
  0
ARC
  5
11EB
  8
0
 10
226.88771463573951
 20
7.0808120617513914
 30
0.0
 40
2.59966168026178
 50
338.42860768120897
 51
51.34781859257653
  0
ARC
  5
11EC
  8
0
 10
231.6843531650722
 20
12.62100298899186
 30
0.0
 40
4.7315258383263421
 50
190.22850715226619
 51
227.88739747570699
  0
ARC
  5
11ED
  8
0
 10
227.84561935477399
 20
13.61192339860721
 30
0.0
 40
0.2500032476368701
 50
90.000548999536122
 51
162.82955874347451
  0
ARC
  5
11EE
  8
0
 10
240.07100124920871
 20
21.549821700502349
 30
0.0
 40
7.699806628060661
 50
266.81258731044778
 51
289.34625460082799
  0
ARC
  5
11EF
  8
0
 10
238.1550059433489
 20
21.998603468091702
 30
0.0
 40
8.9137415460034433
 50
300.07341254871358
 51
324.89935250961759
  0
ARC
  5
11F0
  8
0
 10
235.54130702033751
 20
23.868203860001032
 30
0.0
 40
12.127198289309151
 50
324.77327205247468
 51
348.91762986277479
  0
ARC
  5
11F1
  8
0
 10
247.58934518769931
 20
21.507199581161672
 30
0.0
 40
0.1500026556866502
 50
90.000829368029073
 51
168.4967537107577
  0
LINE
  5
11F2
  8
0
 10
247.5893430163805
 20
21.65720223683261
 30
0.0
 11
255.48287430078051
 21
21.65720223683261
 31
0.0
  0
ARC
  5
11F3
  8
0
 10
247.66776847490269
 20
21.784991622461341
 30
0.0
 40
0.1280883723498748
 50
165.96855448176089
 51
266.08444578609749
  0
ARC
  5
11F4
  8
0
 10
248.56970694446929
 20
21.378596763111592
 30
0.0
 40
1.1155535337010321
 50
108.2218347437789
 51
156.91242948851729
  0
ARC
  5
11F5
  8
0
 10
251.28567890743659
 20
15.328521631602539
 30
0.0
 40
7.7421354012057098
 50
103.7878680145274
 51
113.3196240477259
  0
ARC
  5
11F6
  8
0
 10
255.2346682242414
 20
22.44829009101592
 30
0.0
 40
0.3993825176459692
 50
359.96393795843119
 51
88.673570333220681
  0
ARC
  5
11F7
  8
0
 10
255.50309723054141
 20
9.7505595523035673
 30
0.0
 40
0.2540558293611656
 50
291.17987593579579
 51
350.50563028381259
  0
ARC
  5
11F8
  8
0
 10
255.97757102290041
 20
8.5897806696378112
 30
0.0
 40
1.0000047132449981
 50
112.4999333532087
 51
183.29491881101831
  0
ARC
  5
11F9
  8
0
 10
228.12440951206739
 20
15.07417700376358
 30
0.0
 40
0.2499926074582694
 50
94.958825866803892
 51
162.8842062926789
  0
ARC
  5
11FA
  8
0
 10
232.83658966931489
 20
-42.643172551514958
 30
0.0
 40
58.159376204829222
 50
92.981526030276854
 51
94.668663005724596
  0
ARC
  5
11FB
  8
0
 10
244.3114809420419
 20
-264.46335658517432
 30
0.0
 40
280.27616057593411
 50
89.946562268295125
 51
92.96550133896541
  0
CIRCLE
  5
11FC
  8
0
 10
236.4245863216685
 20
0.2800739484793162
 30
0.0
 40
0.5314363691041172
  0
ARC
  5
11FD
  8
0
 10
230.6834840843886
 20
14.22498423347646
 30
0.0
 40
0.642779693232771
 50
189.60915734425001
 51
208.81534120717529
  0
ARC
  5
11FE
  8
0
 10
230.1739995320697
 20
13.941926706048781
 30
0.0
 40
0.0600000598161851
 50
206.481716951789
 51
270.00000000001302
  0
LINE
  5
11FF
  8
0
 10
230.1739995320697
 20
13.881926646232589
 30
0.0
 11
231.05935023629729
 21
13.86687707666886
 31
0.0
  0
ARC
  5
1200
  8
0
 10
230.67112718582911
 20
13.9766809506334
 30
0.0
 40
0.31377791925267
 50
356.3477409635658
 51
26.650150711147791
  0
ARC
  5
1201
  8
0
 10
231.93167598400541
 20
13.963522050322901
 30
0.0
 40
0.1015968074333977
 50
269.69884435923592
 51
340.16514450900058
  0
ARC
  5
1202
  8
0
 10
232.16832994503989
 20
13.827657749228941
 30
0.0
 40
0.1737384416533359
 50
16.576714856851709
 51
144.2967821713373
  0
ARC
  5
1203
  8
0
 10
227.47265651302089
 20
-240.99803965346771
 30
0.0
 40
254.92163796219279
 50
88.739665385957039
 51
88.907115445715334
  0
ARC
  5
1204
  8
0
 10
240.3112519819187
 20
14.235312993708041
 30
0.0
 40
0.2463168966709939
 50
209.3062192515529
 51
276.4938392056705
  0
ARC
  5
1205
  8
0
 10
240.1911897453825
 20
13.851521163101211
 30
0.0
 40
0.2135359935995988
 50
49.552606462902503
 51
103.9978814649793
  0
ARC
  5
1206
  8
0
 10
240.2402964659012
 20
13.964611809927909
 30
0.0
 40
0.1021674355672204
 50
14.72252701001479
 51
28.92238209092454
  0
ARC
  5
1207
  8
0
 10
240.18481529958439
 20
14.02781457329443
 30
0.0
 40
0.1587242477212086
 50
346.43143331009998
 51
33.180860215476592
  0
ARC
  5
1208
  8
0
 10
237.23976277918939
 20
-1253.7687696814789
 30
0.0
 40
1268.9509991833399
 50
89.700259927779314
 51
90.422368779973283
  0
ARC
  5
1209
  8
0
 10
238.90137178464661
 20
-49.883134697968337
 30
0.0
 40
59.902097745401257
 50
85.061895522835627
 51
99.988385559348984
  0
ARC
  5
120A
  8
0
 10
250.8182150993261
 20
131.8265609657937
 30
0.0
 40
122.2170618563304
 50
266.82903612369893
 51
272.21656713768039
  0
ARC
  5
120B
  8
0
 10
255.53892630862839
 20
9.9508646969843788
 30
0.0
 40
0.2499977595538926
 50
271.43186463702528
 51
351.00006098084867
  0
ARC
  5
120C
  8
0
 10
236.6493665809796
 20
15.485497356004711
 30
0.0
 40
11.89764291835291
 50
231.88287776799839
 51
298.58688737892572
  0
ARC
  5
120D
  8
0
 10
261.50093235739109
 20
-51.335513366632327
 30
0.0
 40
59.540380998367688
 50
98.299108896492513
 51
108.77034979786259
  0
ARC
  5
120E
  8
0
 10
117.3171527552978
 20
18.87406097469303
 30
0.0
 40
136.05912089179969
 50
351.5587771333212
 51
355.5915534676472
  0
ARC
  5
120F
  8
0
 10
254.234626505043
 20
8.2066532766110782
 30
0.0
 40
1.278111171791749
 50
90.077128601778114
 51
170.5846932556974
  0
ARC
  5
1210
  8
0
 10
255.4001065900371
 20
4.0831424510943073
 30
0.0
 40
5.5262885337539096
 50
88.857473533996099
 51
102.19319873591201
  0
ARC
  5
1211
  8
0
 10
255.4894728907189
 20
10.004224154950871
 30
0.0
 40
0.3964392257359289
 50
273.01118050393302
 51
311.79233270044961
  0
ENDSEC
  0
EOF
