  0
SECTION
  2
HEADER
  9
$ACADVER
  1
AC1009
  9
$INSBASE
 10
0.0
 20
0.0
 30
0.0
  9
$EXTMIN
 10
-36.407842485181483
 20
-15.177580419586359
 30
0.0
  9
$EXTMAX
 10
27.190925675510019
 20
31.493866396078872
 30
0.0
  9
$LIMMIN
 10
0.0
 20
0.0
  9
$LIMMAX
 10
144.0
 20
108.0
  9
$ORTHOMODE
 70
     0
  9
$REGENMODE
 70
     1
  9
$FILLMODE
 70
     1
  9
$QTEXTMODE
 70
     0
  9
$MIRRTEXT
 70
     1
  9
$DRAGMODE
 70
     2
  9
$LTSCALE
 40
4.0
  9
$OSMODE
 70
    37
  9
$ATTMODE
 70
     1
  9
$TEXTSIZE
 40
0.001
  9
$TRACEWID
 40
0.05
  9
$TEXTSTYLE
  7
STANDARD
  9
$CLAYER
  8
0
  9
$CELTYPE
  6
CONTINUOUS
  9
$CECOLOR
 62
   256
  9
$DIMSCALE
 40
1.0
  9
$DIMASZ
 40
0.18
  9
$DIMEXO
 40
0.0625
  9
$DIMDLI
 40
0.38
  9
$DIMRND
 40
0.0
  9
$DIMDLE
 40
0.0
  9
$DIMEXE
 40
0.18
  9
$DIMTP
 40
0.0
  9
$DIMTM
 40
0.0
  9
$DIMTXT
 40
0.18
  9
$DIMCEN
 40
0.09
  9
$DIMTSZ
 40
0.0
  9
$DIMTOL
 70
     0
  9
$DIMLIM
 70
     0
  9
$DIMTIH
 70
     1
  9
$DIMTOH
 70
     1
  9
$DIMSE1
 70
     0
  9
$DIMSE2
 70
     0
  9
$DIMTAD
 70
     0
  9
$DIMZIN
 70
     0
  9
$DIMBLK
  1

  9
$DIMASO
 70
     1
  9
$DIMSHO
 70
     1
  9
$DIMPOST
  1

  9
$DIMAPOST
  1

  9
$DIMALT
 70
     0
  9
$DIMALTD
 70
     2
  9
$DIMALTF
 40
25.399999999999999
  9
$DIMLFAC
 40
1.0
  9
$DIMTOFL
 70
     0
  9
$DIMTVP
 40
0.0
  9
$DIMTIX
 70
     0
  9
$DIMSOXD
 70
     0
  9
$DIMSAH
 70
     0
  9
$DIMBLK1
  1

  9
$DIMBLK2
  1

  9
$DIMSTYLE
  2
STANDARD
  9
$DIMCLRD
 70
     0
  9
$DIMCLRE
 70
     0
  9
$DIMCLRT
 70
     0
  9
$DIMTFAC
 40
1.0
  9
$DIMGAP
 40
0.09
  9
$LUNITS
 70
     2
  9
$LUPREC
 70
     4
  9
$SKETCHINC
 40
0.1
  9
$FILLETRAD
 40
0.0
  9
$AUNITS
 70
     0
  9
$AUPREC
 70
     0
  9
$MENU
  1
acad
  9
$ELEVATION
 40
0.0
  9
$PELEVATION
 40
0.0
  9
$THICKNESS
 40
0.0
  9
$LIMCHECK
 70
     0
  9
$BLIPMODE
 70
     0
  9
$CHAMFERA
 40
0.0
  9
$CHAMFERB
 40
0.0
  9
$SKPOLY
 70
     0
  9
$TDCREATE
 40
2454593.4710700582
  9
$TDUPDATE
 40
2454593.4955698382
  9
$TDINDWG
 40
0.0245003241
  9
$TDUSRTIMER
 40
0.0245001389
  9
$USRTIMER
 70
     1
  9
$ANGBASE
 50
0.0
  9
$ANGDIR
 70
     0
  9
$PDMODE
 70
     3
  9
$PDSIZE
 40
-2.0
  9
$PLINEWID
 40
0.0
  9
$COORDS
 70
     2
  9
$SPLFRAME
 70
     0
  9
$SPLINETYPE
 70
     6
  9
$SPLINESEGS
 70
     8
  9
$ATTDIA
 70
     0
  9
$ATTREQ
 70
     1
  9
$HANDLING
 70
     1
  9
$HANDSEED
  5
34A8
  9
$SURFTAB1
 70
     6
  9
$SURFTAB2
 70
     6
  9
$SURFTYPE
 70
     6
  9
$SURFU
 70
     6
  9
$SURFV
 70
     6
  9
$UCSNAME
  2

  9
$UCSORG
 10
0.0
 20
0.0
 30
0.0
  9
$UCSXDIR
 10
1.0
 20
0.0
 30
0.0
  9
$UCSYDIR
 10
0.0
 20
1.0
 30
0.0
  9
$PUCSNAME
  2

  9
$PUCSORG
 10
0.0
 20
0.0
 30
0.0
  9
$PUCSXDIR
 10
1.0
 20
0.0
 30
0.0
  9
$PUCSYDIR
 10
0.0
 20
1.0
 30
0.0
  9
$USERI1
 70
     0
  9
$USERI2
 70
     0
  9
$USERI3
 70
     0
  9
$USERI4
 70
     0
  9
$USERI5
 70
     0
  9
$USERR1
 40
0.0
  9
$USERR2
 40
0.0
  9
$USERR3
 40
0.0
  9
$USERR4
 40
0.0
  9
$USERR5
 40
0.0
  9
$WORLDVIEW
 70
     1
  9
$SHADEDGE
 70
     3
  9
$SHADEDIF
 70
    70
  9
$TILEMODE
 70
     1
  9
$MAXACTVP
 70
    16
  9
$PLIMCHECK
 70
     0
  9
$PEXTMIN
 10
1.0000000000000000E+020
 20
1.0000000000000000E+020
 30
1.0000000000000000E+020
  9
$PEXTMAX
 10
-1.0000000000000000E+020
 20
-1.0000000000000000E+020
 30
-1.0000000000000000E+020
  9
$PLIMMIN
 10
0.0
 20
0.0
  9
$PLIMMAX
 10
12.0
 20
9.0
  9
$UNITMODE
 70
     0
  9
$VISRETAIN
 70
     0
  9
$PLINEGEN
 70
     1
  9
$PSLTSCALE
 70
     0
  0
ENDSEC
  0
SECTION
  2
TABLES
  0
TABLE
  2
VPORT
 70
    10
  0
VPORT
  2
*ACTIVE
 70
     0
 10
0.0
 20
0.0
 11
1.0
 21
1.0
 12
18.164738229277958
 22
15.78711149050188
 13
0.0
 23
0.0
 14
1.0
 24
1.0
 15
0.0
 25
0.0
 16
0.0
 26
0.0
 36
1.0
 17
0.0
 27
0.0
 37
0.0
 40
41.3684824950017
 41
1.6928471248246839
 42
50.0
 43
0.0
 44
0.0
 50
0.0
 51
0.0
 71
     0
 72
   100
 73
     1
 74
     1
 75
     0
 76
     0
 77
     0
 78
     0
  0
ENDTAB
  0
TABLE
  2
LTYPE
 70
     1
  0
LTYPE
  2
CONTINUOUS
 70
     0
  3
Solid line
 72
    65
 73
     0
 40
0.0
  0
ENDTAB
  0
TABLE
  2
LAYER
 70
     7
  0
LAYER
  2
0
 70
     0
 62
     7
  6
CONTINUOUS
  0
LAYER
  2
DATUM_AXIS
 70
     0
 62
     7
  6
CONTINUOUS
  0
LAYER
  2
DEFPOINTS
 70
     0
 62
     7
  6
CONTINUOUS
  0
LAYER
  2
06___PRT_ALL_SURFS
 70
     0
 62
     7
  6
CONTINUOUS
  0
LAYER
  2
_SURFACE
 70
     0
 62
     7
  6
CONTINUOUS
  0
ENDTAB
  0
TABLE
  2
STYLE
 70
     1
  0
STYLE
  2
STANDARD
 70
     0
 40
0.0
 41
1.0
 50
0.0
 71
     0
 42
0.001
  3
txt
  4

  0
ENDTAB
  0
TABLE
  2
VIEW
 70
     0
  0
ENDTAB
  0
TABLE
  2
UCS
 70
     0
  0
ENDTAB
  0
TABLE
  2
APPID
 70
     1
  0
APPID
  2
ACAD
 70
     0
  0
ENDTAB
  0
TABLE
  2
DIMSTYLE
 70
     1
  0
DIMSTYLE
  2
STANDARD
 70
     0
  3

  4

  5

  6

  7

 40
1.0
 41
0.18
 42
0.0625
 43
0.38
 44
0.18
 45
0.0
 46
0.0
 47
0.0
 48
0.0
140
0.18
141
0.09
142
0.0
143
25.399999999999999
144
1.0
145
0.0
146
1.0
147
0.09
 71
     0
 72
     0
 73
     1
 74
     1
 75
     0
 76
     0
 77
     0
 78
     0
170
     0
171
     2
172
     0
173
     0
174
     0
175
     0
176
     0
177
     0
178
     0
  0
ENDTAB
  0
ENDSEC
  0
SECTION
  2
BLOCKS
  0
BLOCK
  8
0
  2
$MODEL_SPACE
 70
     2
 10
0.0
 20
0.0
 30
0.0
  3
$MODEL_SPACE
  1

  0
ENDBLK
  5
9
  8
0
  0
BLOCK
 67
     1
  8
0
  2
$PAPER_SPACE
 70
     0
 10
0.0
 20
0.0
 30
0.0
  3
$PAPER_SPACE
  1

  0
ENDBLK
  5
E
 67
     1
  8
0
  0
BLOCK
  8
0
  2
*U6
 70
     1
 10
0.0
 20
0.0
 30
0.0
  3
*U6
  1

  0
TEXT
  5
241F
  8
0
  6
CONTINUOUS
 62
     0
 10
4.6631965564903632
 20
0.3206254684773255
 30
0.0
 40
0.18
  1
27.6333
  0
ENDBLK
  5
2421
  8
0
  0
BLOCK
  8
0
  2
*U7
 70
     1
 10
0.0
 20
0.0
 30
0.0
  3
*U7
  1

  0
TEXT
  5
2685
  8
0
  6
CONTINUOUS
 62
     0
 10
-1.6127374691036009
 20
0.4547331544154183
 30
0.0
 40
0.18
  1
31.4446
  0
ENDBLK
  5
2687
  8
0
  0
BLOCK
  8
0
  2
*U8
 70
     1
 10
0.0
 20
0.0
 30
0.0
  3
*U8
  1

  0
TEXT
  5
276B
  8
0
  6
CONTINUOUS
 62
     0
 10
-6.3907471158357128
 20
0.5972848542994502
 30
0.0
 40
0.18
  1
31.4939
  0
ENDBLK
  5
276D
  8
0
  0
ENDSEC
  0
SECTION
  2
ENTITIES
  0
LINE
  5
F4E
  8
06___PRT_ALL_SURFS
  6
CONTINUOUS
 62
     7
 10
4.5364853975891641
 20
6.7858295513515641
 30
0.0
 11
7.03538701609257
 21
6.7858292535133824
 31
0.0
  0
LINE
  5
F4F
  8
06___PRT_ALL_SURFS
  6
CONTINUOUS
 62
     7
 10
7.03538701609257
 20
6.7858292535133824
 30
0.0
 11
7.0882819865874964
 21
6.7858292472099278
 31
0.0
  0
LINE
  5
F50
  8
06___PRT_ALL_SURFS
  6
CONTINUOUS
 62
     7
 10
7.0882819865874964
 20
6.7858292472099278
 30
0.0
 11
7.4061509698060091
 21
6.7858292082073079
 31
0.0
  0
LINE
  5
F51
  8
06___PRT_ALL_SURFS
  6
CONTINUOUS
 62
     7
 10
7.4061509698060091
 20
6.7858292082073079
 30
0.0
 11
7.4772259471697851
 21
6.785829199934029
 31
0.0
  0
LINE
  5
F52
  8
06___PRT_ALL_SURFS
  6
CONTINUOUS
 62
     7
 10
7.4772259471697851
 20
6.785829199934029
 30
0.0
 11
7.4940853383511721
 21
6.7858291979641994
 31
0.0
  0
LINE
  5
F53
  8
06___PRT_ALL_SURFS
  6
CONTINUOUS
 62
     7
 10
7.4940853383511721
 20
6.7858291979641994
 30
0.0
 11
9.5810551641042352
 21
6.7858290273769821
 31
0.0
  0
LINE
  5
F54
  8
06___PRT_ALL_SURFS
  6
CONTINUOUS
 62
     7
 10
9.5810551641042352
 20
6.7858290273769821
 30
0.0
 11
13.86757198452546
 21
6.7858290356502664
 31
0.0
  0
LINE
  5
F55
  8
06___PRT_ALL_SURFS
  6
CONTINUOUS
 62
     7
 10
13.86757198452546
 20
6.7858290356502664
 30
0.0
 11
19.515186549172899
 21
6.7858291723564159
 31
0.0
  0
LINE
  5
F56
  8
06___PRT_ALL_SURFS
  6
CONTINUOUS
 62
     7
 10
19.515186549172899
 20
6.7858291723564159
 30
0.0
 11
19.939230609275821
 21
6.7858291707805529
 31
0.0
  0
LINE
  5
F57
  8
06___PRT_ALL_SURFS
  6
CONTINUOUS
 62
     7
 10
19.939230609275821
 20
6.7858291707805529
 30
0.0
 11
21.24472695225365
 21
6.7858291577796779
 31
0.0
  0
LINE
  5
F58
  8
06___PRT_ALL_SURFS
  6
CONTINUOUS
 62
     7
 10
21.24472695225365
 20
6.7858291577796779
 30
0.0
 11
22.802247130786281
 21
6.7858291294141386
 31
0.0
  0
POLYLINE
  8
0
  5
276E
  62
7
  66
     1
 10
0.000000
 20
0.000000
 30
0.000000
  70
     8
  0
VERTEX
  8
0
  5
276F
 10
0.193799
 20
6.78583
 30
0.000000
  70
    32
  0
VERTEX
  8
0
  5
2770
 10
0.192780
 20
6.78583
 30
0.000000
  70
    32
  0
VERTEX
  8
0
  5
2771
 10
0.191760
 20
6.78583
 30
0.000000
  70
    32
  0
VERTEX
  8
0
  5
2772
 10
0.190738
 20
6.78583
 30
0.000000
  70
    32
  0
VERTEX
  8
0
  5
2773
 10
0.189714
 20
6.78582
 30
0.000000
  70
    32
  0
VERTEX
  8
0
  5
2774
 10
0.188688
 20
6.78582
 30
0.000000
  70
    32
  0
VERTEX
  8
0
  5
2775
 10
0.187661
 20
6.78581
 30
0.000000
  70
    32
  0
VERTEX
  8
0
  5
2776
 10
0.186632
 20
6.78580
 30
0.000000
  70
    32
  0
VERTEX
  8
0
  5
2777
 10
0.185602
 20
6.78580
 30
0.000000
  70
    32
  0
VERTEX
  8
0
  5
2778
 10
0.184570
 20
6.78579
 30
0.000000
  70
    32
  0
VERTEX
  8
0
  5
2779
 10
0.183537
 20
6.78578
 30
0.000000
  70
    32
  0
VERTEX
  8
0
  5
277A
 10
0.182503
 20
6.78577
 30
0.000000
  70
    32
  0
VERTEX
  8
0
  5
277B
 10
0.181468
 20
6.78576
 30
0.000000
  70
    32
  0
VERTEX
  8
0
  5
277C
 10
0.180432
 20
6.78575
 30
0.000000
  70
    32
  0
VERTEX
  8
0
  5
277D
 10
0.179394
 20
6.78574
 30
0.000000
  70
    32
  0
VERTEX
  8
0
  5
277E
 10
0.178356
 20
6.78572
 30
0.000000
  70
    32
  0
VERTEX
  8
0
  5
277F
 10
0.177317
 20
6.78571
 30
0.000000
  70
    32
  0
VERTEX
  8
0
  5
2780
 10
0.176278
 20
6.78570
 30
0.000000
  70
    32
  0
VERTEX
  8
0
  5
2781
 10
0.175237
 20
6.78569
 30
0.000000
  70
    32
  0
VERTEX
  8
0
  5
2782
 10
0.174197
 20
6.78567
 30
0.000000
  70
    32
  0
VERTEX
  8
0
  5
2783
 10
0.173155
 20
6.78566
 30
0.000000
  70
    32
  0
VERTEX
  8
0
  5
2784
 10
0.172114
 20
6.78565
 30
0.000000
  70
    32
  0
VERTEX
  8
0
  5
2785
 10
0.171072
 20
6.78563
 30
0.000000
  70
    32
  0
VERTEX
  8
0
  5
2786
 10
0.170030
 20
6.78562
 30
0.000000
  70
    32
  0
VERTEX
  8
0
  5
2787
 10
0.168988
 20
6.78561
 30
0.000000
  70
    32
  0
VERTEX
  8
0
  5
2788
 10
0.167945
 20
6.78560
 30
0.000000
  70
    32
  0
VERTEX
  8
0
  5
2789
 10
0.166903
 20
6.78558
 30
0.000000
  70
    32
  0
VERTEX
  8
0
  5
278A
 10
0.165861
 20
6.78557
 30
0.000000
  70
    32
  0
VERTEX
  8
0
  5
278B
 10
0.164819
 20
6.78556
 30
0.000000
  70
    32
  0
VERTEX
  8
0
  5
278C
 10
0.163778
 20
6.78555
 30
0.000000
  70
    32
  0
VERTEX
  8
0
  5
278D
 10
0.162737
 20
6.78554
 30
0.000000
  70
    32
  0
VERTEX
  8
0
  5
278E
 10
0.161696
 20
6.78553
 30
0.000000
  70
    32
  0
VERTEX
  8
0
  5
278F
 10
0.160656
 20
6.78552
 30
0.000000
  70
    32
  0
VERTEX
  8
0
  5
2790
 10
0.159617
 20
6.78552
 30
0.000000
  70
    32
  0
VERTEX
  8
0
  5
2791
 10
0.158578
 20
6.78551
 30
0.000000
  70
    32
  0
VERTEX
  8
0
  5
2792
 10
0.157540
 20
6.78550
 30
0.000000
  70
    32
  0
VERTEX
  8
0
  5
2793
 10
0.156504
 20
6.78550
 30
0.000000
  70
    32
  0
VERTEX
  8
0
  5
2794
 10
0.155468
 20
6.78549
 30
0.000000
  70
    32
  0
VERTEX
  8
0
  5
2795
 10
0.154433
 20
6.78549
 30
0.000000
  70
    32
  0
VERTEX
  8
0
  5
2796
 10
0.153399
 20
6.78549
 30
0.000000
  70
    32
  0
VERTEX
  8
0
  5
2797
 10
0.152367
 20
6.78549
 30
0.000000
  70
    32
  0
VERTEX
  8
0
  5
2798
 10
0.151336
 20
6.78549
 30
0.000000
  70
    32
  0
VERTEX
  8
0
  5
2799
 10
0.150306
 20
6.78549
 30
0.000000
  70
    32
  0
VERTEX
  8
0
  5
279A
 10
0.149278
 20
6.78550
 30
0.000000
  70
    32
  0
VERTEX
  8
0
  5
279B
 10
0.148251
 20
6.78550
 30
0.000000
  70
    32
  0
VERTEX
  8
0
  5
279C
 10
0.147226
 20
6.78551
 30
0.000000
  70
    32
  0
VERTEX
  8
0
  5
279D
 10
0.146203
 20
6.78552
 30
0.000000
  70
    32
  0
VERTEX
  8
0
  5
279E
 10
0.145182
 20
6.78553
 30
0.000000
  70
    32
  0
VERTEX
  8
0
  5
279F
 10
0.144163
 20
6.78554
 30
0.000000
  70
    32
  0
VERTEX
  8
0
  5
27A0
 10
0.143145
 20
6.78556
 30
0.000000
  70
    32
  0
VERTEX
  8
0
  5
27A1
 10
0.142130
 20
6.78557
 30
0.000000
  70
    32
  0
VERTEX
  8
0
  5
27A2
 10
0.141117
 20
6.78559
 30
0.000000
  70
    32
  0
VERTEX
  8
0
  5
27A3
 10
0.140106
 20
6.78561
 30
0.000000
  70
    32
  0
VERTEX
  8
0
  5
27A4
 10
0.139098
 20
6.78563
 30
0.000000
  70
    32
  0
VERTEX
  8
0
  5
27A5
 10
0.138092
 20
6.78565
 30
0.000000
  70
    32
  0
VERTEX
  8
0
  5
27A6
 10
0.137088
 20
6.78568
 30
0.000000
  70
    32
  0
VERTEX
  8
0
  5
27A7
 10
0.136087
 20
6.78571
 30
0.000000
  70
    32
  0
VERTEX
  8
0
  5
27A8
 10
0.135089
 20
6.78574
 30
0.000000
  70
    32
  0
VERTEX
  8
0
  5
27A9
 10
0.134093
 20
6.78577
 30
0.000000
  70
    32
  0
VERTEX
  8
0
  5
27AA
 10
0.133101
 20
6.78581
 30
0.000000
  70
    32
  0
VERTEX
  8
0
  5
27AB
 10
0.132111
 20
6.78585
 30
0.000000
  70
    32
  0
VERTEX
  8
0
  5
27AC
 10
0.131125
 20
6.78589
 30
0.000000
  70
    32
  0
VERTEX
  8
0
  5
27AD
 10
0.130141
 20
6.78593
 30
0.000000
  70
    32
  0
VERTEX
  8
0
  5
27AE
 10
0.129161
 20
6.78598
 30
0.000000
  70
    32
  0
VERTEX
  8
0
  5
27AF
 10
0.128184
 20
6.78603
 30
0.000000
  70
    32
  0
VERTEX
  8
0
  5
27B0
 10
0.127210
 20
6.78608
 30
0.000000
  70
    32
  0
VERTEX
  8
0
  5
27B1
 10
0.126240
 20
6.78614
 30
0.000000
  70
    32
  0
VERTEX
  8
0
  5
27B2
 10
0.125273
 20
6.78620
 30
0.000000
  70
    32
  0
VERTEX
  8
0
  5
27B3
 10
0.124310
 20
6.78626
 30
0.000000
  70
    32
  0
VERTEX
  8
0
  5
27B4
 10
0.123351
 20
6.78632
 30
0.000000
  70
    32
  0
VERTEX
  8
0
  5
27B5
 10
0.122395
 20
6.78639
 30
0.000000
  70
    32
  0
VERTEX
  8
0
  5
27B6
 10
0.121443
 20
6.78646
 30
0.000000
  70
    32
  0
VERTEX
  8
0
  5
27B7
 10
0.120496
 20
6.78654
 30
0.000000
  70
    32
  0
VERTEX
  8
0
  5
27B8
 10
0.119552
 20
6.78662
 30
0.000000
  70
    32
  0
VERTEX
  8
0
  5
27B9
 10
0.118612
 20
6.78670
 30
0.000000
  70
    32
  0
VERTEX
  8
0
  5
27BA
 10
0.117676
 20
6.78678
 30
0.000000
  70
    32
  0
VERTEX
  8
0
  5
27BB
 10
0.116744
 20
6.78687
 30
0.000000
  70
    32
  0
VERTEX
  8
0
  5
27BC
 10
0.115815
 20
6.78696
 30
0.000000
  70
    32
  0
VERTEX
  8
0
  5
27BD
 10
0.114888
 20
6.78705
 30
0.000000
  70
    32
  0
VERTEX
  8
0
  5
27BE
 10
0.113964
 20
6.78715
 30
0.000000
  70
    32
  0
VERTEX
  8
0
  5
27BF
 10
0.113043
 20
6.78724
 30
0.000000
  70
    32
  0
VERTEX
  8
0
  5
27C0
 10
0.112123
 20
6.78734
 30
0.000000
  70
    32
  0
VERTEX
  8
0
  5
27C1
 10
0.111204
 20
6.78744
 30
0.000000
  70
    32
  0
VERTEX
  8
0
  5
27C2
 10
0.110287
 20
6.78755
 30
0.000000
  70
    32
  0
VERTEX
  8
0
  5
27C3
 10
0.109371
 20
6.78765
 30
0.000000
  70
    32
  0
VERTEX
  8
0
  5
27C4
 10
0.108455
 20
6.78775
 30
0.000000
  70
    32
  0
VERTEX
  8
0
  5
27C5
 10
0.107540
 20
6.78786
 30
0.000000
  70
    32
  0
VERTEX
  8
0
  5
27C6
 10
0.106625
 20
6.78796
 30
0.000000
  70
    32
  0
VERTEX
  8
0
  5
27C7
 10
0.105709
 20
6.78807
 30
0.000000
  70
    32
  0
VERTEX
  8
0
  5
27C8
 10
0.104793
 20
6.78817
 30
0.000000
  70
    32
  0
VERTEX
  8
0
  5
27C9
 10
0.103876
 20
6.78828
 30
0.000000
  70
    32
  0
VERTEX
  8
0
  5
27CA
 10
0.102957
 20
6.78838
 30
0.000000
  70
    32
  0
VERTEX
  8
0
  5
27CB
 10
0.102037
 20
6.78848
 30
0.000000
  70
    32
  0
VERTEX
  8
0
  5
27CC
 10
0.101115
 20
6.78858
 30
0.000000
  70
    32
  0
VERTEX
  8
0
  5
27CD
 10
0.100190
 20
6.78868
 30
0.000000
  70
    32
  0
VERTEX
  8
0
  5
27CE
 10
0.0992632
 20
6.78878
 30
0.000000
  70
    32
  0
VERTEX
  8
0
  5
27CF
 10
0.0983333
 20
6.78888
 30
0.000000
  70
    32
  0
VERTEX
  8
0
  5
27D0
 10
0.0974003
 20
6.78898
 30
0.000000
  70
    32
  0
VERTEX
  8
0
  5
27D1
 10
0.0964637
 20
6.78907
 30
0.000000
  70
    32
  0
VERTEX
  8
0
  5
27D2
 10
0.0955233
 20
6.78916
 30
0.000000
  70
    32
  0
VERTEX
  8
0
  5
27D3
 10
0.0945787
 20
6.78925
 30
0.000000
  70
    32
  0
VERTEX
  8
0
  5
27D4
 10
0.0936297
 20
6.78933
 30
0.000000
  70
    32
  0
VERTEX
  8
0
  5
27D5
 10
0.0926759
 20
6.78942
 30
0.000000
  70
    32
  0
VERTEX
  8
0
  5
27D6
 10
0.0917170
 20
6.78949
 30
0.000000
  70
    32
  0
VERTEX
  8
0
  5
27D7
 10
0.0907527
 20
6.78957
 30
0.000000
  70
    32
  0
VERTEX
  8
0
  5
27D8
 10
0.0897827
 20
6.78964
 30
0.000000
  70
    32
  0
VERTEX
  8
0
  5
27D9
 10
0.0888066
 20
6.78971
 30
0.000000
  70
    32
  0
VERTEX
  8
0
  5
27DA
 10
0.0878241
 20
6.78977
 30
0.000000
  70
    32
  0
VERTEX
  8
0
  5
27DB
 10
0.0868349
 20
6.78983
 30
0.000000
  70
    32
  0
VERTEX
  8
0
  5
27DC
 10
0.0858388
 20
6.78988
 30
0.000000
  70
    32
  0
VERTEX
  8
0
  5
27DD
 10
0.0848353
 20
6.78993
 30
0.000000
  70
    32
  0
VERTEX
  8
0
  5
27DE
 10
0.0838242
 20
6.78997
 30
0.000000
  70
    32
  0
VERTEX
  8
0
  5
27DF
 10
0.0828051
 20
6.79000
 30
0.000000
  70
    32
  0
VERTEX
  8
0
  5
27E0
 10
0.0817778
 20
6.79004
 30
0.000000
  70
    32
  0
VERTEX
  8
0
  5
27E1
 10
0.0807418
 20
6.79006
 30
0.000000
  70
    32
  0
VERTEX
  8
0
  5
27E2
 10
0.0796970
 20
6.79008
 30
0.000000
  70
    32
  0
VERTEX
  8
0
  5
27E3
 10
0.0786430
 20
6.79009
 30
0.000000
  70
    32
  0
VERTEX
  8
0
  5
27E4
 10
0.0775794
 20
6.79010
 30
0.000000
  70
    32
  0
VERTEX
  8
0
  5
27E5
 10
0.0765059
 20
6.79010
 30
0.000000
  70
    32
  0
VERTEX
  8
0
  5
27E6
 10
0.0754223
 20
6.79009
 30
0.000000
  70
    32
  0
VERTEX
  8
0
  5
27E7
 10
0.0743282
 20
6.79007
 30
0.000000
  70
    32
  0
VERTEX
  8
0
  5
27E8
 10
0.0732233
 20
6.79005
 30
0.000000
  70
    32
  0
VERTEX
  8
0
  5
27E9
 10
0.0721073
 20
6.79001
 30
0.000000
  70
    32
  0
VERTEX
  8
0
  5
27EA
 10
0.0709798
 20
6.78997
 30
0.000000
  70
    32
  0
VERTEX
  8
0
  5
27EB
 10
0.0698406
 20
6.78992
 30
0.000000
  70
    32
  0
VERTEX
  8
0
  5
27EC
 10
0.0686893
 20
6.78987
 30
0.000000
  70
    32
  0
VERTEX
  8
0
  5
27ED
 10
0.0675256
 20
6.78980
 30
0.000000
  70
    32
  0
VERTEX
  8
0
  5
27EE
 10
0.0663492
 20
6.78973
 30
0.000000
  70
    32
  0
VERTEX
  8
0
  5
27EF
 10
0.0651598
 20
6.78964
 30
0.000000
  70
    32
  0
VERTEX
  8
0
  5
27F0
 10
0.0639570
 20
6.78955
 30
0.000000
  70
    32
  0
VERTEX
  8
0
  5
27F1
 10
0.0627406
 20
6.78944
 30
0.000000
  70
    32
  0
VERTEX
  8
0
  5
27F2
 10
0.0615102
 20
6.78933
 30
0.000000
  70
    32
  0
VERTEX
  8
0
  5
27F3
 10
0.0602655
 20
6.78920
 30
0.000000
  70
    32
  0
VERTEX
  8
0
  5
27F4
 10
0.0590062
 20
6.78907
 30
0.000000
  70
    32
  0
VERTEX
  8
0
  5
27F5
 10
0.0577320
 20
6.78892
 30
0.000000
  70
    32
  0
VERTEX
  8
0
  5
27F6
 10
0.0564425
 20
6.78877
 30
0.000000
  70
    32
  0
VERTEX
  8
0
  5
27F7
 10
0.0551381
 20
6.78860
 30
0.000000
  70
    32
  0
VERTEX
  8
0
  5
27F8
 10
0.0538198
 20
6.78842
 30
0.000000
  70
    32
  0
VERTEX
  8
0
  5
27F9
 10
0.0524892
 20
6.78823
 30
0.000000
  70
    32
  0
VERTEX
  8
0
  5
27FA
 10
0.0511476
 20
6.78804
 30
0.000000
  70
    32
  0
VERTEX
  8
0
  5
27FB
 10
0.0497962
 20
6.78784
 30
0.000000
  70
    32
  0
VERTEX
  8
0
  5
27FC
 10
0.0484366
 20
6.78764
 30
0.000000
  70
    32
  0
VERTEX
  8
0
  5
27FD
 10
0.0470700
 20
6.78743
 30
0.000000
  70
    32
  0
VERTEX
  8
0
  5
27FE
 10
0.0456979
 20
6.78721
 30
0.000000
  70
    32
  0
VERTEX
  8
0
  5
27FF
 10
0.0443215
 20
6.78700
 30
0.000000
  70
    32
  0
VERTEX
  8
0
  5
2800
 10
0.0429423
 20
6.78679
 30
0.000000
  70
    32
  0
VERTEX
  8
0
  5
2801
 10
0.0415616
 20
6.78657
 30
0.000000
  70
    32
  0
VERTEX
  8
0
  5
2802
 10
0.0401808
 20
6.78636
 30
0.000000
  70
    32
  0
VERTEX
  8
0
  5
2803
 10
0.0388012
 20
6.78615
 30
0.000000
  70
    32
  0
VERTEX
  8
0
  5
2804
 10
0.0374243
 20
6.78594
 30
0.000000
  70
    32
  0
VERTEX
  8
0
  5
2805
 10
0.0360512
 20
6.78574
 30
0.000000
  70
    32
  0
VERTEX
  8
0
  5
2806
 10
0.0346836
 20
6.78555
 30
0.000000
  70
    32
  0
VERTEX
  8
0
  5
2807
 10
0.0333226
 20
6.78536
 30
0.000000
  70
    32
  0
VERTEX
  8
0
  5
2808
 10
0.0319697
 20
6.78518
 30
0.000000
  70
    32
  0
VERTEX
  8
0
  5
2809
 10
0.0306261
 20
6.78501
 30
0.000000
  70
    32
  0
VERTEX
  8
0
  5
280A
 10
0.0292934
 20
6.78486
 30
0.000000
  70
    32
  0
VERTEX
  8
0
  5
280B
 10
0.0279729
 20
6.78471
 30
0.000000
  70
    32
  0
VERTEX
  8
0
  5
280C
 10
0.0266658
 20
6.78458
 30
0.000000
  70
    32
  0
VERTEX
  8
0
  5
280D
 10
0.0253736
 20
6.78446
 30
0.000000
  70
    32
  0
VERTEX
  8
0
  5
280E
 10
0.0240977
 20
6.78435
 30
0.000000
  70
    32
  0
VERTEX
  8
0
  5
280F
 10
0.0228393
 20
6.78427
 30
0.000000
  70
    32
  0
VERTEX
  8
0
  5
2810
 10
0.0216000
 20
6.78420
 30
0.000000
  70
    32
  0
VERTEX
  8
0
  5
2811
 10
0.0203809
 20
6.78415
 30
0.000000
  70
    32
  0
VERTEX
  8
0
  5
2812
 10
0.0191836
 20
6.78412
 30
0.000000
  70
    32
  0
VERTEX
  8
0
  5
2813
 10
0.0180093
 20
6.78411
 30
0.000000
  70
    32
  0
VERTEX
  8
0
  5
2814
 10
0.0168594
 20
6.78412
 30
0.000000
  70
    32
  0
VERTEX
  8
0
  5
2815
 10
0.0157353
 20
6.78416
 30
0.000000
  70
    32
  0
VERTEX
  8
0
  5
2816
 10
0.0146384
 20
6.78422
 30
0.000000
  70
    32
  0
VERTEX
  8
0
  5
2817
 10
0.0135699
 20
6.78430
 30
0.000000
  70
    32
  0
VERTEX
  8
0
  5
2818
 10
0.0125314
 20
6.78442
 30
0.000000
  70
    32
  0
VERTEX
  8
0
  5
2819
 10
0.0115241
 20
6.78456
 30
0.000000
  70
    32
  0
VERTEX
  8
0
  5
281A
 10
0.0105493
 20
6.78473
 30
0.000000
  70
    32
  0
VERTEX
  8
0
  5
281B
 10
0.00960860
 20
6.78493
 30
0.000000
  70
    32
  0
VERTEX
  8
0
  5
281C
 10
0.00870318
 20
6.78516
 30
0.000000
  70
    32
  0
VERTEX
  8
0
  5
281D
 10
0.00783446
 20
6.78542
 30
0.000000
  70
    32
  0
VERTEX
  8
0
  5
281E
 10
0.00700379
 20
6.78572
 30
0.000000
  70
    32
  0
VERTEX
  8
0
  5
281F
 10
0.00621254
 20
6.78605
 30
0.000000
  70
    32
  0
VERTEX
  8
0
  5
2820
 10
0.00546207
 20
6.78642
 30
0.000000
  70
    32
  0
VERTEX
  8
0
  5
2821
 10
0.00475375
 20
6.78682
 30
0.000000
  70
    32
  0
VERTEX
  8
0
  5
2822
 10
0.00408894
 20
6.78727
 30
0.000000
  70
    32
  0
VERTEX
  8
0
  5
2823
 10
0.00346901
 20
6.78775
 30
0.000000
  70
    32
  0
VERTEX
  8
0
  5
2824
 10
0.00289531
 20
6.78827
 30
0.000000
  70
    32
  0
VERTEX
  8
0
  5
2825
 10
0.00236921
 20
6.78884
 30
0.000000
  70
    32
  0
VERTEX
  8
0
  5
2826
 10
0.00189208
 20
6.78945
 30
0.000000
  70
    32
  0
VERTEX
  8
0
  5
2827
 10
0.00146528
 20
6.79010
 30
0.000000
  70
    32
  0
VERTEX
  8
0
  5
2828
 10
0.00109017
 20
6.79079
 30
0.000000
  70
    32
  0
VERTEX
  8
0
  5
2829
 10
0.000768115
 20
6.79154
 30
0.000000
  70
    32
  0
VERTEX
  8
0
  5
282A
 10
0.000500480
 20
6.79233
 30
0.000000
  70
    32
  0
VERTEX
  8
0
  5
282B
 10
0.000288627
 20
6.79317
 30
0.000000
  70
    32
  0
VERTEX
  8
0
  5
282C
 10
0.000133920
 20
6.79405
 30
0.000000
  70
    32
  0
VERTEX
  8
0
  5
282D
 10
3.77227e-005
 20
6.79499
 30
0.000000
  70
    32
  0
VERTEX
  8
0
  5
282E
 10
1.39897e-006
 20
6.79598
 30
0.000000
  70
    32
  0
SEQEND
  8
0
  5
282F
  0
LINE
  5
F91
  8
0
  6
CONTINUOUS
 62
     7
 10
-0.0000000165465668
 20
26.787391414190331
 30
0.0
 11
0.0
 21
29.212614396478301
 31
0.0
  0
LINE
  5
F92
  8
0
  6
CONTINUOUS
 62
     7
 10
0.0
 20
16.790855592462201
 30
0.0
 11
-0.0000000165465668
 21
26.787391414190331
 31
0.0
  0
POLYLINE
  8
0
  5
2830
  62
7
  66
     1
 10
0.000000
 20
0.000000
 30
0.000000
  70
     8
  0
VERTEX
  8
0
  5
2831
 10
1.28000e-006
 20
31.0592
 30
0.000000
  70
    32
  0
VERTEX
  8
0
  5
2832
 10
3.59940e-006
 20
31.0601
 30
0.000000
  70
    32
  0
VERTEX
  8
0
  5
2833
 10
1.05564e-005
 20
31.0611
 30
0.000000
  70
    32
  0
VERTEX
  8
0
  5
2834
 10
2.21484e-005
 20
31.0620
 30
0.000000
  70
    32
  0
VERTEX
  8
0
  5
2835
 10
3.83731e-005
 20
31.0630
 30
0.000000
  70
    32
  0
VERTEX
  8
0
  5
2836
 10
5.92279e-005
 20
31.0639
 30
0.000000
  70
    32
  0
VERTEX
  8
0
  5
2837
 10
8.47103e-005
 20
31.0649
 30
0.000000
  70
    32
  0
VERTEX
  8
0
  5
2838
 10
0.000114818
 20
31.0658
 30
0.000000
  70
    32
  0
VERTEX
  8
0
  5
2839
 10
0.000149548
 20
31.0668
 30
0.000000
  70
    32
  0
VERTEX
  8
0
  5
283A
 10
0.000188899
 20
31.0677
 30
0.000000
  70
    32
  0
VERTEX
  8
0
  5
283B
 10
0.000232867
 20
31.0687
 30
0.000000
  70
    32
  0
VERTEX
  8
0
  5
283C
 10
0.000281451
 20
31.0696
 30
0.000000
  70
    32
  0
VERTEX
  8
0
  5
283D
 10
0.000334648
 20
31.0706
 30
0.000000
  70
    32
  0
VERTEX
  8
0
  5
283E
 10
0.000392454
 20
31.0716
 30
0.000000
  70
    32
  0
VERTEX
  8
0
  5
283F
 10
0.000454869
 20
31.0725
 30
0.000000
  70
    32
  0
VERTEX
  8
0
  5
2840
 10
0.000521889
 20
31.0735
 30
0.000000
  70
    32
  0
VERTEX
  8
0
  5
2841
 10
0.000593512
 20
31.0744
 30
0.000000
  70
    32
  0
VERTEX
  8
0
  5
2842
 10
0.000669736
 20
31.0754
 30
0.000000
  70
    32
  0
VERTEX
  8
0
  5
2843
 10
0.000750557
 20
31.0763
 30
0.000000
  70
    32
  0
VERTEX
  8
0
  5
2844
 10
0.000835975
 20
31.0773
 30
0.000000
  70
    32
  0
VERTEX
  8
0
  5
2845
 10
0.000925985
 20
31.0782
 30
0.000000
  70
    32
  0
VERTEX
  8
0
  5
2846
 10
0.00102059
 20
31.0792
 30
0.000000
  70
    32
  0
VERTEX
  8
0
  5
2847
 10
0.00111977
 20
31.0801
 30
0.000000
  70
    32
  0
VERTEX
  8
0
  5
2848
 10
0.00122355
 20
31.0811
 30
0.000000
  70
    32
  0
VERTEX
  8
0
  5
2849
 10
0.00133191
 20
31.0820
 30
0.000000
  70
    32
  0
VERTEX
  8
0
  5
284A
 10
0.00144484
 20
31.0830
 30
0.000000
  70
    32
  0
VERTEX
  8
0
  5
284B
 10
0.00156236
 20
31.0839
 30
0.000000
  70
    32
  0
VERTEX
  8
0
  5
284C
 10
0.00168445
 20
31.0848
 30
0.000000
  70
    32
  0
VERTEX
  8
0
  5
284D
 10
0.00181112
 20
31.0858
 30
0.000000
  70
    32
  0
VERTEX
  8
0
  5
284E
 10
0.00194235
 20
31.0867
 30
0.000000
  70
    32
  0
VERTEX
  8
0
  5
284F
 10
0.00207816
 20
31.0877
 30
0.000000
  70
    32
  0
VERTEX
  8
0
  5
2850
 10
0.00221853
 20
31.0886
 30
0.000000
  70
    32
  0
VERTEX
  8
0
  5
2851
 10
0.00236346
 20
31.0896
 30
0.000000
  70
    32
  0
VERTEX
  8
0
  5
2852
 10
0.00251296
 20
31.0905
 30
0.000000
  70
    32
  0
VERTEX
  8
0
  5
2853
 10
0.00266701
 20
31.0915
 30
0.000000
  70
    32
  0
VERTEX
  8
0
  5
2854
 10
0.00282562
 20
31.0924
 30
0.000000
  70
    32
  0
VERTEX
  8
0
  5
2855
 10
0.00298878
 20
31.0933
 30
0.000000
  70
    32
  0
VERTEX
  8
0
  5
2856
 10
0.00315649
 20
31.0943
 30
0.000000
  70
    32
  0
VERTEX
  8
0
  5
2857
 10
0.00332876
 20
31.0952
 30
0.000000
  70
    32
  0
VERTEX
  8
0
  5
2858
 10
0.00350556
 20
31.0962
 30
0.000000
  70
    32
  0
VERTEX
  8
0
  5
2859
 10
0.00368692
 20
31.0971
 30
0.000000
  70
    32
  0
VERTEX
  8
0
  5
285A
 10
0.00387281
 20
31.0980
 30
0.000000
  70
    32
  0
VERTEX
  8
0
  5
285B
 10
0.00406324
 20
31.0990
 30
0.000000
  70
    32
  0
VERTEX
  8
0
  5
285C
 10
0.00425821
 20
31.0999
 30
0.000000
  70
    32
  0
VERTEX
  8
0
  5
285D
 10
0.00445771
 20
31.1008
 30
0.000000
  70
    32
  0
VERTEX
  8
0
  5
285E
 10
0.00466174
 20
31.1018
 30
0.000000
  70
    32
  0
VERTEX
  8
0
  5
285F
 10
0.00487030
 20
31.1027
 30
0.000000
  70
    32
  0
VERTEX
  8
0
  5
2860
 10
0.00508339
 20
31.1036
 30
0.000000
  70
    32
  0
VERTEX
  8
0
  5
2861
 10
0.00530099
 20
31.1046
 30
0.000000
  70
    32
  0
VERTEX
  8
0
  5
2862
 10
0.00552310
 20
31.1055
 30
0.000000
  70
    32
  0
VERTEX
  8
0
  5
2863
 10
0.00574971
 20
31.1064
 30
0.000000
  70
    32
  0
VERTEX
  8
0
  5
2864
 10
0.00598082
 20
31.1073
 30
0.000000
  70
    32
  0
VERTEX
  8
0
  5
2865
 10
0.00621642
 20
31.1083
 30
0.000000
  70
    32
  0
VERTEX
  8
0
  5
2866
 10
0.00645650
 20
31.1092
 30
0.000000
  70
    32
  0
VERTEX
  8
0
  5
2867
 10
0.00670105
 20
31.1101
 30
0.000000
  70
    32
  0
VERTEX
  8
0
  5
2868
 10
0.00695006
 20
31.1110
 30
0.000000
  70
    32
  0
VERTEX
  8
0
  5
2869
 10
0.00720354
 20
31.1119
 30
0.000000
  70
    32
  0
VERTEX
  8
0
  5
286A
 10
0.00746146
 20
31.1129
 30
0.000000
  70
    32
  0
VERTEX
  8
0
  5
286B
 10
0.00772383
 20
31.1138
 30
0.000000
  70
    32
  0
VERTEX
  8
0
  5
286C
 10
0.00799064
 20
31.1147
 30
0.000000
  70
    32
  0
VERTEX
  8
0
  5
286D
 10
0.00826188
 20
31.1156
 30
0.000000
  70
    32
  0
VERTEX
  8
0
  5
286E
 10
0.00853753
 20
31.1165
 30
0.000000
  70
    32
  0
VERTEX
  8
0
  5
286F
 10
0.00881761
 20
31.1174
 30
0.000000
  70
    32
  0
VERTEX
  8
0
  5
2870
 10
0.00910209
 20
31.1184
 30
0.000000
  70
    32
  0
VERTEX
  8
0
  5
2871
 10
0.00939097
 20
31.1193
 30
0.000000
  70
    32
  0
VERTEX
  8
0
  5
2872
 10
0.00968424
 20
31.1202
 30
0.000000
  70
    32
  0
VERTEX
  8
0
  5
2873
 10
0.00998190
 20
31.1211
 30
0.000000
  70
    32
  0
VERTEX
  8
0
  5
2874
 10
0.0102839
 20
31.1220
 30
0.000000
  70
    32
  0
VERTEX
  8
0
  5
2875
 10
0.0105904
 20
31.1229
 30
0.000000
  70
    32
  0
VERTEX
  8
0
  5
2876
 10
0.0109011
 20
31.1238
 30
0.000000
  70
    32
  0
VERTEX
  8
0
  5
2877
 10
0.0112163
 20
31.1247
 30
0.000000
  70
    32
  0
VERTEX
  8
0
  5
2878
 10
0.0115357
 20
31.1256
 30
0.000000
  70
    32
  0
VERTEX
  8
0
  5
2879
 10
0.0118596
 20
31.1265
 30
0.000000
  70
    32
  0
VERTEX
  8
0
  5
287A
 10
0.0121877
 20
31.1274
 30
0.000000
  70
    32
  0
VERTEX
  8
0
  5
287B
 10
0.0125202
 20
31.1283
 30
0.000000
  70
    32
  0
VERTEX
  8
0
  5
287C
 10
0.0128570
 20
31.1292
 30
0.000000
  70
    32
  0
VERTEX
  8
0
  5
287D
 10
0.0131981
 20
31.1301
 30
0.000000
  70
    32
  0
VERTEX
  8
0
  5
287E
 10
0.0135435
 20
31.1309
 30
0.000000
  70
    32
  0
VERTEX
  8
0
  5
287F
 10
0.0138933
 20
31.1318
 30
0.000000
  70
    32
  0
VERTEX
  8
0
  5
2880
 10
0.0142473
 20
31.1327
 30
0.000000
  70
    32
  0
VERTEX
  8
0
  5
2881
 10
0.0146056
 20
31.1336
 30
0.000000
  70
    32
  0
VERTEX
  8
0
  5
2882
 10
0.0149681
 20
31.1345
 30
0.000000
  70
    32
  0
VERTEX
  8
0
  5
2883
 10
0.0153350
 20
31.1354
 30
0.000000
  70
    32
  0
VERTEX
  8
0
  5
2884
 10
0.0157061
 20
31.1362
 30
0.000000
  70
    32
  0
VERTEX
  8
0
  5
2885
 10
0.0160814
 20
31.1371
 30
0.000000
  70
    32
  0
VERTEX
  8
0
  5
2886
 10
0.0164610
 20
31.1380
 30
0.000000
  70
    32
  0
VERTEX
  8
0
  5
2887
 10
0.0168449
 20
31.1389
 30
0.000000
  70
    32
  0
VERTEX
  8
0
  5
2888
 10
0.0172330
 20
31.1397
 30
0.000000
  70
    32
  0
VERTEX
  8
0
  5
2889
 10
0.0176253
 20
31.1406
 30
0.000000
  70
    32
  0
VERTEX
  8
0
  5
288A
 10
0.0180218
 20
31.1415
 30
0.000000
  70
    32
  0
VERTEX
  8
0
  5
288B
 10
0.0184225
 20
31.1423
 30
0.000000
  70
    32
  0
VERTEX
  8
0
  5
288C
 10
0.0188274
 20
31.1432
 30
0.000000
  70
    32
  0
VERTEX
  8
0
  5
288D
 10
0.0192366
 20
31.1441
 30
0.000000
  70
    32
  0
VERTEX
  8
0
  5
288E
 10
0.0196499
 20
31.1449
 30
0.000000
  70
    32
  0
VERTEX
  8
0
  5
288F
 10
0.0200674
 20
31.1458
 30
0.000000
  70
    32
  0
VERTEX
  8
0
  5
2890
 10
0.0204890
 20
31.1466
 30
0.000000
  70
    32
  0
VERTEX
  8
0
  5
2891
 10
0.0209148
 20
31.1475
 30
0.000000
  70
    32
  0
VERTEX
  8
0
  5
2892
 10
0.0213448
 20
31.1483
 30
0.000000
  70
    32
  0
VERTEX
  8
0
  5
2893
 10
0.0217788
 20
31.1492
 30
0.000000
  70
    32
  0
VERTEX
  8
0
  5
2894
 10
0.0222170
 20
31.1500
 30
0.000000
  70
    32
  0
VERTEX
  8
0
  5
2895
 10
0.0226593
 20
31.1509
 30
0.000000
  70
    32
  0
VERTEX
  8
0
  5
2896
 10
0.0231057
 20
31.1517
 30
0.000000
  70
    32
  0
VERTEX
  8
0
  5
2897
 10
0.0235561
 20
31.1526
 30
0.000000
  70
    32
  0
VERTEX
  8
0
  5
2898
 10
0.0240106
 20
31.1534
 30
0.000000
  70
    32
  0
VERTEX
  8
0
  5
2899
 10
0.0244692
 20
31.1542
 30
0.000000
  70
    32
  0
VERTEX
  8
0
  5
289A
 10
0.0249318
 20
31.1551
 30
0.000000
  70
    32
  0
VERTEX
  8
0
  5
289B
 10
0.0253985
 20
31.1559
 30
0.000000
  70
    32
  0
VERTEX
  8
0
  5
289C
 10
0.0258691
 20
31.1567
 30
0.000000
  70
    32
  0
VERTEX
  8
0
  5
289D
 10
0.0263438
 20
31.1576
 30
0.000000
  70
    32
  0
VERTEX
  8
0
  5
289E
 10
0.0268225
 20
31.1584
 30
0.000000
  70
    32
  0
VERTEX
  8
0
  5
289F
 10
0.0273051
 20
31.1592
 30
0.000000
  70
    32
  0
VERTEX
  8
0
  5
28A0
 10
0.0277918
 20
31.1600
 30
0.000000
  70
    32
  0
VERTEX
  8
0
  5
28A1
 10
0.0282824
 20
31.1609
 30
0.000000
  70
    32
  0
VERTEX
  8
0
  5
28A2
 10
0.0287769
 20
31.1617
 30
0.000000
  70
    32
  0
VERTEX
  8
0
  5
28A3
 10
0.0292754
 20
31.1625
 30
0.000000
  70
    32
  0
VERTEX
  8
0
  5
28A4
 10
0.0297778
 20
31.1633
 30
0.000000
  70
    32
  0
VERTEX
  8
0
  5
28A5
 10
0.0302841
 20
31.1641
 30
0.000000
  70
    32
  0
VERTEX
  8
0
  5
28A6
 10
0.0307943
 20
31.1649
 30
0.000000
  70
    32
  0
VERTEX
  8
0
  5
28A7
 10
0.0313085
 20
31.1657
 30
0.000000
  70
    32
  0
VERTEX
  8
0
  5
28A8
 10
0.0318264
 20
31.1665
 30
0.000000
  70
    32
  0
VERTEX
  8
0
  5
28A9
 10
0.0323483
 20
31.1673
 30
0.000000
  70
    32
  0
VERTEX
  8
0
  5
28AA
 10
0.0328740
 20
31.1681
 30
0.000000
  70
    32
  0
VERTEX
  8
0
  5
28AB
 10
0.0334036
 20
31.1689
 30
0.000000
  70
    32
  0
VERTEX
  8
0
  5
28AC
 10
0.0339370
 20
31.1697
 30
0.000000
  70
    32
  0
VERTEX
  8
0
  5
28AD
 10
0.0344742
 20
31.1705
 30
0.000000
  70
    32
  0
VERTEX
  8
0
  5
28AE
 10
0.0350152
 20
31.1713
 30
0.000000
  70
    32
  0
VERTEX
  8
0
  5
28AF
 10
0.0355600
 20
31.1721
 30
0.000000
  70
    32
  0
VERTEX
  8
0
  5
28B0
 10
0.0361086
 20
31.1728
 30
0.000000
  70
    32
  0
VERTEX
  8
0
  5
28B1
 10
0.0366610
 20
31.1736
 30
0.000000
  70
    32
  0
VERTEX
  8
0
  5
28B2
 10
0.0372171
 20
31.1744
 30
0.000000
  70
    32
  0
VERTEX
  8
0
  5
28B3
 10
0.0377770
 20
31.1752
 30
0.000000
  70
    32
  0
VERTEX
  8
0
  5
28B4
 10
0.0383406
 20
31.1759
 30
0.000000
  70
    32
  0
VERTEX
  8
0
  5
28B5
 10
0.0389079
 20
31.1767
 30
0.000000
  70
    32
  0
VERTEX
  8
0
  5
28B6
 10
0.0394790
 20
31.1775
 30
0.000000
  70
    32
  0
VERTEX
  8
0
  5
28B7
 10
0.0400538
 20
31.1782
 30
0.000000
  70
    32
  0
VERTEX
  8
0
  5
28B8
 10
0.0406322
 20
31.1790
 30
0.000000
  70
    32
  0
VERTEX
  8
0
  5
28B9
 10
0.0412143
 20
31.1797
 30
0.000000
  70
    32
  0
VERTEX
  8
0
  5
28BA
 10
0.0418001
 20
31.1805
 30
0.000000
  70
    32
  0
VERTEX
  8
0
  5
28BB
 10
0.0423896
 20
31.1812
 30
0.000000
  70
    32
  0
VERTEX
  8
0
  5
28BC
 10
0.0429827
 20
31.1820
 30
0.000000
  70
    32
  0
VERTEX
  8
0
  5
28BD
 10
0.0435794
 20
31.1827
 30
0.000000
  70
    32
  0
VERTEX
  8
0
  5
28BE
 10
0.0441797
 20
31.1835
 30
0.000000
  70
    32
  0
VERTEX
  8
0
  5
28BF
 10
0.0447836
 20
31.1842
 30
0.000000
  70
    32
  0
VERTEX
  8
0
  5
28C0
 10
0.0453911
 20
31.1849
 30
0.000000
  70
    32
  0
VERTEX
  8
0
  5
28C1
 10
0.0460021
 20
31.1857
 30
0.000000
  70
    32
  0
VERTEX
  8
0
  5
28C2
 10
0.0466167
 20
31.1864
 30
0.000000
  70
    32
  0
VERTEX
  8
0
  5
28C3
 10
0.0472348
 20
31.1871
 30
0.000000
  70
    32
  0
VERTEX
  8
0
  5
28C4
 10
0.0478565
 20
31.1879
 30
0.000000
  70
    32
  0
VERTEX
  8
0
  5
28C5
 10
0.0484816
 20
31.1886
 30
0.000000
  70
    32
  0
VERTEX
  8
0
  5
28C6
 10
0.0491102
 20
31.1893
 30
0.000000
  70
    32
  0
VERTEX
  8
0
  5
28C7
 10
0.0497423
 20
31.1900
 30
0.000000
  70
    32
  0
VERTEX
  8
0
  5
28C8
 10
0.0503778
 20
31.1907
 30
0.000000
  70
    32
  0
VERTEX
  8
0
  5
28C9
 10
0.0510168
 20
31.1914
 30
0.000000
  70
    32
  0
VERTEX
  8
0
  5
28CA
 10
0.0516592
 20
31.1921
 30
0.000000
  70
    32
  0
VERTEX
  8
0
  5
28CB
 10
0.0523050
 20
31.1928
 30
0.000000
  70
    32
  0
VERTEX
  8
0
  5
28CC
 10
0.0529541
 20
31.1935
 30
0.000000
  70
    32
  0
VERTEX
  8
0
  5
28CD
 10
0.0536067
 20
31.1942
 30
0.000000
  70
    32
  0
VERTEX
  8
0
  5
28CE
 10
0.0542626
 20
31.1949
 30
0.000000
  70
    32
  0
VERTEX
  8
0
  5
28CF
 10
0.0549219
 20
31.1956
 30
0.000000
  70
    32
  0
VERTEX
  8
0
  5
28D0
 10
0.0555844
 20
31.1963
 30
0.000000
  70
    32
  0
VERTEX
  8
0
  5
28D1
 10
0.0562503
 20
31.1970
 30
0.000000
  70
    32
  0
VERTEX
  8
0
  5
28D2
 10
0.0569195
 20
31.1977
 30
0.000000
  70
    32
  0
VERTEX
  8
0
  5
28D3
 10
0.0575920
 20
31.1983
 30
0.000000
  70
    32
  0
VERTEX
  8
0
  5
28D4
 10
0.0582677
 20
31.1990
 30
0.000000
  70
    32
  0
VERTEX
  8
0
  5
28D5
 10
0.0589467
 20
31.1997
 30
0.000000
  70
    32
  0
VERTEX
  8
0
  5
28D6
 10
0.0596289
 20
31.2004
 30
0.000000
  70
    32
  0
VERTEX
  8
0
  5
28D7
 10
0.0603143
 20
31.2010
 30
0.000000
  70
    32
  0
VERTEX
  8
0
  5
28D8
 10
0.0610030
 20
31.2017
 30
0.000000
  70
    32
  0
VERTEX
  8
0
  5
28D9
 10
0.0616948
 20
31.2023
 30
0.000000
  70
    32
  0
VERTEX
  8
0
  5
28DA
 10
0.0623898
 20
31.2030
 30
0.000000
  70
    32
  0
VERTEX
  8
0
  5
28DB
 10
0.0630879
 20
31.2036
 30
0.000000
  70
    32
  0
VERTEX
  8
0
  5
28DC
 10
0.0637892
 20
31.2043
 30
0.000000
  70
    32
  0
VERTEX
  8
0
  5
28DD
 10
0.0644936
 20
31.2049
 30
0.000000
  70
    32
  0
VERTEX
  8
0
  5
28DE
 10
0.0652011
 20
31.2056
 30
0.000000
  70
    32
  0
VERTEX
  8
0
  5
28DF
 10
0.0659117
 20
31.2062
 30
0.000000
  70
    32
  0
VERTEX
  8
0
  5
28E0
 10
0.0666254
 20
31.2068
 30
0.000000
  70
    32
  0
VERTEX
  8
0
  5
28E1
 10
0.0673422
 20
31.2075
 30
0.000000
  70
    32
  0
VERTEX
  8
0
  5
28E2
 10
0.0680620
 20
31.2081
 30
0.000000
  70
    32
  0
VERTEX
  8
0
  5
28E3
 10
0.0687848
 20
31.2087
 30
0.000000
  70
    32
  0
VERTEX
  8
0
  5
28E4
 10
0.0695107
 20
31.2093
 30
0.000000
  70
    32
  0
VERTEX
  8
0
  5
28E5
 10
0.0702395
 20
31.2100
 30
0.000000
  70
    32
  0
VERTEX
  8
0
  5
28E6
 10
0.0709713
 20
31.2106
 30
0.000000
  70
    32
  0
VERTEX
  8
0
  5
28E7
 10
0.0717061
 20
31.2112
 30
0.000000
  70
    32
  0
VERTEX
  8
0
  5
28E8
 10
0.0724439
 20
31.2118
 30
0.000000
  70
    32
  0
VERTEX
  8
0
  5
28E9
 10
0.0731845
 20
31.2124
 30
0.000000
  70
    32
  0
VERTEX
  8
0
  5
28EA
 10
0.0739281
 20
31.2130
 30
0.000000
  70
    32
  0
VERTEX
  8
0
  5
28EB
 10
0.0746746
 20
31.2136
 30
0.000000
  70
    32
  0
VERTEX
  8
0
  5
28EC
 10
0.0754240
 20
31.2142
 30
0.000000
  70
    32
  0
VERTEX
  8
0
  5
28ED
 10
0.0761762
 20
31.2147
 30
0.000000
  70
    32
  0
VERTEX
  8
0
  5
28EE
 10
0.0769313
 20
31.2153
 30
0.000000
  70
    32
  0
VERTEX
  8
0
  5
28EF
 10
0.0776892
 20
31.2159
 30
0.000000
  70
    32
  0
VERTEX
  8
0
  5
28F0
 10
0.0784499
 20
31.2165
 30
0.000000
  70
    32
  0
VERTEX
  8
0
  5
28F1
 10
0.0792134
 20
31.2171
 30
0.000000
  70
    32
  0
VERTEX
  8
0
  5
28F2
 10
0.0799796
 20
31.2176
 30
0.000000
  70
    32
  0
VERTEX
  8
0
  5
28F3
 10
0.0807486
 20
31.2182
 30
0.000000
  70
    32
  0
VERTEX
  8
0
  5
28F4
 10
0.0815203
 20
31.2188
 30
0.000000
  70
    32
  0
VERTEX
  8
0
  5
28F5
 10
0.0822947
 20
31.2193
 30
0.000000
  70
    32
  0
VERTEX
  8
0
  5
28F6
 10
0.0830718
 20
31.2199
 30
0.000000
  70
    32
  0
VERTEX
  8
0
  5
28F7
 10
0.0838516
 20
31.2204
 30
0.000000
  70
    32
  0
VERTEX
  8
0
  5
28F8
 10
0.0846340
 20
31.2210
 30
0.000000
  70
    32
  0
VERTEX
  8
0
  5
28F9
 10
0.0854190
 20
31.2215
 30
0.000000
  70
    32
  0
VERTEX
  8
0
  5
28FA
 10
0.0862067
 20
31.2220
 30
0.000000
  70
    32
  0
VERTEX
  8
0
  5
28FB
 10
0.0869969
 20
31.2226
 30
0.000000
  70
    32
  0
VERTEX
  8
0
  5
28FC
 10
0.0877897
 20
31.2231
 30
0.000000
  70
    32
  0
VERTEX
  8
0
  5
28FD
 10
0.0885851
 20
31.2236
 30
0.000000
  70
    32
  0
VERTEX
  8
0
  5
28FE
 10
0.0893830
 20
31.2242
 30
0.000000
  70
    32
  0
VERTEX
  8
0
  5
28FF
 10
0.0901834
 20
31.2247
 30
0.000000
  70
    32
  0
VERTEX
  8
0
  5
2900
 10
0.0909863
 20
31.2252
 30
0.000000
  70
    32
  0
VERTEX
  8
0
  5
2901
 10
0.0917917
 20
31.2257
 30
0.000000
  70
    32
  0
VERTEX
  8
0
  5
2902
 10
0.0925996
 20
31.2262
 30
0.000000
  70
    32
  0
VERTEX
  8
0
  5
2903
 10
0.0934099
 20
31.2267
 30
0.000000
  70
    32
  0
VERTEX
  8
0
  5
2904
 10
0.0942226
 20
31.2272
 30
0.000000
  70
    32
  0
VERTEX
  8
0
  5
2905
 10
0.0950377
 20
31.2277
 30
0.000000
  70
    32
  0
VERTEX
  8
0
  5
2906
 10
0.0958552
 20
31.2282
 30
0.000000
  70
    32
  0
VERTEX
  8
0
  5
2907
 10
0.0966750
 20
31.2287
 30
0.000000
  70
    32
  0
VERTEX
  8
0
  5
2908
 10
0.0974972
 20
31.2292
 30
0.000000
  70
    32
  0
VERTEX
  8
0
  5
2909
 10
0.0983217
 20
31.2297
 30
0.000000
  70
    32
  0
VERTEX
  8
0
  5
290A
 10
0.0991486
 20
31.2301
 30
0.000000
  70
    32
  0
VERTEX
  8
0
  5
290B
 10
0.0999777
 20
31.2306
 30
0.000000
  70
    32
  0
VERTEX
  8
0
  5
290C
 10
0.100809
 20
31.2311
 30
0.000000
  70
    32
  0
VERTEX
  8
0
  5
290D
 10
0.101643
 20
31.2315
 30
0.000000
  70
    32
  0
VERTEX
  8
0
  5
290E
 10
0.102479
 20
31.2320
 30
0.000000
  70
    32
  0
VERTEX
  8
0
  5
290F
 10
0.103317
 20
31.2324
 30
0.000000
  70
    32
  0
VERTEX
  8
0
  5
2910
 10
0.104157
 20
31.2329
 30
0.000000
  70
    32
  0
VERTEX
  8
0
  5
2911
 10
0.104999
 20
31.2333
 30
0.000000
  70
    32
  0
VERTEX
  8
0
  5
2912
 10
0.105844
 20
31.2338
 30
0.000000
  70
    32
  0
VERTEX
  8
0
  5
2913
 10
0.106691
 20
31.2342
 30
0.000000
  70
    32
  0
VERTEX
  8
0
  5
2914
 10
0.107539
 20
31.2347
 30
0.000000
  70
    32
  0
VERTEX
  8
0
  5
2915
 10
0.108390
 20
31.2351
 30
0.000000
  70
    32
  0
VERTEX
  8
0
  5
2916
 10
0.109243
 20
31.2355
 30
0.000000
  70
    32
  0
VERTEX
  8
0
  5
2917
 10
0.110098
 20
31.2359
 30
0.000000
  70
    32
  0
VERTEX
  8
0
  5
2918
 10
0.110955
 20
31.2364
 30
0.000000
  70
    32
  0
VERTEX
  8
0
  5
2919
 10
0.111815
 20
31.2368
 30
0.000000
  70
    32
  0
VERTEX
  8
0
  5
291A
 10
0.112676
 20
31.2372
 30
0.000000
  70
    32
  0
VERTEX
  8
0
  5
291B
 10
0.113539
 20
31.2376
 30
0.000000
  70
    32
  0
VERTEX
  8
0
  5
291C
 10
0.114404
 20
31.2380
 30
0.000000
  70
    32
  0
VERTEX
  8
0
  5
291D
 10
0.115271
 20
31.2384
 30
0.000000
  70
    32
  0
VERTEX
  8
0
  5
291E
 10
0.116140
 20
31.2388
 30
0.000000
  70
    32
  0
VERTEX
  8
0
  5
291F
 10
0.117010
 20
31.2392
 30
0.000000
  70
    32
  0
VERTEX
  8
0
  5
2920
 10
0.117883
 20
31.2396
 30
0.000000
  70
    32
  0
VERTEX
  8
0
  5
2921
 10
0.118758
 20
31.2399
 30
0.000000
  70
    32
  0
VERTEX
  8
0
  5
2922
 10
0.119634
 20
31.2403
 30
0.000000
  70
    32
  0
VERTEX
  8
0
  5
2923
 10
0.120512
 20
31.2407
 30
0.000000
  70
    32
  0
VERTEX
  8
0
  5
2924
 10
0.121392
 20
31.2411
 30
0.000000
  70
    32
  0
VERTEX
  8
0
  5
2925
 10
0.122274
 20
31.2414
 30
0.000000
  70
    32
  0
VERTEX
  8
0
  5
2926
 10
0.123157
 20
31.2418
 30
0.000000
  70
    32
  0
VERTEX
  8
0
  5
2927
 10
0.124043
 20
31.2421
 30
0.000000
  70
    32
  0
VERTEX
  8
0
  5
2928
 10
0.124929
 20
31.2425
 30
0.000000
  70
    32
  0
VERTEX
  8
0
  5
2929
 10
0.125818
 20
31.2428
 30
0.000000
  70
    32
  0
VERTEX
  8
0
  5
292A
 10
0.126708
 20
31.2432
 30
0.000000
  70
    32
  0
VERTEX
  8
0
  5
292B
 10
0.127600
 20
31.2435
 30
0.000000
  70
    32
  0
VERTEX
  8
0
  5
292C
 10
0.128494
 20
31.2439
 30
0.000000
  70
    32
  0
VERTEX
  8
0
  5
292D
 10
0.129389
 20
31.2442
 30
0.000000
  70
    32
  0
VERTEX
  8
0
  5
292E
 10
0.130286
 20
31.2445
 30
0.000000
  70
    32
  0
VERTEX
  8
0
  5
292F
 10
0.131185
 20
31.2448
 30
0.000000
  70
    32
  0
VERTEX
  8
0
  5
2930
 10
0.132085
 20
31.2451
 30
0.000000
  70
    32
  0
VERTEX
  8
0
  5
2931
 10
0.132986
 20
31.2455
 30
0.000000
  70
    32
  0
VERTEX
  8
0
  5
2932
 10
0.133889
 20
31.2458
 30
0.000000
  70
    32
  0
VERTEX
  8
0
  5
2933
 10
0.134794
 20
31.2461
 30
0.000000
  70
    32
  0
VERTEX
  8
0
  5
2934
 10
0.135700
 20
31.2464
 30
0.000000
  70
    32
  0
VERTEX
  8
0
  5
2935
 10
0.136607
 20
31.2467
 30
0.000000
  70
    32
  0
VERTEX
  8
0
  5
2936
 10
0.137516
 20
31.2470
 30
0.000000
  70
    32
  0
VERTEX
  8
0
  5
2937
 10
0.138426
 20
31.2472
 30
0.000000
  70
    32
  0
VERTEX
  8
0
  5
2938
 10
0.139338
 20
31.2475
 30
0.000000
  70
    32
  0
VERTEX
  8
0
  5
2939
 10
0.140251
 20
31.2478
 30
0.000000
  70
    32
  0
VERTEX
  8
0
  5
293A
 10
0.141166
 20
31.2481
 30
0.000000
  70
    32
  0
VERTEX
  8
0
  5
293B
 10
0.142081
 20
31.2483
 30
0.000000
  70
    32
  0
VERTEX
  8
0
  5
293C
 10
0.142999
 20
31.2486
 30
0.000000
  70
    32
  0
VERTEX
  8
0
  5
293D
 10
0.143917
 20
31.2489
 30
0.000000
  70
    32
  0
VERTEX
  8
0
  5
293E
 10
0.144837
 20
31.2491
 30
0.000000
  70
    32
  0
VERTEX
  8
0
  5
293F
 10
0.145758
 20
31.2494
 30
0.000000
  70
    32
  0
VERTEX
  8
0
  5
2940
 10
0.146680
 20
31.2496
 30
0.000000
  70
    32
  0
VERTEX
  8
0
  5
2941
 10
0.147603
 20
31.2499
 30
0.000000
  70
    32
  0
VERTEX
  8
0
  5
2942
 10
0.148528
 20
31.2501
 30
0.000000
  70
    32
  0
VERTEX
  8
0
  5
2943
 10
0.149454
 20
31.2503
 30
0.000000
  70
    32
  0
VERTEX
  8
0
  5
2944
 10
0.150381
 20
31.2505
 30
0.000000
  70
    32
  0
VERTEX
  8
0
  5
2945
 10
0.151309
 20
31.2508
 30
0.000000
  70
    32
  0
VERTEX
  8
0
  5
2946
 10
0.152238
 20
31.2510
 30
0.000000
  70
    32
  0
VERTEX
  8
0
  5
2947
 10
0.153168
 20
31.2512
 30
0.000000
  70
    32
  0
VERTEX
  8
0
  5
2948
 10
0.154099
 20
31.2514
 30
0.000000
  70
    32
  0
VERTEX
  8
0
  5
2949
 10
0.155032
 20
31.2516
 30
0.000000
  70
    32
  0
VERTEX
  8
0
  5
294A
 10
0.155965
 20
31.2518
 30
0.000000
  70
    32
  0
VERTEX
  8
0
  5
294B
 10
0.156899
 20
31.2520
 30
0.000000
  70
    32
  0
VERTEX
  8
0
  5
294C
 10
0.157835
 20
31.2522
 30
0.000000
  70
    32
  0
VERTEX
  8
0
  5
294D
 10
0.158771
 20
31.2524
 30
0.000000
  70
    32
  0
VERTEX
  8
0
  5
294E
 10
0.159708
 20
31.2526
 30
0.000000
  70
    32
  0
VERTEX
  8
0
  5
294F
 10
0.160646
 20
31.2528
 30
0.000000
  70
    32
  0
VERTEX
  8
0
  5
2950
 10
0.161585
 20
31.2529
 30
0.000000
  70
    32
  0
VERTEX
  8
0
  5
2951
 10
0.162524
 20
31.2531
 30
0.000000
  70
    32
  0
VERTEX
  8
0
  5
2952
 10
0.163465
 20
31.2533
 30
0.000000
  70
    32
  0
VERTEX
  8
0
  5
2953
 10
0.164406
 20
31.2534
 30
0.000000
  70
    32
  0
VERTEX
  8
0
  5
2954
 10
0.165348
 20
31.2536
 30
0.000000
  70
    32
  0
VERTEX
  8
0
  5
2955
 10
0.166290
 20
31.2537
 30
0.000000
  70
    32
  0
VERTEX
  8
0
  5
2956
 10
0.167233
 20
31.2539
 30
0.000000
  70
    32
  0
VERTEX
  8
0
  5
2957
 10
0.168177
 20
31.2540
 30
0.000000
  70
    32
  0
VERTEX
  8
0
  5
2958
 10
0.169122
 20
31.2542
 30
0.000000
  70
    32
  0
VERTEX
  8
0
  5
2959
 10
0.170067
 20
31.2543
 30
0.000000
  70
    32
  0
VERTEX
  8
0
  5
295A
 10
0.171013
 20
31.2544
 30
0.000000
  70
    32
  0
VERTEX
  8
0
  5
295B
 10
0.171959
 20
31.2545
 30
0.000000
  70
    32
  0
VERTEX
  8
0
  5
295C
 10
0.172906
 20
31.2547
 30
0.000000
  70
    32
  0
VERTEX
  8
0
  5
295D
 10
0.173853
 20
31.2548
 30
0.000000
  70
    32
  0
VERTEX
  8
0
  5
295E
 10
0.174801
 20
31.2549
 30
0.000000
  70
    32
  0
VERTEX
  8
0
  5
295F
 10
0.175749
 20
31.2550
 30
0.000000
  70
    32
  0
VERTEX
  8
0
  5
2960
 10
0.176698
 20
31.2551
 30
0.000000
  70
    32
  0
VERTEX
  8
0
  5
2961
 10
0.177647
 20
31.2552
 30
0.000000
  70
    32
  0
VERTEX
  8
0
  5
2962
 10
0.178596
 20
31.2553
 30
0.000000
  70
    32
  0
VERTEX
  8
0
  5
2963
 10
0.179546
 20
31.2554
 30
0.000000
  70
    32
  0
VERTEX
  8
0
  5
2964
 10
0.180496
 20
31.2554
 30
0.000000
  70
    32
  0
VERTEX
  8
0
  5
2965
 10
0.181446
 20
31.2555
 30
0.000000
  70
    32
  0
VERTEX
  8
0
  5
2966
 10
0.182397
 20
31.2556
 30
0.000000
  70
    32
  0
VERTEX
  8
0
  5
2967
 10
0.183348
 20
31.2557
 30
0.000000
  70
    32
  0
VERTEX
  8
0
  5
2968
 10
0.184299
 20
31.2557
 30
0.000000
  70
    32
  0
VERTEX
  8
0
  5
2969
 10
0.185250
 20
31.2558
 30
0.000000
  70
    32
  0
VERTEX
  8
0
  5
296A
 10
0.186202
 20
31.2558
 30
0.000000
  70
    32
  0
VERTEX
  8
0
  5
296B
 10
0.187153
 20
31.2559
 30
0.000000
  70
    32
  0
VERTEX
  8
0
  5
296C
 10
0.188105
 20
31.2559
 30
0.000000
  70
    32
  0
VERTEX
  8
0
  5
296D
 10
0.189057
 20
31.2560
 30
0.000000
  70
    32
  0
VERTEX
  8
0
  5
296E
 10
0.190008
 20
31.2560
 30
0.000000
  70
    32
  0
VERTEX
  8
0
  5
296F
 10
0.190960
 20
31.2560
 30
0.000000
  70
    32
  0
VERTEX
  8
0
  5
2970
 10
0.191912
 20
31.2561
 30
0.000000
  70
    32
  0
SEQEND
  8
0
  5
2971
  0
POLYLINE
  8
0
  5
2972
  62
7
  66
     1
 10
0.000000
 20
0.000000
 30
0.000000
  70
     8
  0
VERTEX
  8
0
  5
2973
 10
4.07502
 20
31.2572
 30
0.000000
  70
    32
  0
VERTEX
  8
0
  5
2974
 10
4.08095
 20
31.2573
 30
0.000000
  70
    32
  0
VERTEX
  8
0
  5
2975
 10
4.08689
 20
31.2574
 30
0.000000
  70
    32
  0
VERTEX
  8
0
  5
2976
 10
4.09282
 20
31.2575
 30
0.000000
  70
    32
  0
VERTEX
  8
0
  5
2977
 10
4.09876
 20
31.2576
 30
0.000000
  70
    32
  0
VERTEX
  8
0
  5
2978
 10
4.10470
 20
31.2577
 30
0.000000
  70
    32
  0
VERTEX
  8
0
  5
2979
 10
4.11063
 20
31.2578
 30
0.000000
  70
    32
  0
VERTEX
  8
0
  5
297A
 10
4.11657
 20
31.2579
 30
0.000000
  70
    32
  0
VERTEX
  8
0
  5
297B
 10
4.12250
 20
31.2580
 30
0.000000
  70
    32
  0
VERTEX
  8
0
  5
297C
 10
4.12844
 20
31.2581
 30
0.000000
  70
    32
  0
VERTEX
  8
0
  5
297D
 10
4.13438
 20
31.2582
 30
0.000000
  70
    32
  0
VERTEX
  8
0
  5
297E
 10
4.14031
 20
31.2583
 30
0.000000
  70
    32
  0
VERTEX
  8
0
  5
297F
 10
4.14625
 20
31.2584
 30
0.000000
  70
    32
  0
VERTEX
  8
0
  5
2980
 10
4.15218
 20
31.2585
 30
0.000000
  70
    32
  0
VERTEX
  8
0
  5
2981
 10
4.15812
 20
31.2586
 30
0.000000
  70
    32
  0
VERTEX
  8
0
  5
2982
 10
4.16406
 20
31.2587
 30
0.000000
  70
    32
  0
VERTEX
  8
0
  5
2983
 10
4.16999
 20
31.2588
 30
0.000000
  70
    32
  0
VERTEX
  8
0
  5
2984
 10
4.17593
 20
31.2589
 30
0.000000
  70
    32
  0
VERTEX
  8
0
  5
2985
 10
4.18186
 20
31.2590
 30
0.000000
  70
    32
  0
VERTEX
  8
0
  5
2986
 10
4.18780
 20
31.2591
 30
0.000000
  70
    32
  0
VERTEX
  8
0
  5
2987
 10
4.19373
 20
31.2592
 30
0.000000
  70
    32
  0
VERTEX
  8
0
  5
2988
 10
4.19967
 20
31.2592
 30
0.000000
  70
    32
  0
VERTEX
  8
0
  5
2989
 10
4.20561
 20
31.2593
 30
0.000000
  70
    32
  0
VERTEX
  8
0
  5
298A
 10
4.21154
 20
31.2594
 30
0.000000
  70
    32
  0
VERTEX
  8
0
  5
298B
 10
4.21748
 20
31.2595
 30
0.000000
  70
    32
  0
VERTEX
  8
0
  5
298C
 10
4.22341
 20
31.2596
 30
0.000000
  70
    32
  0
VERTEX
  8
0
  5
298D
 10
4.22935
 20
31.2597
 30
0.000000
  70
    32
  0
VERTEX
  8
0
  5
298E
 10
4.23529
 20
31.2598
 30
0.000000
  70
    32
  0
VERTEX
  8
0
  5
298F
 10
4.24122
 20
31.2599
 30
0.000000
  70
    32
  0
VERTEX
  8
0
  5
2990
 10
4.24716
 20
31.2600
 30
0.000000
  70
    32
  0
VERTEX
  8
0
  5
2991
 10
4.25310
 20
31.2601
 30
0.000000
  70
    32
  0
VERTEX
  8
0
  5
2992
 10
4.25903
 20
31.2601
 30
0.000000
  70
    32
  0
VERTEX
  8
0
  5
2993
 10
4.26497
 20
31.2602
 30
0.000000
  70
    32
  0
VERTEX
  8
0
  5
2994
 10
4.27090
 20
31.2603
 30
0.000000
  70
    32
  0
VERTEX
  8
0
  5
2995
 10
4.27684
 20
31.2604
 30
0.000000
  70
    32
  0
VERTEX
  8
0
  5
2996
 10
4.28278
 20
31.2605
 30
0.000000
  70
    32
  0
VERTEX
  8
0
  5
2997
 10
4.28871
 20
31.2606
 30
0.000000
  70
    32
  0
VERTEX
  8
0
  5
2998
 10
4.29465
 20
31.2607
 30
0.000000
  70
    32
  0
VERTEX
  8
0
  5
2999
 10
4.30058
 20
31.2607
 30
0.000000
  70
    32
  0
VERTEX
  8
0
  5
299A
 10
4.30652
 20
31.2608
 30
0.000000
  70
    32
  0
VERTEX
  8
0
  5
299B
 10
4.31246
 20
31.2609
 30
0.000000
  70
    32
  0
VERTEX
  8
0
  5
299C
 10
4.31839
 20
31.2610
 30
0.000000
  70
    32
  0
VERTEX
  8
0
  5
299D
 10
4.32433
 20
31.2611
 30
0.000000
  70
    32
  0
VERTEX
  8
0
  5
299E
 10
4.33026
 20
31.2612
 30
0.000000
  70
    32
  0
VERTEX
  8
0
  5
299F
 10
4.33620
 20
31.2612
 30
0.000000
  70
    32
  0
VERTEX
  8
0
  5
29A0
 10
4.34214
 20
31.2613
 30
0.000000
  70
    32
  0
VERTEX
  8
0
  5
29A1
 10
4.34807
 20
31.2614
 30
0.000000
  70
    32
  0
VERTEX
  8
0
  5
29A2
 10
4.35401
 20
31.2615
 30
0.000000
  70
    32
  0
VERTEX
  8
0
  5
29A3
 10
4.35995
 20
31.2616
 30
0.000000
  70
    32
  0
VERTEX
  8
0
  5
29A4
 10
4.36588
 20
31.2616
 30
0.000000
  70
    32
  0
VERTEX
  8
0
  5
29A5
 10
4.37182
 20
31.2617
 30
0.000000
  70
    32
  0
VERTEX
  8
0
  5
29A6
 10
4.37775
 20
31.2618
 30
0.000000
  70
    32
  0
VERTEX
  8
0
  5
29A7
 10
4.38369
 20
31.2619
 30
0.000000
  70
    32
  0
VERTEX
  8
0
  5
29A8
 10
4.38963
 20
31.2620
 30
0.000000
  70
    32
  0
VERTEX
  8
0
  5
29A9
 10
4.39556
 20
31.2620
 30
0.000000
  70
    32
  0
VERTEX
  8
0
  5
29AA
 10
4.40150
 20
31.2621
 30
0.000000
  70
    32
  0
VERTEX
  8
0
  5
29AB
 10
4.40743
 20
31.2622
 30
0.000000
  70
    32
  0
VERTEX
  8
0
  5
29AC
 10
4.41337
 20
31.2623
 30
0.000000
  70
    32
  0
VERTEX
  8
0
  5
29AD
 10
4.41931
 20
31.2623
 30
0.000000
  70
    32
  0
VERTEX
  8
0
  5
29AE
 10
4.42524
 20
31.2624
 30
0.000000
  70
    32
  0
VERTEX
  8
0
  5
29AF
 10
4.43118
 20
31.2625
 30
0.000000
  70
    32
  0
VERTEX
  8
0
  5
29B0
 10
4.43712
 20
31.2626
 30
0.000000
  70
    32
  0
VERTEX
  8
0
  5
29B1
 10
4.44305
 20
31.2626
 30
0.000000
  70
    32
  0
VERTEX
  8
0
  5
29B2
 10
4.44899
 20
31.2627
 30
0.000000
  70
    32
  0
VERTEX
  8
0
  5
29B3
 10
4.45492
 20
31.2628
 30
0.000000
  70
    32
  0
VERTEX
  8
0
  5
29B4
 10
4.46086
 20
31.2629
 30
0.000000
  70
    32
  0
VERTEX
  8
0
  5
29B5
 10
4.46680
 20
31.2629
 30
0.000000
  70
    32
  0
VERTEX
  8
0
  5
29B6
 10
4.47273
 20
31.2630
 30
0.000000
  70
    32
  0
VERTEX
  8
0
  5
29B7
 10
4.47867
 20
31.2631
 30
0.000000
  70
    32
  0
VERTEX
  8
0
  5
29B8
 10
4.48461
 20
31.2632
 30
0.000000
  70
    32
  0
VERTEX
  8
0
  5
29B9
 10
4.49054
 20
31.2632
 30
0.000000
  70
    32
  0
VERTEX
  8
0
  5
29BA
 10
4.49648
 20
31.2633
 30
0.000000
  70
    32
  0
VERTEX
  8
0
  5
29BB
 10
4.50241
 20
31.2634
 30
0.000000
  70
    32
  0
VERTEX
  8
0
  5
29BC
 10
4.50835
 20
31.2634
 30
0.000000
  70
    32
  0
VERTEX
  8
0
  5
29BD
 10
4.51429
 20
31.2635
 30
0.000000
  70
    32
  0
VERTEX
  8
0
  5
29BE
 10
4.52022
 20
31.2636
 30
0.000000
  70
    32
  0
VERTEX
  8
0
  5
29BF
 10
4.52616
 20
31.2637
 30
0.000000
  70
    32
  0
VERTEX
  8
0
  5
29C0
 10
4.53210
 20
31.2637
 30
0.000000
  70
    32
  0
VERTEX
  8
0
  5
29C1
 10
4.53803
 20
31.2638
 30
0.000000
  70
    32
  0
VERTEX
  8
0
  5
29C2
 10
4.54397
 20
31.2639
 30
0.000000
  70
    32
  0
VERTEX
  8
0
  5
29C3
 10
4.54990
 20
31.2639
 30
0.000000
  70
    32
  0
VERTEX
  8
0
  5
29C4
 10
4.55584
 20
31.2640
 30
0.000000
  70
    32
  0
VERTEX
  8
0
  5
29C5
 10
4.56178
 20
31.2641
 30
0.000000
  70
    32
  0
VERTEX
  8
0
  5
29C6
 10
4.56771
 20
31.2641
 30
0.000000
  70
    32
  0
VERTEX
  8
0
  5
29C7
 10
4.57365
 20
31.2642
 30
0.000000
  70
    32
  0
VERTEX
  8
0
  5
29C8
 10
4.57959
 20
31.2643
 30
0.000000
  70
    32
  0
VERTEX
  8
0
  5
29C9
 10
4.58552
 20
31.2643
 30
0.000000
  70
    32
  0
VERTEX
  8
0
  5
29CA
 10
4.59146
 20
31.2644
 30
0.000000
  70
    32
  0
VERTEX
  8
0
  5
29CB
 10
4.59740
 20
31.2645
 30
0.000000
  70
    32
  0
VERTEX
  8
0
  5
29CC
 10
4.60333
 20
31.2645
 30
0.000000
  70
    32
  0
VERTEX
  8
0
  5
29CD
 10
4.60927
 20
31.2646
 30
0.000000
  70
    32
  0
VERTEX
  8
0
  5
29CE
 10
4.61520
 20
31.2647
 30
0.000000
  70
    32
  0
VERTEX
  8
0
  5
29CF
 10
4.62114
 20
31.2647
 30
0.000000
  70
    32
  0
VERTEX
  8
0
  5
29D0
 10
4.62708
 20
31.2648
 30
0.000000
  70
    32
  0
VERTEX
  8
0
  5
29D1
 10
4.63301
 20
31.2649
 30
0.000000
  70
    32
  0
VERTEX
  8
0
  5
29D2
 10
4.63895
 20
31.2649
 30
0.000000
  70
    32
  0
VERTEX
  8
0
  5
29D3
 10
4.64489
 20
31.2650
 30
0.000000
  70
    32
  0
VERTEX
  8
0
  5
29D4
 10
4.65082
 20
31.2651
 30
0.000000
  70
    32
  0
VERTEX
  8
0
  5
29D5
 10
4.65676
 20
31.2651
 30
0.000000
  70
    32
  0
VERTEX
  8
0
  5
29D6
 10
4.66270
 20
31.2652
 30
0.000000
  70
    32
  0
VERTEX
  8
0
  5
29D7
 10
4.66863
 20
31.2653
 30
0.000000
  70
    32
  0
VERTEX
  8
0
  5
29D8
 10
4.67457
 20
31.2653
 30
0.000000
  70
    32
  0
VERTEX
  8
0
  5
29D9
 10
4.68050
 20
31.2654
 30
0.000000
  70
    32
  0
VERTEX
  8
0
  5
29DA
 10
4.68644
 20
31.2654
 30
0.000000
  70
    32
  0
VERTEX
  8
0
  5
29DB
 10
4.69238
 20
31.2655
 30
0.000000
  70
    32
  0
VERTEX
  8
0
  5
29DC
 10
4.69831
 20
31.2656
 30
0.000000
  70
    32
  0
VERTEX
  8
0
  5
29DD
 10
4.70425
 20
31.2656
 30
0.000000
  70
    32
  0
VERTEX
  8
0
  5
29DE
 10
4.71019
 20
31.2657
 30
0.000000
  70
    32
  0
VERTEX
  8
0
  5
29DF
 10
4.71612
 20
31.2657
 30
0.000000
  70
    32
  0
VERTEX
  8
0
  5
29E0
 10
4.72206
 20
31.2658
 30
0.000000
  70
    32
  0
VERTEX
  8
0
  5
29E1
 10
4.72800
 20
31.2659
 30
0.000000
  70
    32
  0
VERTEX
  8
0
  5
29E2
 10
4.73393
 20
31.2659
 30
0.000000
  70
    32
  0
VERTEX
  8
0
  5
29E3
 10
4.73987
 20
31.2660
 30
0.000000
  70
    32
  0
VERTEX
  8
0
  5
29E4
 10
4.74580
 20
31.2660
 30
0.000000
  70
    32
  0
VERTEX
  8
0
  5
29E5
 10
4.75174
 20
31.2661
 30
0.000000
  70
    32
  0
VERTEX
  8
0
  5
29E6
 10
4.75768
 20
31.2662
 30
0.000000
  70
    32
  0
VERTEX
  8
0
  5
29E7
 10
4.76361
 20
31.2662
 30
0.000000
  70
    32
  0
VERTEX
  8
0
  5
29E8
 10
4.76955
 20
31.2663
 30
0.000000
  70
    32
  0
VERTEX
  8
0
  5
29E9
 10
4.77549
 20
31.2663
 30
0.000000
  70
    32
  0
VERTEX
  8
0
  5
29EA
 10
4.78142
 20
31.2664
 30
0.000000
  70
    32
  0
VERTEX
  8
0
  5
29EB
 10
4.78736
 20
31.2665
 30
0.000000
  70
    32
  0
VERTEX
  8
0
  5
29EC
 10
4.79330
 20
31.2665
 30
0.000000
  70
    32
  0
VERTEX
  8
0
  5
29ED
 10
4.79923
 20
31.2666
 30
0.000000
  70
    32
  0
VERTEX
  8
0
  5
29EE
 10
4.80517
 20
31.2666
 30
0.000000
  70
    32
  0
VERTEX
  8
0
  5
29EF
 10
4.81111
 20
31.2667
 30
0.000000
  70
    32
  0
VERTEX
  8
0
  5
29F0
 10
4.81704
 20
31.2667
 30
0.000000
  70
    32
  0
VERTEX
  8
0
  5
29F1
 10
4.82298
 20
31.2668
 30
0.000000
  70
    32
  0
VERTEX
  8
0
  5
29F2
 10
4.82891
 20
31.2668
 30
0.000000
  70
    32
  0
VERTEX
  8
0
  5
29F3
 10
4.83485
 20
31.2669
 30
0.000000
  70
    32
  0
VERTEX
  8
0
  5
29F4
 10
4.84079
 20
31.2670
 30
0.000000
  70
    32
  0
VERTEX
  8
0
  5
29F5
 10
4.84672
 20
31.2670
 30
0.000000
  70
    32
  0
VERTEX
  8
0
  5
29F6
 10
4.85266
 20
31.2671
 30
0.000000
  70
    32
  0
VERTEX
  8
0
  5
29F7
 10
4.85860
 20
31.2671
 30
0.000000
  70
    32
  0
VERTEX
  8
0
  5
29F8
 10
4.86453
 20
31.2672
 30
0.000000
  70
    32
  0
VERTEX
  8
0
  5
29F9
 10
4.87047
 20
31.2672
 30
0.000000
  70
    32
  0
VERTEX
  8
0
  5
29FA
 10
4.87641
 20
31.2673
 30
0.000000
  70
    32
  0
VERTEX
  8
0
  5
29FB
 10
4.88234
 20
31.2673
 30
0.000000
  70
    32
  0
VERTEX
  8
0
  5
29FC
 10
4.88828
 20
31.2674
 30
0.000000
  70
    32
  0
VERTEX
  8
0
  5
29FD
 10
4.89422
 20
31.2674
 30
0.000000
  70
    32
  0
VERTEX
  8
0
  5
29FE
 10
4.90015
 20
31.2675
 30
0.000000
  70
    32
  0
VERTEX
  8
0
  5
29FF
 10
4.90609
 20
31.2675
 30
0.000000
  70
    32
  0
VERTEX
  8
0
  5
2A00
 10
4.91202
 20
31.2676
 30
0.000000
  70
    32
  0
VERTEX
  8
0
  5
2A01
 10
4.91796
 20
31.2677
 30
0.000000
  70
    32
  0
VERTEX
  8
0
  5
2A02
 10
4.92390
 20
31.2677
 30
0.000000
  70
    32
  0
VERTEX
  8
0
  5
2A03
 10
4.92983
 20
31.2678
 30
0.000000
  70
    32
  0
VERTEX
  8
0
  5
2A04
 10
4.93577
 20
31.2678
 30
0.000000
  70
    32
  0
VERTEX
  8
0
  5
2A05
 10
4.94171
 20
31.2679
 30
0.000000
  70
    32
  0
VERTEX
  8
0
  5
2A06
 10
4.94764
 20
31.2679
 30
0.000000
  70
    32
  0
VERTEX
  8
0
  5
2A07
 10
4.95358
 20
31.2680
 30
0.000000
  70
    32
  0
VERTEX
  8
0
  5
2A08
 10
4.95952
 20
31.2680
 30
0.000000
  70
    32
  0
VERTEX
  8
0
  5
2A09
 10
4.96545
 20
31.2681
 30
0.000000
  70
    32
  0
VERTEX
  8
0
  5
2A0A
 10
4.97139
 20
31.2681
 30
0.000000
  70
    32
  0
VERTEX
  8
0
  5
2A0B
 10
4.97733
 20
31.2682
 30
0.000000
  70
    32
  0
VERTEX
  8
0
  5
2A0C
 10
4.98326
 20
31.2682
 30
0.000000
  70
    32
  0
VERTEX
  8
0
  5
2A0D
 10
4.98920
 20
31.2683
 30
0.000000
  70
    32
  0
VERTEX
  8
0
  5
2A0E
 10
4.99514
 20
31.2683
 30
0.000000
  70
    32
  0
VERTEX
  8
0
  5
2A0F
 10
5.00107
 20
31.2684
 30
0.000000
  70
    32
  0
VERTEX
  8
0
  5
2A10
 10
5.00701
 20
31.2684
 30
0.000000
  70
    32
  0
VERTEX
  8
0
  5
2A11
 10
5.01294
 20
31.2685
 30
0.000000
  70
    32
  0
VERTEX
  8
0
  5
2A12
 10
5.01888
 20
31.2685
 30
0.000000
  70
    32
  0
VERTEX
  8
0
  5
2A13
 10
5.02482
 20
31.2686
 30
0.000000
  70
    32
  0
VERTEX
  8
0
  5
2A14
 10
5.03075
 20
31.2686
 30
0.000000
  70
    32
  0
VERTEX
  8
0
  5
2A15
 10
5.03669
 20
31.2687
 30
0.000000
  70
    32
  0
VERTEX
  8
0
  5
2A16
 10
5.04263
 20
31.2687
 30
0.000000
  70
    32
  0
VERTEX
  8
0
  5
2A17
 10
5.04856
 20
31.2687
 30
0.000000
  70
    32
  0
VERTEX
  8
0
  5
2A18
 10
5.05450
 20
31.2688
 30
0.000000
  70
    32
  0
VERTEX
  8
0
  5
2A19
 10
5.06044
 20
31.2688
 30
0.000000
  70
    32
  0
VERTEX
  8
0
  5
2A1A
 10
5.06637
 20
31.2689
 30
0.000000
  70
    32
  0
VERTEX
  8
0
  5
2A1B
 10
5.07231
 20
31.2689
 30
0.000000
  70
    32
  0
VERTEX
  8
0
  5
2A1C
 10
5.07825
 20
31.2690
 30
0.000000
  70
    32
  0
VERTEX
  8
0
  5
2A1D
 10
5.08418
 20
31.2690
 30
0.000000
  70
    32
  0
VERTEX
  8
0
  5
2A1E
 10
5.09012
 20
31.2691
 30
0.000000
  70
    32
  0
VERTEX
  8
0
  5
2A1F
 10
5.09606
 20
31.2691
 30
0.000000
  70
    32
  0
VERTEX
  8
0
  5
2A20
 10
5.10199
 20
31.2692
 30
0.000000
  70
    32
  0
VERTEX
  8
0
  5
2A21
 10
5.10793
 20
31.2692
 30
0.000000
  70
    32
  0
VERTEX
  8
0
  5
2A22
 10
5.11387
 20
31.2693
 30
0.000000
  70
    32
  0
VERTEX
  8
0
  5
2A23
 10
5.11980
 20
31.2693
 30
0.000000
  70
    32
  0
VERTEX
  8
0
  5
2A24
 10
5.12574
 20
31.2693
 30
0.000000
  70
    32
  0
VERTEX
  8
0
  5
2A25
 10
5.13168
 20
31.2694
 30
0.000000
  70
    32
  0
VERTEX
  8
0
  5
2A26
 10
5.13761
 20
31.2694
 30
0.000000
  70
    32
  0
VERTEX
  8
0
  5
2A27
 10
5.14355
 20
31.2695
 30
0.000000
  70
    32
  0
VERTEX
  8
0
  5
2A28
 10
5.14948
 20
31.2695
 30
0.000000
  70
    32
  0
VERTEX
  8
0
  5
2A29
 10
5.15542
 20
31.2696
 30
0.000000
  70
    32
  0
VERTEX
  8
0
  5
2A2A
 10
5.16136
 20
31.2696
 30
0.000000
  70
    32
  0
VERTEX
  8
0
  5
2A2B
 10
5.16729
 20
31.2697
 30
0.000000
  70
    32
  0
VERTEX
  8
0
  5
2A2C
 10
5.17323
 20
31.2697
 30
0.000000
  70
    32
  0
VERTEX
  8
0
  5
2A2D
 10
5.17917
 20
31.2697
 30
0.000000
  70
    32
  0
VERTEX
  8
0
  5
2A2E
 10
5.18510
 20
31.2698
 30
0.000000
  70
    32
  0
VERTEX
  8
0
  5
2A2F
 10
5.19104
 20
31.2698
 30
0.000000
  70
    32
  0
VERTEX
  8
0
  5
2A30
 10
5.19698
 20
31.2699
 30
0.000000
  70
    32
  0
VERTEX
  8
0
  5
2A31
 10
5.20291
 20
31.2699
 30
0.000000
  70
    32
  0
VERTEX
  8
0
  5
2A32
 10
5.20885
 20
31.2700
 30
0.000000
  70
    32
  0
VERTEX
  8
0
  5
2A33
 10
5.21479
 20
31.2700
 30
0.000000
  70
    32
  0
VERTEX
  8
0
  5
2A34
 10
5.22072
 20
31.2700
 30
0.000000
  70
    32
  0
VERTEX
  8
0
  5
2A35
 10
5.22666
 20
31.2701
 30
0.000000
  70
    32
  0
VERTEX
  8
0
  5
2A36
 10
5.23260
 20
31.2701
 30
0.000000
  70
    32
  0
VERTEX
  8
0
  5
2A37
 10
5.23853
 20
31.2702
 30
0.000000
  70
    32
  0
VERTEX
  8
0
  5
2A38
 10
5.24447
 20
31.2702
 30
0.000000
  70
    32
  0
VERTEX
  8
0
  5
2A39
 10
5.25041
 20
31.2703
 30
0.000000
  70
    32
  0
VERTEX
  8
0
  5
2A3A
 10
5.25634
 20
31.2703
 30
0.000000
  70
    32
  0
VERTEX
  8
0
  5
2A3B
 10
5.26228
 20
31.2703
 30
0.000000
  70
    32
  0
VERTEX
  8
0
  5
2A3C
 10
5.26822
 20
31.2704
 30
0.000000
  70
    32
  0
VERTEX
  8
0
  5
2A3D
 10
5.27415
 20
31.2704
 30
0.000000
  70
    32
  0
VERTEX
  8
0
  5
2A3E
 10
5.28009
 20
31.2705
 30
0.000000
  70
    32
  0
VERTEX
  8
0
  5
2A3F
 10
5.28603
 20
31.2705
 30
0.000000
  70
    32
  0
VERTEX
  8
0
  5
2A40
 10
5.29196
 20
31.2705
 30
0.000000
  70
    32
  0
VERTEX
  8
0
  5
2A41
 10
5.29790
 20
31.2706
 30
0.000000
  70
    32
  0
VERTEX
  8
0
  5
2A42
 10
5.30383
 20
31.2706
 30
0.000000
  70
    32
  0
VERTEX
  8
0
  5
2A43
 10
5.30977
 20
31.2707
 30
0.000000
  70
    32
  0
VERTEX
  8
0
  5
2A44
 10
5.31571
 20
31.2707
 30
0.000000
  70
    32
  0
VERTEX
  8
0
  5
2A45
 10
5.32164
 20
31.2707
 30
0.000000
  70
    32
  0
VERTEX
  8
0
  5
2A46
 10
5.32758
 20
31.2708
 30
0.000000
  70
    32
  0
VERTEX
  8
0
  5
2A47
 10
5.33352
 20
31.2708
 30
0.000000
  70
    32
  0
VERTEX
  8
0
  5
2A48
 10
5.33945
 20
31.2709
 30
0.000000
  70
    32
  0
VERTEX
  8
0
  5
2A49
 10
5.34539
 20
31.2709
 30
0.000000
  70
    32
  0
VERTEX
  8
0
  5
2A4A
 10
5.35133
 20
31.2709
 30
0.000000
  70
    32
  0
VERTEX
  8
0
  5
2A4B
 10
5.35726
 20
31.2710
 30
0.000000
  70
    32
  0
VERTEX
  8
0
  5
2A4C
 10
5.36320
 20
31.2710
 30
0.000000
  70
    32
  0
VERTEX
  8
0
  5
2A4D
 10
5.36914
 20
31.2711
 30
0.000000
  70
    32
  0
VERTEX
  8
0
  5
2A4E
 10
5.37507
 20
31.2711
 30
0.000000
  70
    32
  0
VERTEX
  8
0
  5
2A4F
 10
5.38101
 20
31.2711
 30
0.000000
  70
    32
  0
VERTEX
  8
0
  5
2A50
 10
5.38695
 20
31.2712
 30
0.000000
  70
    32
  0
VERTEX
  8
0
  5
2A51
 10
5.39288
 20
31.2712
 30
0.000000
  70
    32
  0
VERTEX
  8
0
  5
2A52
 10
5.39882
 20
31.2712
 30
0.000000
  70
    32
  0
VERTEX
  8
0
  5
2A53
 10
5.40476
 20
31.2713
 30
0.000000
  70
    32
  0
VERTEX
  8
0
  5
2A54
 10
5.41069
 20
31.2713
 30
0.000000
  70
    32
  0
VERTEX
  8
0
  5
2A55
 10
5.41663
 20
31.2714
 30
0.000000
  70
    32
  0
VERTEX
  8
0
  5
2A56
 10
5.42257
 20
31.2714
 30
0.000000
  70
    32
  0
VERTEX
  8
0
  5
2A57
 10
5.42850
 20
31.2714
 30
0.000000
  70
    32
  0
VERTEX
  8
0
  5
2A58
 10
5.43444
 20
31.2715
 30
0.000000
  70
    32
  0
VERTEX
  8
0
  5
2A59
 10
5.44038
 20
31.2715
 30
0.000000
  70
    32
  0
VERTEX
  8
0
  5
2A5A
 10
5.44631
 20
31.2715
 30
0.000000
  70
    32
  0
VERTEX
  8
0
  5
2A5B
 10
5.45225
 20
31.2716
 30
0.000000
  70
    32
  0
VERTEX
  8
0
  5
2A5C
 10
5.45819
 20
31.2716
 30
0.000000
  70
    32
  0
VERTEX
  8
0
  5
2A5D
 10
5.46412
 20
31.2716
 30
0.000000
  70
    32
  0
VERTEX
  8
0
  5
2A5E
 10
5.47006
 20
31.2717
 30
0.000000
  70
    32
  0
VERTEX
  8
0
  5
2A5F
 10
5.47600
 20
31.2717
 30
0.000000
  70
    32
  0
VERTEX
  8
0
  5
2A60
 10
5.48193
 20
31.2718
 30
0.000000
  70
    32
  0
VERTEX
  8
0
  5
2A61
 10
5.48787
 20
31.2718
 30
0.000000
  70
    32
  0
VERTEX
  8
0
  5
2A62
 10
5.49381
 20
31.2718
 30
0.000000
  70
    32
  0
VERTEX
  8
0
  5
2A63
 10
5.49974
 20
31.2719
 30
0.000000
  70
    32
  0
VERTEX
  8
0
  5
2A64
 10
5.50568
 20
31.2719
 30
0.000000
  70
    32
  0
VERTEX
  8
0
  5
2A65
 10
5.51162
 20
31.2719
 30
0.000000
  70
    32
  0
VERTEX
  8
0
  5
2A66
 10
5.51755
 20
31.2720
 30
0.000000
  70
    32
  0
VERTEX
  8
0
  5
2A67
 10
5.52349
 20
31.2720
 30
0.000000
  70
    32
  0
VERTEX
  8
0
  5
2A68
 10
5.52942
 20
31.2720
 30
0.000000
  70
    32
  0
VERTEX
  8
0
  5
2A69
 10
5.53536
 20
31.2721
 30
0.000000
  70
    32
  0
VERTEX
  8
0
  5
2A6A
 10
5.54130
 20
31.2721
 30
0.000000
  70
    32
  0
VERTEX
  8
0
  5
2A6B
 10
5.54723
 20
31.2721
 30
0.000000
  70
    32
  0
VERTEX
  8
0
  5
2A6C
 10
5.55317
 20
31.2722
 30
0.000000
  70
    32
  0
VERTEX
  8
0
  5
2A6D
 10
5.55911
 20
31.2722
 30
0.000000
  70
    32
  0
VERTEX
  8
0
  5
2A6E
 10
5.56504
 20
31.2722
 30
0.000000
  70
    32
  0
VERTEX
  8
0
  5
2A6F
 10
5.57098
 20
31.2723
 30
0.000000
  70
    32
  0
VERTEX
  8
0
  5
2A70
 10
5.57692
 20
31.2723
 30
0.000000
  70
    32
  0
VERTEX
  8
0
  5
2A71
 10
5.58285
 20
31.2723
 30
0.000000
  70
    32
  0
VERTEX
  8
0
  5
2A72
 10
5.58879
 20
31.2724
 30
0.000000
  70
    32
  0
VERTEX
  8
0
  5
2A73
 10
5.59473
 20
31.2724
 30
0.000000
  70
    32
  0
VERTEX
  8
0
  5
2A74
 10
5.60066
 20
31.2724
 30
0.000000
  70
    32
  0
VERTEX
  8
0
  5
2A75
 10
5.60660
 20
31.2725
 30
0.000000
  70
    32
  0
VERTEX
  8
0
  5
2A76
 10
5.61254
 20
31.2725
 30
0.000000
  70
    32
  0
VERTEX
  8
0
  5
2A77
 10
5.61847
 20
31.2725
 30
0.000000
  70
    32
  0
VERTEX
  8
0
  5
2A78
 10
5.62441
 20
31.2726
 30
0.000000
  70
    32
  0
VERTEX
  8
0
  5
2A79
 10
5.63035
 20
31.2726
 30
0.000000
  70
    32
  0
VERTEX
  8
0
  5
2A7A
 10
5.63628
 20
31.2726
 30
0.000000
  70
    32
  0
VERTEX
  8
0
  5
2A7B
 10
5.64222
 20
31.2727
 30
0.000000
  70
    32
  0
VERTEX
  8
0
  5
2A7C
 10
5.64816
 20
31.2727
 30
0.000000
  70
    32
  0
VERTEX
  8
0
  5
2A7D
 10
5.65409
 20
31.2727
 30
0.000000
  70
    32
  0
VERTEX
  8
0
  5
2A7E
 10
5.66003
 20
31.2728
 30
0.000000
  70
    32
  0
VERTEX
  8
0
  5
2A7F
 10
5.66597
 20
31.2728
 30
0.000000
  70
    32
  0
VERTEX
  8
0
  5
2A80
 10
5.67190
 20
31.2728
 30
0.000000
  70
    32
  0
VERTEX
  8
0
  5
2A81
 10
5.67784
 20
31.2729
 30
0.000000
  70
    32
  0
VERTEX
  8
0
  5
2A82
 10
5.68378
 20
31.2729
 30
0.000000
  70
    32
  0
VERTEX
  8
0
  5
2A83
 10
5.68971
 20
31.2729
 30
0.000000
  70
    32
  0
VERTEX
  8
0
  5
2A84
 10
5.69565
 20
31.2730
 30
0.000000
  70
    32
  0
VERTEX
  8
0
  5
2A85
 10
5.70159
 20
31.2730
 30
0.000000
  70
    32
  0
VERTEX
  8
0
  5
2A86
 10
5.70752
 20
31.2730
 30
0.000000
  70
    32
  0
VERTEX
  8
0
  5
2A87
 10
5.71346
 20
31.2731
 30
0.000000
  70
    32
  0
VERTEX
  8
0
  5
2A88
 10
5.71940
 20
31.2731
 30
0.000000
  70
    32
  0
VERTEX
  8
0
  5
2A89
 10
5.72533
 20
31.2731
 30
0.000000
  70
    32
  0
VERTEX
  8
0
  5
2A8A
 10
5.73127
 20
31.2731
 30
0.000000
  70
    32
  0
VERTEX
  8
0
  5
2A8B
 10
5.73721
 20
31.2732
 30
0.000000
  70
    32
  0
VERTEX
  8
0
  5
2A8C
 10
5.74314
 20
31.2732
 30
0.000000
  70
    32
  0
VERTEX
  8
0
  5
2A8D
 10
5.74908
 20
31.2732
 30
0.000000
  70
    32
  0
VERTEX
  8
0
  5
2A8E
 10
5.75502
 20
31.2733
 30
0.000000
  70
    32
  0
VERTEX
  8
0
  5
2A8F
 10
5.76095
 20
31.2733
 30
0.000000
  70
    32
  0
VERTEX
  8
0
  5
2A90
 10
5.76689
 20
31.2733
 30
0.000000
  70
    32
  0
VERTEX
  8
0
  5
2A91
 10
5.77283
 20
31.2734
 30
0.000000
  70
    32
  0
VERTEX
  8
0
  5
2A92
 10
5.77876
 20
31.2734
 30
0.000000
  70
    32
  0
VERTEX
  8
0
  5
2A93
 10
5.78470
 20
31.2734
 30
0.000000
  70
    32
  0
VERTEX
  8
0
  5
2A94
 10
5.79064
 20
31.2735
 30
0.000000
  70
    32
  0
VERTEX
  8
0
  5
2A95
 10
5.79657
 20
31.2735
 30
0.000000
  70
    32
  0
VERTEX
  8
0
  5
2A96
 10
5.80251
 20
31.2735
 30
0.000000
  70
    32
  0
VERTEX
  8
0
  5
2A97
 10
5.80845
 20
31.2735
 30
0.000000
  70
    32
  0
VERTEX
  8
0
  5
2A98
 10
5.81438
 20
31.2736
 30
0.000000
  70
    32
  0
VERTEX
  8
0
  5
2A99
 10
5.82032
 20
31.2736
 30
0.000000
  70
    32
  0
VERTEX
  8
0
  5
2A9A
 10
5.82626
 20
31.2736
 30
0.000000
  70
    32
  0
VERTEX
  8
0
  5
2A9B
 10
5.83219
 20
31.2737
 30
0.000000
  70
    32
  0
VERTEX
  8
0
  5
2A9C
 10
5.83813
 20
31.2737
 30
0.000000
  70
    32
  0
VERTEX
  8
0
  5
2A9D
 10
5.84407
 20
31.2737
 30
0.000000
  70
    32
  0
VERTEX
  8
0
  5
2A9E
 10
5.85000
 20
31.2737
 30
0.000000
  70
    32
  0
VERTEX
  8
0
  5
2A9F
 10
5.85594
 20
31.2738
 30
0.000000
  70
    32
  0
VERTEX
  8
0
  5
2AA0
 10
5.86188
 20
31.2738
 30
0.000000
  70
    32
  0
VERTEX
  8
0
  5
2AA1
 10
5.86781
 20
31.2738
 30
0.000000
  70
    32
  0
VERTEX
  8
0
  5
2AA2
 10
5.87375
 20
31.2739
 30
0.000000
  70
    32
  0
VERTEX
  8
0
  5
2AA3
 10
5.87968
 20
31.2739
 30
0.000000
  70
    32
  0
VERTEX
  8
0
  5
2AA4
 10
5.88562
 20
31.2739
 30
0.000000
  70
    32
  0
VERTEX
  8
0
  5
2AA5
 10
5.89156
 20
31.2739
 30
0.000000
  70
    32
  0
VERTEX
  8
0
  5
2AA6
 10
5.89749
 20
31.2740
 30
0.000000
  70
    32
  0
VERTEX
  8
0
  5
2AA7
 10
5.90343
 20
31.2740
 30
0.000000
  70
    32
  0
VERTEX
  8
0
  5
2AA8
 10
5.90937
 20
31.2740
 30
0.000000
  70
    32
  0
VERTEX
  8
0
  5
2AA9
 10
5.91530
 20
31.2741
 30
0.000000
  70
    32
  0
VERTEX
  8
0
  5
2AAA
 10
5.92124
 20
31.2741
 30
0.000000
  70
    32
  0
VERTEX
  8
0
  5
2AAB
 10
5.92718
 20
31.2741
 30
0.000000
  70
    32
  0
VERTEX
  8
0
  5
2AAC
 10
5.93311
 20
31.2741
 30
0.000000
  70
    32
  0
VERTEX
  8
0
  5
2AAD
 10
5.93905
 20
31.2742
 30
0.000000
  70
    32
  0
VERTEX
  8
0
  5
2AAE
 10
5.94499
 20
31.2742
 30
0.000000
  70
    32
  0
VERTEX
  8
0
  5
2AAF
 10
5.95092
 20
31.2742
 30
0.000000
  70
    32
  0
VERTEX
  8
0
  5
2AB0
 10
5.95686
 20
31.2742
 30
0.000000
  70
    32
  0
VERTEX
  8
0
  5
2AB1
 10
5.96280
 20
31.2743
 30
0.000000
  70
    32
  0
VERTEX
  8
0
  5
2AB2
 10
5.96873
 20
31.2743
 30
0.000000
  70
    32
  0
VERTEX
  8
0
  5
2AB3
 10
5.97467
 20
31.2743
 30
0.000000
  70
    32
  0
VERTEX
  8
0
  5
2AB4
 10
5.98061
 20
31.2744
 30
0.000000
  70
    32
  0
VERTEX
  8
0
  5
2AB5
 10
5.98654
 20
31.2744
 30
0.000000
  70
    32
  0
VERTEX
  8
0
  5
2AB6
 10
5.99248
 20
31.2744
 30
0.000000
  70
    32
  0
VERTEX
  8
0
  5
2AB7
 10
5.99842
 20
31.2744
 30
0.000000
  70
    32
  0
VERTEX
  8
0
  5
2AB8
 10
6.00435
 20
31.2745
 30
0.000000
  70
    32
  0
VERTEX
  8
0
  5
2AB9
 10
6.01029
 20
31.2745
 30
0.000000
  70
    32
  0
VERTEX
  8
0
  5
2ABA
 10
6.01623
 20
31.2745
 30
0.000000
  70
    32
  0
VERTEX
  8
0
  5
2ABB
 10
6.02216
 20
31.2745
 30
0.000000
  70
    32
  0
VERTEX
  8
0
  5
2ABC
 10
6.02810
 20
31.2746
 30
0.000000
  70
    32
  0
VERTEX
  8
0
  5
2ABD
 10
6.03404
 20
31.2746
 30
0.000000
  70
    32
  0
VERTEX
  8
0
  5
2ABE
 10
6.03997
 20
31.2746
 30
0.000000
  70
    32
  0
VERTEX
  8
0
  5
2ABF
 10
6.04591
 20
31.2747
 30
0.000000
  70
    32
  0
VERTEX
  8
0
  5
2AC0
 10
6.05185
 20
31.2747
 30
0.000000
  70
    32
  0
VERTEX
  8
0
  5
2AC1
 10
6.05778
 20
31.2747
 30
0.000000
  70
    32
  0
VERTEX
  8
0
  5
2AC2
 10
6.06372
 20
31.2747
 30
0.000000
  70
    32
  0
VERTEX
  8
0
  5
2AC3
 10
6.06966
 20
31.2748
 30
0.000000
  70
    32
  0
VERTEX
  8
0
  5
2AC4
 10
6.07559
 20
31.2748
 30
0.000000
  70
    32
  0
VERTEX
  8
0
  5
2AC5
 10
6.08153
 20
31.2748
 30
0.000000
  70
    32
  0
VERTEX
  8
0
  5
2AC6
 10
6.08747
 20
31.2748
 30
0.000000
  70
    32
  0
VERTEX
  8
0
  5
2AC7
 10
6.09340
 20
31.2749
 30
0.000000
  70
    32
  0
VERTEX
  8
0
  5
2AC8
 10
6.09934
 20
31.2749
 30
0.000000
  70
    32
  0
VERTEX
  8
0
  5
2AC9
 10
6.10528
 20
31.2749
 30
0.000000
  70
    32
  0
VERTEX
  8
0
  5
2ACA
 10
6.11121
 20
31.2749
 30
0.000000
  70
    32
  0
VERTEX
  8
0
  5
2ACB
 10
6.11715
 20
31.2750
 30
0.000000
  70
    32
  0
VERTEX
  8
0
  5
2ACC
 10
6.12309
 20
31.2750
 30
0.000000
  70
    32
  0
VERTEX
  8
0
  5
2ACD
 10
6.12902
 20
31.2750
 30
0.000000
  70
    32
  0
VERTEX
  8
0
  5
2ACE
 10
6.13496
 20
31.2750
 30
0.000000
  70
    32
  0
VERTEX
  8
0
  5
2ACF
 10
6.14090
 20
31.2751
 30
0.000000
  70
    32
  0
VERTEX
  8
0
  5
2AD0
 10
6.14683
 20
31.2751
 30
0.000000
  70
    32
  0
VERTEX
  8
0
  5
2AD1
 10
6.15277
 20
31.2751
 30
0.000000
  70
    32
  0
VERTEX
  8
0
  5
2AD2
 10
6.15871
 20
31.2751
 30
0.000000
  70
    32
  0
VERTEX
  8
0
  5
2AD3
 10
6.16464
 20
31.2752
 30
0.000000
  70
    32
  0
VERTEX
  8
0
  5
2AD4
 10
6.17058
 20
31.2752
 30
0.000000
  70
    32
  0
VERTEX
  8
0
  5
2AD5
 10
6.17652
 20
31.2752
 30
0.000000
  70
    32
  0
VERTEX
  8
0
  5
2AD6
 10
6.18245
 20
31.2752
 30
0.000000
  70
    32
  0
VERTEX
  8
0
  5
2AD7
 10
6.18839
 20
31.2753
 30
0.000000
  70
    32
  0
VERTEX
  8
0
  5
2AD8
 10
6.19433
 20
31.2753
 30
0.000000
  70
    32
  0
VERTEX
  8
0
  5
2AD9
 10
6.20026
 20
31.2753
 30
0.000000
  70
    32
  0
VERTEX
  8
0
  5
2ADA
 10
6.20620
 20
31.2753
 30
0.000000
  70
    32
  0
VERTEX
  8
0
  5
2ADB
 10
6.21214
 20
31.2754
 30
0.000000
  70
    32
  0
VERTEX
  8
0
  5
2ADC
 10
6.21807
 20
31.2754
 30
0.000000
  70
    32
  0
VERTEX
  8
0
  5
2ADD
 10
6.22401
 20
31.2754
 30
0.000000
  70
    32
  0
VERTEX
  8
0
  5
2ADE
 10
6.22995
 20
31.2754
 30
0.000000
  70
    32
  0
VERTEX
  8
0
  5
2ADF
 10
6.23588
 20
31.2755
 30
0.000000
  70
    32
  0
VERTEX
  8
0
  5
2AE0
 10
6.24182
 20
31.2755
 30
0.000000
  70
    32
  0
VERTEX
  8
0
  5
2AE1
 10
6.24776
 20
31.2755
 30
0.000000
  70
    32
  0
VERTEX
  8
0
  5
2AE2
 10
6.25369
 20
31.2755
 30
0.000000
  70
    32
  0
VERTEX
  8
0
  5
2AE3
 10
6.25963
 20
31.2756
 30
0.000000
  70
    32
  0
VERTEX
  8
0
  5
2AE4
 10
6.26557
 20
31.2756
 30
0.000000
  70
    32
  0
VERTEX
  8
0
  5
2AE5
 10
6.27150
 20
31.2756
 30
0.000000
  70
    32
  0
VERTEX
  8
0
  5
2AE6
 10
6.27744
 20
31.2756
 30
0.000000
  70
    32
  0
VERTEX
  8
0
  5
2AE7
 10
6.28338
 20
31.2757
 30
0.000000
  70
    32
  0
VERTEX
  8
0
  5
2AE8
 10
6.28931
 20
31.2757
 30
0.000000
  70
    32
  0
VERTEX
  8
0
  5
2AE9
 10
6.29525
 20
31.2757
 30
0.000000
  70
    32
  0
VERTEX
  8
0
  5
2AEA
 10
6.30119
 20
31.2757
 30
0.000000
  70
    32
  0
VERTEX
  8
0
  5
2AEB
 10
6.30712
 20
31.2758
 30
0.000000
  70
    32
  0
VERTEX
  8
0
  5
2AEC
 10
6.31306
 20
31.2758
 30
0.000000
  70
    32
  0
VERTEX
  8
0
  5
2AED
 10
6.31900
 20
31.2758
 30
0.000000
  70
    32
  0
VERTEX
  8
0
  5
2AEE
 10
6.32493
 20
31.2758
 30
0.000000
  70
    32
  0
VERTEX
  8
0
  5
2AEF
 10
6.33087
 20
31.2758
 30
0.000000
  70
    32
  0
VERTEX
  8
0
  5
2AF0
 10
6.33681
 20
31.2759
 30
0.000000
  70
    32
  0
VERTEX
  8
0
  5
2AF1
 10
6.34274
 20
31.2759
 30
0.000000
  70
    32
  0
VERTEX
  8
0
  5
2AF2
 10
6.34868
 20
31.2759
 30
0.000000
  70
    32
  0
VERTEX
  8
0
  5
2AF3
 10
6.35462
 20
31.2759
 30
0.000000
  70
    32
  0
VERTEX
  8
0
  5
2AF4
 10
6.36055
 20
31.2760
 30
0.000000
  70
    32
  0
VERTEX
  8
0
  5
2AF5
 10
6.36649
 20
31.2760
 30
0.000000
  70
    32
  0
VERTEX
  8
0
  5
2AF6
 10
6.37243
 20
31.2760
 30
0.000000
  70
    32
  0
VERTEX
  8
0
  5
2AF7
 10
6.37836
 20
31.2760
 30
0.000000
  70
    32
  0
VERTEX
  8
0
  5
2AF8
 10
6.38430
 20
31.2761
 30
0.000000
  70
    32
  0
VERTEX
  8
0
  5
2AF9
 10
6.39024
 20
31.2761
 30
0.000000
  70
    32
  0
VERTEX
  8
0
  5
2AFA
 10
6.39617
 20
31.2761
 30
0.000000
  70
    32
  0
VERTEX
  8
0
  5
2AFB
 10
6.40211
 20
31.2761
 30
0.000000
  70
    32
  0
VERTEX
  8
0
  5
2AFC
 10
6.40805
 20
31.2761
 30
0.000000
  70
    32
  0
VERTEX
  8
0
  5
2AFD
 10
6.41398
 20
31.2762
 30
0.000000
  70
    32
  0
VERTEX
  8
0
  5
2AFE
 10
6.41992
 20
31.2762
 30
0.000000
  70
    32
  0
VERTEX
  8
0
  5
2AFF
 10
6.42586
 20
31.2762
 30
0.000000
  70
    32
  0
VERTEX
  8
0
  5
2B00
 10
6.43179
 20
31.2762
 30
0.000000
  70
    32
  0
VERTEX
  8
0
  5
2B01
 10
6.43773
 20
31.2762
 30
0.000000
  70
    32
  0
VERTEX
  8
0
  5
2B02
 10
6.44367
 20
31.2763
 30
0.000000
  70
    32
  0
VERTEX
  8
0
  5
2B03
 10
6.44960
 20
31.2763
 30
0.000000
  70
    32
  0
VERTEX
  8
0
  5
2B04
 10
6.45554
 20
31.2763
 30
0.000000
  70
    32
  0
VERTEX
  8
0
  5
2B05
 10
6.46148
 20
31.2763
 30
0.000000
  70
    32
  0
VERTEX
  8
0
  5
2B06
 10
6.46741
 20
31.2764
 30
0.000000
  70
    32
  0
VERTEX
  8
0
  5
2B07
 10
6.47335
 20
31.2764
 30
0.000000
  70
    32
  0
VERTEX
  8
0
  5
2B08
 10
6.47929
 20
31.2764
 30
0.000000
  70
    32
  0
VERTEX
  8
0
  5
2B09
 10
6.48522
 20
31.2764
 30
0.000000
  70
    32
  0
VERTEX
  8
0
  5
2B0A
 10
6.49116
 20
31.2764
 30
0.000000
  70
    32
  0
VERTEX
  8
0
  5
2B0B
 10
6.49710
 20
31.2765
 30
0.000000
  70
    32
  0
VERTEX
  8
0
  5
2B0C
 10
6.50303
 20
31.2765
 30
0.000000
  70
    32
  0
VERTEX
  8
0
  5
2B0D
 10
6.50897
 20
31.2765
 30
0.000000
  70
    32
  0
VERTEX
  8
0
  5
2B0E
 10
6.51491
 20
31.2765
 30
0.000000
  70
    32
  0
VERTEX
  8
0
  5
2B0F
 10
6.52084
 20
31.2765
 30
0.000000
  70
    32
  0
VERTEX
  8
0
  5
2B10
 10
6.52678
 20
31.2766
 30
0.000000
  70
    32
  0
VERTEX
  8
0
  5
2B11
 10
6.53272
 20
31.2766
 30
0.000000
  70
    32
  0
VERTEX
  8
0
  5
2B12
 10
6.53865
 20
31.2766
 30
0.000000
  70
    32
  0
SEQEND
  8
0
  5
2B13
  0
POLYLINE
  8
0
  5
2B14
  62
7
  66
     1
 10
0.000000
 20
0.000000
 30
0.000000
  70
     8
  0
VERTEX
  8
0
  5
2B15
 10
3.73004
 20
31.2571
 30
0.000000
  70
    32
  0
VERTEX
  8
0
  5
2B16
 10
3.73102
 20
31.2571
 30
0.000000
  70
    32
  0
VERTEX
  8
0
  5
2B17
 10
3.73201
 20
31.2571
 30
0.000000
  70
    32
  0
VERTEX
  8
0
  5
2B18
 10
3.73299
 20
31.2571
 30
0.000000
  70
    32
  0
VERTEX
  8
0
  5
2B19
 10
3.73397
 20
31.2571
 30
0.000000
  70
    32
  0
VERTEX
  8
0
  5
2B1A
 10
3.73496
 20
31.2570
 30
0.000000
  70
    32
  0
VERTEX
  8
0
  5
2B1B
 10
3.73594
 20
31.2570
 30
0.000000
  70
    32
  0
VERTEX
  8
0
  5
2B1C
 10
3.73692
 20
31.2570
 30
0.000000
  70
    32
  0
VERTEX
  8
0
  5
2B1D
 10
3.73790
 20
31.2570
 30
0.000000
  70
    32
  0
VERTEX
  8
0
  5
2B1E
 10
3.73889
 20
31.2570
 30
0.000000
  70
    32
  0
VERTEX
  8
0
  5
2B1F
 10
3.73987
 20
31.2570
 30
0.000000
  70
    32
  0
VERTEX
  8
0
  5
2B20
 10
3.74085
 20
31.2570
 30
0.000000
  70
    32
  0
VERTEX
  8
0
  5
2B21
 10
3.74183
 20
31.2570
 30
0.000000
  70
    32
  0
VERTEX
  8
0
  5
2B22
 10
3.74282
 20
31.2570
 30
0.000000
  70
    32
  0
VERTEX
  8
0
  5
2B23
 10
3.74380
 20
31.2570
 30
0.000000
  70
    32
  0
VERTEX
  8
0
  5
2B24
 10
3.74478
 20
31.2569
 30
0.000000
  70
    32
  0
VERTEX
  8
0
  5
2B25
 10
3.74577
 20
31.2569
 30
0.000000
  70
    32
  0
VERTEX
  8
0
  5
2B26
 10
3.74675
 20
31.2569
 30
0.000000
  70
    32
  0
VERTEX
  8
0
  5
2B27
 10
3.74773
 20
31.2569
 30
0.000000
  70
    32
  0
VERTEX
  8
0
  5
2B28
 10
3.74871
 20
31.2569
 30
0.000000
  70
    32
  0
VERTEX
  8
0
  5
2B29
 10
3.74970
 20
31.2569
 30
0.000000
  70
    32
  0
VERTEX
  8
0
  5
2B2A
 10
3.75068
 20
31.2569
 30
0.000000
  70
    32
  0
VERTEX
  8
0
  5
2B2B
 10
3.75166
 20
31.2569
 30
0.000000
  70
    32
  0
VERTEX
  8
0
  5
2B2C
 10
3.75265
 20
31.2569
 30
0.000000
  70
    32
  0
VERTEX
  8
0
  5
2B2D
 10
3.75363
 20
31.2569
 30
0.000000
  70
    32
  0
VERTEX
  8
0
  5
2B2E
 10
3.75461
 20
31.2569
 30
0.000000
  70
    32
  0
VERTEX
  8
0
  5
2B2F
 10
3.75559
 20
31.2568
 30
0.000000
  70
    32
  0
VERTEX
  8
0
  5
2B30
 10
3.75658
 20
31.2568
 30
0.000000
  70
    32
  0
VERTEX
  8
0
  5
2B31
 10
3.75756
 20
31.2568
 30
0.000000
  70
    32
  0
VERTEX
  8
0
  5
2B32
 10
3.75854
 20
31.2568
 30
0.000000
  70
    32
  0
VERTEX
  8
0
  5
2B33
 10
3.75953
 20
31.2568
 30
0.000000
  70
    32
  0
VERTEX
  8
0
  5
2B34
 10
3.76051
 20
31.2568
 30
0.000000
  70
    32
  0
VERTEX
  8
0
  5
2B35
 10
3.76149
 20
31.2568
 30
0.000000
  70
    32
  0
VERTEX
  8
0
  5
2B36
 10
3.76247
 20
31.2568
 30
0.000000
  70
    32
  0
VERTEX
  8
0
  5
2B37
 10
3.76346
 20
31.2568
 30
0.000000
  70
    32
  0
VERTEX
  8
0
  5
2B38
 10
3.76444
 20
31.2568
 30
0.000000
  70
    32
  0
VERTEX
  8
0
  5
2B39
 10
3.76542
 20
31.2568
 30
0.000000
  70
    32
  0
VERTEX
  8
0
  5
2B3A
 10
3.76641
 20
31.2568
 30
0.000000
  70
    32
  0
VERTEX
  8
0
  5
2B3B
 10
3.76739
 20
31.2568
 30
0.000000
  70
    32
  0
VERTEX
  8
0
  5
2B3C
 10
3.76837
 20
31.2567
 30
0.000000
  70
    32
  0
VERTEX
  8
0
  5
2B3D
 10
3.76935
 20
31.2567
 30
0.000000
  70
    32
  0
VERTEX
  8
0
  5
2B3E
 10
3.77034
 20
31.2567
 30
0.000000
  70
    32
  0
VERTEX
  8
0
  5
2B3F
 10
3.77132
 20
31.2567
 30
0.000000
  70
    32
  0
VERTEX
  8
0
  5
2B40
 10
3.77230
 20
31.2567
 30
0.000000
  70
    32
  0
VERTEX
  8
0
  5
2B41
 10
3.77329
 20
31.2567
 30
0.000000
  70
    32
  0
VERTEX
  8
0
  5
2B42
 10
3.77427
 20
31.2567
 30
0.000000
  70
    32
  0
VERTEX
  8
0
  5
2B43
 10
3.77525
 20
31.2567
 30
0.000000
  70
    32
  0
VERTEX
  8
0
  5
2B44
 10
3.77623
 20
31.2567
 30
0.000000
  70
    32
  0
VERTEX
  8
0
  5
2B45
 10
3.77722
 20
31.2567
 30
0.000000
  70
    32
  0
VERTEX
  8
0
  5
2B46
 10
3.77820
 20
31.2567
 30
0.000000
  70
    32
  0
VERTEX
  8
0
  5
2B47
 10
3.77918
 20
31.2567
 30
0.000000
  70
    32
  0
VERTEX
  8
0
  5
2B48
 10
3.78017
 20
31.2567
 30
0.000000
  70
    32
  0
VERTEX
  8
0
  5
2B49
 10
3.78115
 20
31.2567
 30
0.000000
  70
    32
  0
VERTEX
  8
0
  5
2B4A
 10
3.78213
 20
31.2566
 30
0.000000
  70
    32
  0
VERTEX
  8
0
  5
2B4B
 10
3.78311
 20
31.2566
 30
0.000000
  70
    32
  0
VERTEX
  8
0
  5
2B4C
 10
3.78410
 20
31.2566
 30
0.000000
  70
    32
  0
VERTEX
  8
0
  5
2B4D
 10
3.78508
 20
31.2566
 30
0.000000
  70
    32
  0
VERTEX
  8
0
  5
2B4E
 10
3.78606
 20
31.2566
 30
0.000000
  70
    32
  0
VERTEX
  8
0
  5
2B4F
 10
3.78704
 20
31.2566
 30
0.000000
  70
    32
  0
VERTEX
  8
0
  5
2B50
 10
3.78803
 20
31.2566
 30
0.000000
  70
    32
  0
VERTEX
  8
0
  5
2B51
 10
3.78901
 20
31.2566
 30
0.000000
  70
    32
  0
VERTEX
  8
0
  5
2B52
 10
3.78999
 20
31.2566
 30
0.000000
  70
    32
  0
VERTEX
  8
0
  5
2B53
 10
3.79098
 20
31.2566
 30
0.000000
  70
    32
  0
VERTEX
  8
0
  5
2B54
 10
3.79196
 20
31.2566
 30
0.000000
  70
    32
  0
VERTEX
  8
0
  5
2B55
 10
3.79294
 20
31.2566
 30
0.000000
  70
    32
  0
VERTEX
  8
0
  5
2B56
 10
3.79392
 20
31.2566
 30
0.000000
  70
    32
  0
VERTEX
  8
0
  5
2B57
 10
3.79491
 20
31.2566
 30
0.000000
  70
    32
  0
VERTEX
  8
0
  5
2B58
 10
3.79589
 20
31.2566
 30
0.000000
  70
    32
  0
VERTEX
  8
0
  5
2B59
 10
3.79687
 20
31.2566
 30
0.000000
  70
    32
  0
VERTEX
  8
0
  5
2B5A
 10
3.79786
 20
31.2566
 30
0.000000
  70
    32
  0
VERTEX
  8
0
  5
2B5B
 10
3.79884
 20
31.2565
 30
0.000000
  70
    32
  0
VERTEX
  8
0
  5
2B5C
 10
3.79982
 20
31.2565
 30
0.000000
  70
    32
  0
VERTEX
  8
0
  5
2B5D
 10
3.80080
 20
31.2565
 30
0.000000
  70
    32
  0
VERTEX
  8
0
  5
2B5E
 10
3.80179
 20
31.2565
 30
0.000000
  70
    32
  0
VERTEX
  8
0
  5
2B5F
 10
3.80277
 20
31.2565
 30
0.000000
  70
    32
  0
VERTEX
  8
0
  5
2B60
 10
3.80375
 20
31.2565
 30
0.000000
  70
    32
  0
VERTEX
  8
0
  5
2B61
 10
3.80474
 20
31.2565
 30
0.000000
  70
    32
  0
VERTEX
  8
0
  5
2B62
 10
3.80572
 20
31.2565
 30
0.000000
  70
    32
  0
VERTEX
  8
0
  5
2B63
 10
3.80670
 20
31.2565
 30
0.000000
  70
    32
  0
VERTEX
  8
0
  5
2B64
 10
3.80768
 20
31.2565
 30
0.000000
  70
    32
  0
VERTEX
  8
0
  5
2B65
 10
3.80867
 20
31.2565
 30
0.000000
  70
    32
  0
VERTEX
  8
0
  5
2B66
 10
3.80965
 20
31.2565
 30
0.000000
  70
    32
  0
VERTEX
  8
0
  5
2B67
 10
3.81063
 20
31.2565
 30
0.000000
  70
    32
  0
VERTEX
  8
0
  5
2B68
 10
3.81162
 20
31.2565
 30
0.000000
  70
    32
  0
VERTEX
  8
0
  5
2B69
 10
3.81260
 20
31.2565
 30
0.000000
  70
    32
  0
VERTEX
  8
0
  5
2B6A
 10
3.81358
 20
31.2565
 30
0.000000
  70
    32
  0
VERTEX
  8
0
  5
2B6B
 10
3.81456
 20
31.2565
 30
0.000000
  70
    32
  0
VERTEX
  8
0
  5
2B6C
 10
3.81555
 20
31.2565
 30
0.000000
  70
    32
  0
VERTEX
  8
0
  5
2B6D
 10
3.81653
 20
31.2565
 30
0.000000
  70
    32
  0
VERTEX
  8
0
  5
2B6E
 10
3.81751
 20
31.2564
 30
0.000000
  70
    32
  0
VERTEX
  8
0
  5
2B6F
 10
3.81850
 20
31.2564
 30
0.000000
  70
    32
  0
VERTEX
  8
0
  5
2B70
 10
3.81948
 20
31.2564
 30
0.000000
  70
    32
  0
VERTEX
  8
0
  5
2B71
 10
3.82046
 20
31.2564
 30
0.000000
  70
    32
  0
VERTEX
  8
0
  5
2B72
 10
3.82144
 20
31.2564
 30
0.000000
  70
    32
  0
VERTEX
  8
0
  5
2B73
 10
3.82243
 20
31.2564
 30
0.000000
  70
    32
  0
VERTEX
  8
0
  5
2B74
 10
3.82341
 20
31.2564
 30
0.000000
  70
    32
  0
VERTEX
  8
0
  5
2B75
 10
3.82439
 20
31.2564
 30
0.000000
  70
    32
  0
VERTEX
  8
0
  5
2B76
 10
3.82538
 20
31.2564
 30
0.000000
  70
    32
  0
VERTEX
  8
0
  5
2B77
 10
3.82636
 20
31.2564
 30
0.000000
  70
    32
  0
VERTEX
  8
0
  5
2B78
 10
3.82734
 20
31.2564
 30
0.000000
  70
    32
  0
VERTEX
  8
0
  5
2B79
 10
3.82832
 20
31.2564
 30
0.000000
  70
    32
  0
VERTEX
  8
0
  5
2B7A
 10
3.82931
 20
31.2564
 30
0.000000
  70
    32
  0
VERTEX
  8
0
  5
2B7B
 10
3.83029
 20
31.2564
 30
0.000000
  70
    32
  0
VERTEX
  8
0
  5
2B7C
 10
3.83127
 20
31.2564
 30
0.000000
  70
    32
  0
VERTEX
  8
0
  5
2B7D
 10
3.83226
 20
31.2564
 30
0.000000
  70
    32
  0
VERTEX
  8
0
  5
2B7E
 10
3.83324
 20
31.2564
 30
0.000000
  70
    32
  0
VERTEX
  8
0
  5
2B7F
 10
3.83422
 20
31.2564
 30
0.000000
  70
    32
  0
VERTEX
  8
0
  5
2B80
 10
3.83520
 20
31.2564
 30
0.000000
  70
    32
  0
VERTEX
  8
0
  5
2B81
 10
3.83619
 20
31.2564
 30
0.000000
  70
    32
  0
VERTEX
  8
0
  5
2B82
 10
3.83717
 20
31.2564
 30
0.000000
  70
    32
  0
VERTEX
  8
0
  5
2B83
 10
3.83815
 20
31.2564
 30
0.000000
  70
    32
  0
VERTEX
  8
0
  5
2B84
 10
3.83914
 20
31.2564
 30
0.000000
  70
    32
  0
VERTEX
  8
0
  5
2B85
 10
3.84012
 20
31.2564
 30
0.000000
  70
    32
  0
VERTEX
  8
0
  5
2B86
 10
3.84110
 20
31.2564
 30
0.000000
  70
    32
  0
VERTEX
  8
0
  5
2B87
 10
3.84208
 20
31.2564
 30
0.000000
  70
    32
  0
VERTEX
  8
0
  5
2B88
 10
3.84307
 20
31.2564
 30
0.000000
  70
    32
  0
VERTEX
  8
0
  5
2B89
 10
3.84405
 20
31.2563
 30
0.000000
  70
    32
  0
VERTEX
  8
0
  5
2B8A
 10
3.84503
 20
31.2563
 30
0.000000
  70
    32
  0
VERTEX
  8
0
  5
2B8B
 10
3.84602
 20
31.2563
 30
0.000000
  70
    32
  0
VERTEX
  8
0
  5
2B8C
 10
3.84700
 20
31.2563
 30
0.000000
  70
    32
  0
VERTEX
  8
0
  5
2B8D
 10
3.84798
 20
31.2563
 30
0.000000
  70
    32
  0
VERTEX
  8
0
  5
2B8E
 10
3.84896
 20
31.2563
 30
0.000000
  70
    32
  0
VERTEX
  8
0
  5
2B8F
 10
3.84995
 20
31.2563
 30
0.000000
  70
    32
  0
VERTEX
  8
0
  5
2B90
 10
3.85093
 20
31.2563
 30
0.000000
  70
    32
  0
VERTEX
  8
0
  5
2B91
 10
3.85191
 20
31.2563
 30
0.000000
  70
    32
  0
VERTEX
  8
0
  5
2B92
 10
3.85290
 20
31.2563
 30
0.000000
  70
    32
  0
VERTEX
  8
0
  5
2B93
 10
3.85388
 20
31.2563
 30
0.000000
  70
    32
  0
VERTEX
  8
0
  5
2B94
 10
3.85486
 20
31.2563
 30
0.000000
  70
    32
  0
VERTEX
  8
0
  5
2B95
 10
3.85584
 20
31.2563
 30
0.000000
  70
    32
  0
VERTEX
  8
0
  5
2B96
 10
3.85683
 20
31.2563
 30
0.000000
  70
    32
  0
VERTEX
  8
0
  5
2B97
 10
3.85781
 20
31.2563
 30
0.000000
  70
    32
  0
VERTEX
  8
0
  5
2B98
 10
3.85879
 20
31.2563
 30
0.000000
  70
    32
  0
VERTEX
  8
0
  5
2B99
 10
3.85978
 20
31.2563
 30
0.000000
  70
    32
  0
VERTEX
  8
0
  5
2B9A
 10
3.86076
 20
31.2563
 30
0.000000
  70
    32
  0
VERTEX
  8
0
  5
2B9B
 10
3.86174
 20
31.2563
 30
0.000000
  70
    32
  0
VERTEX
  8
0
  5
2B9C
 10
3.86272
 20
31.2563
 30
0.000000
  70
    32
  0
VERTEX
  8
0
  5
2B9D
 10
3.86371
 20
31.2563
 30
0.000000
  70
    32
  0
VERTEX
  8
0
  5
2B9E
 10
3.86469
 20
31.2563
 30
0.000000
  70
    32
  0
VERTEX
  8
0
  5
2B9F
 10
3.86567
 20
31.2563
 30
0.000000
  70
    32
  0
VERTEX
  8
0
  5
2BA0
 10
3.86666
 20
31.2563
 30
0.000000
  70
    32
  0
VERTEX
  8
0
  5
2BA1
 10
3.86764
 20
31.2563
 30
0.000000
  70
    32
  0
VERTEX
  8
0
  5
2BA2
 10
3.86862
 20
31.2563
 30
0.000000
  70
    32
  0
VERTEX
  8
0
  5
2BA3
 10
3.86960
 20
31.2563
 30
0.000000
  70
    32
  0
VERTEX
  8
0
  5
2BA4
 10
3.87059
 20
31.2563
 30
0.000000
  70
    32
  0
VERTEX
  8
0
  5
2BA5
 10
3.87157
 20
31.2563
 30
0.000000
  70
    32
  0
VERTEX
  8
0
  5
2BA6
 10
3.87255
 20
31.2563
 30
0.000000
  70
    32
  0
VERTEX
  8
0
  5
2BA7
 10
3.87354
 20
31.2563
 30
0.000000
  70
    32
  0
VERTEX
  8
0
  5
2BA8
 10
3.87452
 20
31.2563
 30
0.000000
  70
    32
  0
VERTEX
  8
0
  5
2BA9
 10
3.87550
 20
31.2563
 30
0.000000
  70
    32
  0
VERTEX
  8
0
  5
2BAA
 10
3.87648
 20
31.2563
 30
0.000000
  70
    32
  0
VERTEX
  8
0
  5
2BAB
 10
3.87747
 20
31.2563
 30
0.000000
  70
    32
  0
VERTEX
  8
0
  5
2BAC
 10
3.87845
 20
31.2563
 30
0.000000
  70
    32
  0
VERTEX
  8
0
  5
2BAD
 10
3.87943
 20
31.2563
 30
0.000000
  70
    32
  0
VERTEX
  8
0
  5
2BAE
 10
3.88042
 20
31.2563
 30
0.000000
  70
    32
  0
VERTEX
  8
0
  5
2BAF
 10
3.88140
 20
31.2563
 30
0.000000
  70
    32
  0
VERTEX
  8
0
  5
2BB0
 10
3.88238
 20
31.2563
 30
0.000000
  70
    32
  0
VERTEX
  8
0
  5
2BB1
 10
3.88336
 20
31.2563
 30
0.000000
  70
    32
  0
VERTEX
  8
0
  5
2BB2
 10
3.88435
 20
31.2563
 30
0.000000
  70
    32
  0
VERTEX
  8
0
  5
2BB3
 10
3.88533
 20
31.2563
 30
0.000000
  70
    32
  0
VERTEX
  8
0
  5
2BB4
 10
3.88631
 20
31.2563
 30
0.000000
  70
    32
  0
VERTEX
  8
0
  5
2BB5
 10
3.88730
 20
31.2563
 30
0.000000
  70
    32
  0
VERTEX
  8
0
  5
2BB6
 10
3.88828
 20
31.2563
 30
0.000000
  70
    32
  0
VERTEX
  8
0
  5
2BB7
 10
3.88926
 20
31.2563
 30
0.000000
  70
    32
  0
VERTEX
  8
0
  5
2BB8
 10
3.89024
 20
31.2563
 30
0.000000
  70
    32
  0
VERTEX
  8
0
  5
2BB9
 10
3.89123
 20
31.2562
 30
0.000000
  70
    32
  0
VERTEX
  8
0
  5
2BBA
 10
3.89221
 20
31.2562
 30
0.000000
  70
    32
  0
VERTEX
  8
0
  5
2BBB
 10
3.89319
 20
31.2562
 30
0.000000
  70
    32
  0
VERTEX
  8
0
  5
2BBC
 10
3.89418
 20
31.2562
 30
0.000000
  70
    32
  0
VERTEX
  8
0
  5
2BBD
 10
3.89516
 20
31.2562
 30
0.000000
  70
    32
  0
VERTEX
  8
0
  5
2BBE
 10
3.89614
 20
31.2562
 30
0.000000
  70
    32
  0
VERTEX
  8
0
  5
2BBF
 10
3.89712
 20
31.2562
 30
0.000000
  70
    32
  0
VERTEX
  8
0
  5
2BC0
 10
3.89811
 20
31.2562
 30
0.000000
  70
    32
  0
VERTEX
  8
0
  5
2BC1
 10
3.89909
 20
31.2562
 30
0.000000
  70
    32
  0
VERTEX
  8
0
  5
2BC2
 10
3.90007
 20
31.2562
 30
0.000000
  70
    32
  0
VERTEX
  8
0
  5
2BC3
 10
3.90106
 20
31.2562
 30
0.000000
  70
    32
  0
VERTEX
  8
0
  5
2BC4
 10
3.90204
 20
31.2562
 30
0.000000
  70
    32
  0
VERTEX
  8
0
  5
2BC5
 10
3.90302
 20
31.2562
 30
0.000000
  70
    32
  0
VERTEX
  8
0
  5
2BC6
 10
3.90400
 20
31.2562
 30
0.000000
  70
    32
  0
VERTEX
  8
0
  5
2BC7
 10
3.90499
 20
31.2562
 30
0.000000
  70
    32
  0
VERTEX
  8
0
  5
2BC8
 10
3.90597
 20
31.2562
 30
0.000000
  70
    32
  0
VERTEX
  8
0
  5
2BC9
 10
3.90695
 20
31.2562
 30
0.000000
  70
    32
  0
VERTEX
  8
0
  5
2BCA
 10
3.90794
 20
31.2562
 30
0.000000
  70
    32
  0
VERTEX
  8
0
  5
2BCB
 10
3.90892
 20
31.2562
 30
0.000000
  70
    32
  0
VERTEX
  8
0
  5
2BCC
 10
3.90990
 20
31.2562
 30
0.000000
  70
    32
  0
VERTEX
  8
0
  5
2BCD
 10
3.91088
 20
31.2562
 30
0.000000
  70
    32
  0
VERTEX
  8
0
  5
2BCE
 10
3.91187
 20
31.2562
 30
0.000000
  70
    32
  0
VERTEX
  8
0
  5
2BCF
 10
3.91285
 20
31.2562
 30
0.000000
  70
    32
  0
VERTEX
  8
0
  5
2BD0
 10
3.91383
 20
31.2562
 30
0.000000
  70
    32
  0
VERTEX
  8
0
  5
2BD1
 10
3.91482
 20
31.2562
 30
0.000000
  70
    32
  0
VERTEX
  8
0
  5
2BD2
 10
3.91580
 20
31.2562
 30
0.000000
  70
    32
  0
VERTEX
  8
0
  5
2BD3
 10
3.91678
 20
31.2562
 30
0.000000
  70
    32
  0
VERTEX
  8
0
  5
2BD4
 10
3.91776
 20
31.2562
 30
0.000000
  70
    32
  0
VERTEX
  8
0
  5
2BD5
 10
3.91875
 20
31.2562
 30
0.000000
  70
    32
  0
VERTEX
  8
0
  5
2BD6
 10
3.91973
 20
31.2562
 30
0.000000
  70
    32
  0
VERTEX
  8
0
  5
2BD7
 10
3.92071
 20
31.2562
 30
0.000000
  70
    32
  0
VERTEX
  8
0
  5
2BD8
 10
3.92170
 20
31.2562
 30
0.000000
  70
    32
  0
VERTEX
  8
0
  5
2BD9
 10
3.92268
 20
31.2562
 30
0.000000
  70
    32
  0
VERTEX
  8
0
  5
2BDA
 10
3.92366
 20
31.2562
 30
0.000000
  70
    32
  0
VERTEX
  8
0
  5
2BDB
 10
3.92464
 20
31.2562
 30
0.000000
  70
    32
  0
VERTEX
  8
0
  5
2BDC
 10
3.92563
 20
31.2562
 30
0.000000
  70
    32
  0
VERTEX
  8
0
  5
2BDD
 10
3.92661
 20
31.2562
 30
0.000000
  70
    32
  0
VERTEX
  8
0
  5
2BDE
 10
3.92759
 20
31.2562
 30
0.000000
  70
    32
  0
VERTEX
  8
0
  5
2BDF
 10
3.92858
 20
31.2562
 30
0.000000
  70
    32
  0
VERTEX
  8
0
  5
2BE0
 10
3.92956
 20
31.2562
 30
0.000000
  70
    32
  0
VERTEX
  8
0
  5
2BE1
 10
3.93054
 20
31.2562
 30
0.000000
  70
    32
  0
VERTEX
  8
0
  5
2BE2
 10
3.93152
 20
31.2562
 30
0.000000
  70
    32
  0
VERTEX
  8
0
  5
2BE3
 10
3.93251
 20
31.2562
 30
0.000000
  70
    32
  0
VERTEX
  8
0
  5
2BE4
 10
3.93349
 20
31.2563
 30
0.000000
  70
    32
  0
VERTEX
  8
0
  5
2BE5
 10
3.93447
 20
31.2563
 30
0.000000
  70
    32
  0
VERTEX
  8
0
  5
2BE6
 10
3.93546
 20
31.2563
 30
0.000000
  70
    32
  0
VERTEX
  8
0
  5
2BE7
 10
3.93644
 20
31.2563
 30
0.000000
  70
    32
  0
VERTEX
  8
0
  5
2BE8
 10
3.93742
 20
31.2563
 30
0.000000
  70
    32
  0
VERTEX
  8
0
  5
2BE9
 10
3.93840
 20
31.2563
 30
0.000000
  70
    32
  0
VERTEX
  8
0
  5
2BEA
 10
3.93939
 20
31.2563
 30
0.000000
  70
    32
  0
VERTEX
  8
0
  5
2BEB
 10
3.94037
 20
31.2563
 30
0.000000
  70
    32
  0
VERTEX
  8
0
  5
2BEC
 10
3.94135
 20
31.2563
 30
0.000000
  70
    32
  0
VERTEX
  8
0
  5
2BED
 10
3.94234
 20
31.2563
 30
0.000000
  70
    32
  0
VERTEX
  8
0
  5
2BEE
 10
3.94332
 20
31.2563
 30
0.000000
  70
    32
  0
VERTEX
  8
0
  5
2BEF
 10
3.94430
 20
31.2563
 30
0.000000
  70
    32
  0
VERTEX
  8
0
  5
2BF0
 10
3.94528
 20
31.2563
 30
0.000000
  70
    32
  0
VERTEX
  8
0
  5
2BF1
 10
3.94627
 20
31.2563
 30
0.000000
  70
    32
  0
VERTEX
  8
0
  5
2BF2
 10
3.94725
 20
31.2563
 30
0.000000
  70
    32
  0
VERTEX
  8
0
  5
2BF3
 10
3.94823
 20
31.2563
 30
0.000000
  70
    32
  0
VERTEX
  8
0
  5
2BF4
 10
3.94922
 20
31.2563
 30
0.000000
  70
    32
  0
VERTEX
  8
0
  5
2BF5
 10
3.95020
 20
31.2563
 30
0.000000
  70
    32
  0
VERTEX
  8
0
  5
2BF6
 10
3.95118
 20
31.2563
 30
0.000000
  70
    32
  0
VERTEX
  8
0
  5
2BF7
 10
3.95216
 20
31.2563
 30
0.000000
  70
    32
  0
VERTEX
  8
0
  5
2BF8
 10
3.95315
 20
31.2563
 30
0.000000
  70
    32
  0
VERTEX
  8
0
  5
2BF9
 10
3.95413
 20
31.2563
 30
0.000000
  70
    32
  0
VERTEX
  8
0
  5
2BFA
 10
3.95511
 20
31.2563
 30
0.000000
  70
    32
  0
VERTEX
  8
0
  5
2BFB
 10
3.95610
 20
31.2563
 30
0.000000
  70
    32
  0
VERTEX
  8
0
  5
2BFC
 10
3.95708
 20
31.2563
 30
0.000000
  70
    32
  0
VERTEX
  8
0
  5
2BFD
 10
3.95806
 20
31.2563
 30
0.000000
  70
    32
  0
VERTEX
  8
0
  5
2BFE
 10
3.95904
 20
31.2563
 30
0.000000
  70
    32
  0
VERTEX
  8
0
  5
2BFF
 10
3.96003
 20
31.2563
 30
0.000000
  70
    32
  0
VERTEX
  8
0
  5
2C00
 10
3.96101
 20
31.2563
 30
0.000000
  70
    32
  0
VERTEX
  8
0
  5
2C01
 10
3.96199
 20
31.2563
 30
0.000000
  70
    32
  0
VERTEX
  8
0
  5
2C02
 10
3.96298
 20
31.2563
 30
0.000000
  70
    32
  0
VERTEX
  8
0
  5
2C03
 10
3.96396
 20
31.2563
 30
0.000000
  70
    32
  0
VERTEX
  8
0
  5
2C04
 10
3.96494
 20
31.2563
 30
0.000000
  70
    32
  0
VERTEX
  8
0
  5
2C05
 10
3.96592
 20
31.2563
 30
0.000000
  70
    32
  0
VERTEX
  8
0
  5
2C06
 10
3.96691
 20
31.2563
 30
0.000000
  70
    32
  0
VERTEX
  8
0
  5
2C07
 10
3.96789
 20
31.2563
 30
0.000000
  70
    32
  0
VERTEX
  8
0
  5
2C08
 10
3.96887
 20
31.2563
 30
0.000000
  70
    32
  0
VERTEX
  8
0
  5
2C09
 10
3.96986
 20
31.2563
 30
0.000000
  70
    32
  0
VERTEX
  8
0
  5
2C0A
 10
3.97084
 20
31.2563
 30
0.000000
  70
    32
  0
VERTEX
  8
0
  5
2C0B
 10
3.97182
 20
31.2563
 30
0.000000
  70
    32
  0
VERTEX
  8
0
  5
2C0C
 10
3.97280
 20
31.2563
 30
0.000000
  70
    32
  0
VERTEX
  8
0
  5
2C0D
 10
3.97379
 20
31.2563
 30
0.000000
  70
    32
  0
VERTEX
  8
0
  5
2C0E
 10
3.97477
 20
31.2563
 30
0.000000
  70
    32
  0
VERTEX
  8
0
  5
2C0F
 10
3.97575
 20
31.2563
 30
0.000000
  70
    32
  0
VERTEX
  8
0
  5
2C10
 10
3.97674
 20
31.2563
 30
0.000000
  70
    32
  0
VERTEX
  8
0
  5
2C11
 10
3.97772
 20
31.2564
 30
0.000000
  70
    32
  0
VERTEX
  8
0
  5
2C12
 10
3.97870
 20
31.2564
 30
0.000000
  70
    32
  0
VERTEX
  8
0
  5
2C13
 10
3.97968
 20
31.2564
 30
0.000000
  70
    32
  0
VERTEX
  8
0
  5
2C14
 10
3.98067
 20
31.2564
 30
0.000000
  70
    32
  0
VERTEX
  8
0
  5
2C15
 10
3.98165
 20
31.2564
 30
0.000000
  70
    32
  0
VERTEX
  8
0
  5
2C16
 10
3.98263
 20
31.2564
 30
0.000000
  70
    32
  0
VERTEX
  8
0
  5
2C17
 10
3.98362
 20
31.2564
 30
0.000000
  70
    32
  0
VERTEX
  8
0
  5
2C18
 10
3.98460
 20
31.2564
 30
0.000000
  70
    32
  0
VERTEX
  8
0
  5
2C19
 10
3.98558
 20
31.2564
 30
0.000000
  70
    32
  0
VERTEX
  8
0
  5
2C1A
 10
3.98656
 20
31.2564
 30
0.000000
  70
    32
  0
VERTEX
  8
0
  5
2C1B
 10
3.98755
 20
31.2564
 30
0.000000
  70
    32
  0
VERTEX
  8
0
  5
2C1C
 10
3.98853
 20
31.2564
 30
0.000000
  70
    32
  0
VERTEX
  8
0
  5
2C1D
 10
3.98951
 20
31.2564
 30
0.000000
  70
    32
  0
VERTEX
  8
0
  5
2C1E
 10
3.99050
 20
31.2564
 30
0.000000
  70
    32
  0
VERTEX
  8
0
  5
2C1F
 10
3.99148
 20
31.2564
 30
0.000000
  70
    32
  0
VERTEX
  8
0
  5
2C20
 10
3.99246
 20
31.2564
 30
0.000000
  70
    32
  0
VERTEX
  8
0
  5
2C21
 10
3.99344
 20
31.2564
 30
0.000000
  70
    32
  0
VERTEX
  8
0
  5
2C22
 10
3.99443
 20
31.2564
 30
0.000000
  70
    32
  0
VERTEX
  8
0
  5
2C23
 10
3.99541
 20
31.2564
 30
0.000000
  70
    32
  0
VERTEX
  8
0
  5
2C24
 10
3.99639
 20
31.2564
 30
0.000000
  70
    32
  0
VERTEX
  8
0
  5
2C25
 10
3.99738
 20
31.2564
 30
0.000000
  70
    32
  0
VERTEX
  8
0
  5
2C26
 10
3.99836
 20
31.2564
 30
0.000000
  70
    32
  0
VERTEX
  8
0
  5
2C27
 10
3.99934
 20
31.2564
 30
0.000000
  70
    32
  0
VERTEX
  8
0
  5
2C28
 10
4.00032
 20
31.2565
 30
0.000000
  70
    32
  0
VERTEX
  8
0
  5
2C29
 10
4.00131
 20
31.2565
 30
0.000000
  70
    32
  0
VERTEX
  8
0
  5
2C2A
 10
4.00229
 20
31.2565
 30
0.000000
  70
    32
  0
VERTEX
  8
0
  5
2C2B
 10
4.00327
 20
31.2565
 30
0.000000
  70
    32
  0
VERTEX
  8
0
  5
2C2C
 10
4.00426
 20
31.2565
 30
0.000000
  70
    32
  0
VERTEX
  8
0
  5
2C2D
 10
4.00524
 20
31.2565
 30
0.000000
  70
    32
  0
VERTEX
  8
0
  5
2C2E
 10
4.00622
 20
31.2565
 30
0.000000
  70
    32
  0
VERTEX
  8
0
  5
2C2F
 10
4.00720
 20
31.2565
 30
0.000000
  70
    32
  0
VERTEX
  8
0
  5
2C30
 10
4.00819
 20
31.2565
 30
0.000000
  70
    32
  0
VERTEX
  8
0
  5
2C31
 10
4.00917
 20
31.2565
 30
0.000000
  70
    32
  0
VERTEX
  8
0
  5
2C32
 10
4.01015
 20
31.2565
 30
0.000000
  70
    32
  0
VERTEX
  8
0
  5
2C33
 10
4.01114
 20
31.2565
 30
0.000000
  70
    32
  0
VERTEX
  8
0
  5
2C34
 10
4.01212
 20
31.2565
 30
0.000000
  70
    32
  0
VERTEX
  8
0
  5
2C35
 10
4.01310
 20
31.2565
 30
0.000000
  70
    32
  0
VERTEX
  8
0
  5
2C36
 10
4.01408
 20
31.2565
 30
0.000000
  70
    32
  0
VERTEX
  8
0
  5
2C37
 10
4.01507
 20
31.2565
 30
0.000000
  70
    32
  0
VERTEX
  8
0
  5
2C38
 10
4.01605
 20
31.2566
 30
0.000000
  70
    32
  0
VERTEX
  8
0
  5
2C39
 10
4.01703
 20
31.2566
 30
0.000000
  70
    32
  0
VERTEX
  8
0
  5
2C3A
 10
4.01801
 20
31.2566
 30
0.000000
  70
    32
  0
VERTEX
  8
0
  5
2C3B
 10
4.01900
 20
31.2566
 30
0.000000
  70
    32
  0
VERTEX
  8
0
  5
2C3C
 10
4.01998
 20
31.2566
 30
0.000000
  70
    32
  0
VERTEX
  8
0
  5
2C3D
 10
4.02096
 20
31.2566
 30
0.000000
  70
    32
  0
VERTEX
  8
0
  5
2C3E
 10
4.02195
 20
31.2566
 30
0.000000
  70
    32
  0
VERTEX
  8
0
  5
2C3F
 10
4.02293
 20
31.2566
 30
0.000000
  70
    32
  0
VERTEX
  8
0
  5
2C40
 10
4.02391
 20
31.2566
 30
0.000000
  70
    32
  0
VERTEX
  8
0
  5
2C41
 10
4.02489
 20
31.2566
 30
0.000000
  70
    32
  0
VERTEX
  8
0
  5
2C42
 10
4.02588
 20
31.2566
 30
0.000000
  70
    32
  0
VERTEX
  8
0
  5
2C43
 10
4.02686
 20
31.2566
 30
0.000000
  70
    32
  0
VERTEX
  8
0
  5
2C44
 10
4.02784
 20
31.2566
 30
0.000000
  70
    32
  0
VERTEX
  8
0
  5
2C45
 10
4.02883
 20
31.2566
 30
0.000000
  70
    32
  0
VERTEX
  8
0
  5
2C46
 10
4.02981
 20
31.2567
 30
0.000000
  70
    32
  0
VERTEX
  8
0
  5
2C47
 10
4.03079
 20
31.2567
 30
0.000000
  70
    32
  0
VERTEX
  8
0
  5
2C48
 10
4.03177
 20
31.2567
 30
0.000000
  70
    32
  0
VERTEX
  8
0
  5
2C49
 10
4.03276
 20
31.2567
 30
0.000000
  70
    32
  0
VERTEX
  8
0
  5
2C4A
 10
4.03374
 20
31.2567
 30
0.000000
  70
    32
  0
VERTEX
  8
0
  5
2C4B
 10
4.03472
 20
31.2567
 30
0.000000
  70
    32
  0
VERTEX
  8
0
  5
2C4C
 10
4.03571
 20
31.2567
 30
0.000000
  70
    32
  0
VERTEX
  8
0
  5
2C4D
 10
4.03669
 20
31.2567
 30
0.000000
  70
    32
  0
VERTEX
  8
0
  5
2C4E
 10
4.03767
 20
31.2567
 30
0.000000
  70
    32
  0
VERTEX
  8
0
  5
2C4F
 10
4.03865
 20
31.2567
 30
0.000000
  70
    32
  0
VERTEX
  8
0
  5
2C50
 10
4.03964
 20
31.2567
 30
0.000000
  70
    32
  0
VERTEX
  8
0
  5
2C51
 10
4.04062
 20
31.2568
 30
0.000000
  70
    32
  0
VERTEX
  8
0
  5
2C52
 10
4.04160
 20
31.2568
 30
0.000000
  70
    32
  0
VERTEX
  8
0
  5
2C53
 10
4.04259
 20
31.2568
 30
0.000000
  70
    32
  0
VERTEX
  8
0
  5
2C54
 10
4.04357
 20
31.2568
 30
0.000000
  70
    32
  0
VERTEX
  8
0
  5
2C55
 10
4.04455
 20
31.2568
 30
0.000000
  70
    32
  0
VERTEX
  8
0
  5
2C56
 10
4.04553
 20
31.2568
 30
0.000000
  70
    32
  0
VERTEX
  8
0
  5
2C57
 10
4.04652
 20
31.2568
 30
0.000000
  70
    32
  0
VERTEX
  8
0
  5
2C58
 10
4.04750
 20
31.2568
 30
0.000000
  70
    32
  0
VERTEX
  8
0
  5
2C59
 10
4.04848
 20
31.2568
 30
0.000000
  70
    32
  0
VERTEX
  8
0
  5
2C5A
 10
4.04947
 20
31.2569
 30
0.000000
  70
    32
  0
VERTEX
  8
0
  5
2C5B
 10
4.05045
 20
31.2569
 30
0.000000
  70
    32
  0
VERTEX
  8
0
  5
2C5C
 10
4.05143
 20
31.2569
 30
0.000000
  70
    32
  0
VERTEX
  8
0
  5
2C5D
 10
4.05241
 20
31.2569
 30
0.000000
  70
    32
  0
VERTEX
  8
0
  5
2C5E
 10
4.05340
 20
31.2569
 30
0.000000
  70
    32
  0
VERTEX
  8
0
  5
2C5F
 10
4.05438
 20
31.2569
 30
0.000000
  70
    32
  0
VERTEX
  8
0
  5
2C60
 10
4.05536
 20
31.2569
 30
0.000000
  70
    32
  0
VERTEX
  8
0
  5
2C61
 10
4.05634
 20
31.2569
 30
0.000000
  70
    32
  0
VERTEX
  8
0
  5
2C62
 10
4.05733
 20
31.2569
 30
0.000000
  70
    32
  0
VERTEX
  8
0
  5
2C63
 10
4.05831
 20
31.2570
 30
0.000000
  70
    32
  0
VERTEX
  8
0
  5
2C64
 10
4.05929
 20
31.2570
 30
0.000000
  70
    32
  0
VERTEX
  8
0
  5
2C65
 10
4.06028
 20
31.2570
 30
0.000000
  70
    32
  0
VERTEX
  8
0
  5
2C66
 10
4.06126
 20
31.2570
 30
0.000000
  70
    32
  0
VERTEX
  8
0
  5
2C67
 10
4.06224
 20
31.2570
 30
0.000000
  70
    32
  0
VERTEX
  8
0
  5
2C68
 10
4.06322
 20
31.2570
 30
0.000000
  70
    32
  0
VERTEX
  8
0
  5
2C69
 10
4.06421
 20
31.2570
 30
0.000000
  70
    32
  0
VERTEX
  8
0
  5
2C6A
 10
4.06519
 20
31.2571
 30
0.000000
  70
    32
  0
VERTEX
  8
0
  5
2C6B
 10
4.06617
 20
31.2571
 30
0.000000
  70
    32
  0
VERTEX
  8
0
  5
2C6C
 10
4.06716
 20
31.2571
 30
0.000000
  70
    32
  0
VERTEX
  8
0
  5
2C6D
 10
4.06814
 20
31.2571
 30
0.000000
  70
    32
  0
VERTEX
  8
0
  5
2C6E
 10
4.06912
 20
31.2571
 30
0.000000
  70
    32
  0
VERTEX
  8
0
  5
2C6F
 10
4.07010
 20
31.2571
 30
0.000000
  70
    32
  0
VERTEX
  8
0
  5
2C70
 10
4.07109
 20
31.2571
 30
0.000000
  70
    32
  0
VERTEX
  8
0
  5
2C71
 10
4.07207
 20
31.2572
 30
0.000000
  70
    32
  0
VERTEX
  8
0
  5
2C72
 10
4.07305
 20
31.2572
 30
0.000000
  70
    32
  0
VERTEX
  8
0
  5
2C73
 10
4.07403
 20
31.2572
 30
0.000000
  70
    32
  0
VERTEX
  8
0
  5
2C74
 10
4.07502
 20
31.2572
 30
0.000000
  70
    32
  0
SEQEND
  8
0
  5
2C75
  0
POLYLINE
  8
0
  5
2C76
  62
7
  66
     1
 10
0.000000
 20
0.000000
 30
0.000000
  70
     8
  0
VERTEX
  8
0
  5
2C77
 10
0.351970
 20
31.2563
 30
0.000000
  70
    32
  0
VERTEX
  8
0
  5
2C78
 10
0.367117
 20
31.2565
 30
0.000000
  70
    32
  0
VERTEX
  8
0
  5
2C79
 10
0.382265
 20
31.2566
 30
0.000000
  70
    32
  0
VERTEX
  8
0
  5
2C7A
 10
0.397412
 20
31.2568
 30
0.000000
  70
    32
  0
VERTEX
  8
0
  5
2C7B
 10
0.412560
 20
31.2570
 30
0.000000
  70
    32
  0
VERTEX
  8
0
  5
2C7C
 10
0.427707
 20
31.2572
 30
0.000000
  70
    32
  0
VERTEX
  8
0
  5
2C7D
 10
0.442855
 20
31.2574
 30
0.000000
  70
    32
  0
VERTEX
  8
0
  5
2C7E
 10
0.458003
 20
31.2575
 30
0.000000
  70
    32
  0
VERTEX
  8
0
  5
2C7F
 10
0.473150
 20
31.2577
 30
0.000000
  70
    32
  0
VERTEX
  8
0
  5
2C80
 10
0.488298
 20
31.2579
 30
0.000000
  70
    32
  0
VERTEX
  8
0
  5
2C81
 10
0.503446
 20
31.2580
 30
0.000000
  70
    32
  0
VERTEX
  8
0
  5
2C82
 10
0.518593
 20
31.2582
 30
0.000000
  70
    32
  0
VERTEX
  8
0
  5
2C83
 10
0.533741
 20
31.2583
 30
0.000000
  70
    32
  0
VERTEX
  8
0
  5
2C84
 10
0.548889
 20
31.2585
 30
0.000000
  70
    32
  0
VERTEX
  8
0
  5
2C85
 10
0.564037
 20
31.2587
 30
0.000000
  70
    32
  0
VERTEX
  8
0
  5
2C86
 10
0.579184
 20
31.2588
 30
0.000000
  70
    32
  0
VERTEX
  8
0
  5
2C87
 10
0.594332
 20
31.2590
 30
0.000000
  70
    32
  0
VERTEX
  8
0
  5
2C88
 10
0.609480
 20
31.2591
 30
0.000000
  70
    32
  0
VERTEX
  8
0
  5
2C89
 10
0.624628
 20
31.2593
 30
0.000000
  70
    32
  0
VERTEX
  8
0
  5
2C8A
 10
0.639776
 20
31.2594
 30
0.000000
  70
    32
  0
VERTEX
  8
0
  5
2C8B
 10
0.654924
 20
31.2595
 30
0.000000
  70
    32
  0
VERTEX
  8
0
  5
2C8C
 10
0.670072
 20
31.2597
 30
0.000000
  70
    32
  0
VERTEX
  8
0
  5
2C8D
 10
0.685220
 20
31.2598
 30
0.000000
  70
    32
  0
VERTEX
  8
0
  5
2C8E
 10
0.700368
 20
31.2600
 30
0.000000
  70
    32
  0
VERTEX
  8
0
  5
2C8F
 10
0.715516
 20
31.2601
 30
0.000000
  70
    32
  0
VERTEX
  8
0
  5
2C90
 10
0.730664
 20
31.2602
 30
0.000000
  70
    32
  0
VERTEX
  8
0
  5
2C91
 10
0.745812
 20
31.2604
 30
0.000000
  70
    32
  0
VERTEX
  8
0
  5
2C92
 10
0.760960
 20
31.2605
 30
0.000000
  70
    32
  0
VERTEX
  8
0
  5
2C93
 10
0.776108
 20
31.2606
 30
0.000000
  70
    32
  0
VERTEX
  8
0
  5
2C94
 10
0.791256
 20
31.2607
 30
0.000000
  70
    32
  0
VERTEX
  8
0
  5
2C95
 10
0.806404
 20
31.2609
 30
0.000000
  70
    32
  0
VERTEX
  8
0
  5
2C96
 10
0.821552
 20
31.2610
 30
0.000000
  70
    32
  0
VERTEX
  8
0
  5
2C97
 10
0.836700
 20
31.2611
 30
0.000000
  70
    32
  0
VERTEX
  8
0
  5
2C98
 10
0.851848
 20
31.2612
 30
0.000000
  70
    32
  0
VERTEX
  8
0
  5
2C99
 10
0.866997
 20
31.2613
 30
0.000000
  70
    32
  0
VERTEX
  8
0
  5
2C9A
 10
0.882145
 20
31.2614
 30
0.000000
  70
    32
  0
VERTEX
  8
0
  5
2C9B
 10
0.897293
 20
31.2615
 30
0.000000
  70
    32
  0
VERTEX
  8
0
  5
2C9C
 10
0.912441
 20
31.2617
 30
0.000000
  70
    32
  0
VERTEX
  8
0
  5
2C9D
 10
0.927589
 20
31.2618
 30
0.000000
  70
    32
  0
VERTEX
  8
0
  5
2C9E
 10
0.942738
 20
31.2619
 30
0.000000
  70
    32
  0
VERTEX
  8
0
  5
2C9F
 10
0.957886
 20
31.2620
 30
0.000000
  70
    32
  0
VERTEX
  8
0
  5
2CA0
 10
0.973034
 20
31.2621
 30
0.000000
  70
    32
  0
VERTEX
  8
0
  5
2CA1
 10
0.988182
 20
31.2622
 30
0.000000
  70
    32
  0
VERTEX
  8
0
  5
2CA2
 10
1.00333
 20
31.2623
 30
0.000000
  70
    32
  0
VERTEX
  8
0
  5
2CA3
 10
1.01848
 20
31.2624
 30
0.000000
  70
    32
  0
VERTEX
  8
0
  5
2CA4
 10
1.03363
 20
31.2625
 30
0.000000
  70
    32
  0
VERTEX
  8
0
  5
2CA5
 10
1.04878
 20
31.2626
 30
0.000000
  70
    32
  0
VERTEX
  8
0
  5
2CA6
 10
1.06392
 20
31.2627
 30
0.000000
  70
    32
  0
VERTEX
  8
0
  5
2CA7
 10
1.07907
 20
31.2627
 30
0.000000
  70
    32
  0
VERTEX
  8
0
  5
2CA8
 10
1.09422
 20
31.2628
 30
0.000000
  70
    32
  0
VERTEX
  8
0
  5
2CA9
 10
1.10937
 20
31.2629
 30
0.000000
  70
    32
  0
VERTEX
  8
0
  5
2CAA
 10
1.12452
 20
31.2630
 30
0.000000
  70
    32
  0
VERTEX
  8
0
  5
2CAB
 10
1.13967
 20
31.2631
 30
0.000000
  70
    32
  0
VERTEX
  8
0
  5
2CAC
 10
1.15481
 20
31.2632
 30
0.000000
  70
    32
  0
VERTEX
  8
0
  5
2CAD
 10
1.16996
 20
31.2633
 30
0.000000
  70
    32
  0
VERTEX
  8
0
  5
2CAE
 10
1.18511
 20
31.2633
 30
0.000000
  70
    32
  0
VERTEX
  8
0
  5
2CAF
 10
1.20026
 20
31.2634
 30
0.000000
  70
    32
  0
VERTEX
  8
0
  5
2CB0
 10
1.21541
 20
31.2635
 30
0.000000
  70
    32
  0
VERTEX
  8
0
  5
2CB1
 10
1.23056
 20
31.2636
 30
0.000000
  70
    32
  0
VERTEX
  8
0
  5
2CB2
 10
1.24570
 20
31.2636
 30
0.000000
  70
    32
  0
VERTEX
  8
0
  5
2CB3
 10
1.26085
 20
31.2637
 30
0.000000
  70
    32
  0
VERTEX
  8
0
  5
2CB4
 10
1.27600
 20
31.2638
 30
0.000000
  70
    32
  0
VERTEX
  8
0
  5
2CB5
 10
1.29115
 20
31.2638
 30
0.000000
  70
    32
  0
VERTEX
  8
0
  5
2CB6
 10
1.30630
 20
31.2639
 30
0.000000
  70
    32
  0
VERTEX
  8
0
  5
2CB7
 10
1.32145
 20
31.2640
 30
0.000000
  70
    32
  0
VERTEX
  8
0
  5
2CB8
 10
1.33660
 20
31.2640
 30
0.000000
  70
    32
  0
VERTEX
  8
0
  5
2CB9
 10
1.35174
 20
31.2641
 30
0.000000
  70
    32
  0
VERTEX
  8
0
  5
2CBA
 10
1.36689
 20
31.2642
 30
0.000000
  70
    32
  0
VERTEX
  8
0
  5
2CBB
 10
1.38204
 20
31.2642
 30
0.000000
  70
    32
  0
VERTEX
  8
0
  5
2CBC
 10
1.39719
 20
31.2643
 30
0.000000
  70
    32
  0
VERTEX
  8
0
  5
2CBD
 10
1.41234
 20
31.2643
 30
0.000000
  70
    32
  0
VERTEX
  8
0
  5
2CBE
 10
1.42749
 20
31.2644
 30
0.000000
  70
    32
  0
VERTEX
  8
0
  5
2CBF
 10
1.44263
 20
31.2645
 30
0.000000
  70
    32
  0
VERTEX
  8
0
  5
2CC0
 10
1.45778
 20
31.2645
 30
0.000000
  70
    32
  0
VERTEX
  8
0
  5
2CC1
 10
1.47293
 20
31.2646
 30
0.000000
  70
    32
  0
VERTEX
  8
0
  5
2CC2
 10
1.48808
 20
31.2646
 30
0.000000
  70
    32
  0
VERTEX
  8
0
  5
2CC3
 10
1.50323
 20
31.2647
 30
0.000000
  70
    32
  0
VERTEX
  8
0
  5
2CC4
 10
1.51838
 20
31.2647
 30
0.000000
  70
    32
  0
VERTEX
  8
0
  5
2CC5
 10
1.53353
 20
31.2647
 30
0.000000
  70
    32
  0
VERTEX
  8
0
  5
2CC6
 10
1.54867
 20
31.2648
 30
0.000000
  70
    32
  0
VERTEX
  8
0
  5
2CC7
 10
1.56382
 20
31.2648
 30
0.000000
  70
    32
  0
VERTEX
  8
0
  5
2CC8
 10
1.57897
 20
31.2649
 30
0.000000
  70
    32
  0
VERTEX
  8
0
  5
2CC9
 10
1.59412
 20
31.2649
 30
0.000000
  70
    32
  0
VERTEX
  8
0
  5
2CCA
 10
1.60927
 20
31.2649
 30
0.000000
  70
    32
  0
VERTEX
  8
0
  5
2CCB
 10
1.62442
 20
31.2650
 30
0.000000
  70
    32
  0
VERTEX
  8
0
  5
2CCC
 10
1.63956
 20
31.2650
 30
0.000000
  70
    32
  0
VERTEX
  8
0
  5
2CCD
 10
1.65471
 20
31.2651
 30
0.000000
  70
    32
  0
VERTEX
  8
0
  5
2CCE
 10
1.66986
 20
31.2651
 30
0.000000
  70
    32
  0
VERTEX
  8
0
  5
2CCF
 10
1.68501
 20
31.2651
 30
0.000000
  70
    32
  0
VERTEX
  8
0
  5
2CD0
 10
1.70016
 20
31.2651
 30
0.000000
  70
    32
  0
VERTEX
  8
0
  5
2CD1
 10
1.71531
 20
31.2652
 30
0.000000
  70
    32
  0
VERTEX
  8
0
  5
2CD2
 10
1.73046
 20
31.2652
 30
0.000000
  70
    32
  0
VERTEX
  8
0
  5
2CD3
 10
1.74560
 20
31.2652
 30
0.000000
  70
    32
  0
VERTEX
  8
0
  5
2CD4
 10
1.76075
 20
31.2653
 30
0.000000
  70
    32
  0
VERTEX
  8
0
  5
2CD5
 10
1.77590
 20
31.2653
 30
0.000000
  70
    32
  0
VERTEX
  8
0
  5
2CD6
 10
1.79105
 20
31.2653
 30
0.000000
  70
    32
  0
VERTEX
  8
0
  5
2CD7
 10
1.80620
 20
31.2653
 30
0.000000
  70
    32
  0
VERTEX
  8
0
  5
2CD8
 10
1.82135
 20
31.2653
 30
0.000000
  70
    32
  0
VERTEX
  8
0
  5
2CD9
 10
1.83650
 20
31.2654
 30
0.000000
  70
    32
  0
VERTEX
  8
0
  5
2CDA
 10
1.85164
 20
31.2654
 30
0.000000
  70
    32
  0
VERTEX
  8
0
  5
2CDB
 10
1.86679
 20
31.2654
 30
0.000000
  70
    32
  0
VERTEX
  8
0
  5
2CDC
 10
1.88194
 20
31.2654
 30
0.000000
  70
    32
  0
VERTEX
  8
0
  5
2CDD
 10
1.89709
 20
31.2654
 30
0.000000
  70
    32
  0
VERTEX
  8
0
  5
2CDE
 10
1.91224
 20
31.2654
 30
0.000000
  70
    32
  0
VERTEX
  8
0
  5
2CDF
 10
1.92739
 20
31.2654
 30
0.000000
  70
    32
  0
VERTEX
  8
0
  5
2CE0
 10
1.94254
 20
31.2654
 30
0.000000
  70
    32
  0
VERTEX
  8
0
  5
2CE1
 10
1.95768
 20
31.2655
 30
0.000000
  70
    32
  0
VERTEX
  8
0
  5
2CE2
 10
1.97283
 20
31.2655
 30
0.000000
  70
    32
  0
VERTEX
  8
0
  5
2CE3
 10
1.98798
 20
31.2655
 30
0.000000
  70
    32
  0
VERTEX
  8
0
  5
2CE4
 10
2.00313
 20
31.2655
 30
0.000000
  70
    32
  0
VERTEX
  8
0
  5
2CE5
 10
2.01828
 20
31.2655
 30
0.000000
  70
    32
  0
VERTEX
  8
0
  5
2CE6
 10
2.03343
 20
31.2655
 30
0.000000
  70
    32
  0
VERTEX
  8
0
  5
2CE7
 10
2.04858
 20
31.2655
 30
0.000000
  70
    32
  0
VERTEX
  8
0
  5
2CE8
 10
2.06372
 20
31.2655
 30
0.000000
  70
    32
  0
VERTEX
  8
0
  5
2CE9
 10
2.07887
 20
31.2655
 30
0.000000
  70
    32
  0
VERTEX
  8
0
  5
2CEA
 10
2.09402
 20
31.2655
 30
0.000000
  70
    32
  0
VERTEX
  8
0
  5
2CEB
 10
2.10917
 20
31.2655
 30
0.000000
  70
    32
  0
VERTEX
  8
0
  5
2CEC
 10
2.12432
 20
31.2655
 30
0.000000
  70
    32
  0
VERTEX
  8
0
  5
2CED
 10
2.13947
 20
31.2654
 30
0.000000
  70
    32
  0
VERTEX
  8
0
  5
2CEE
 10
2.15462
 20
31.2654
 30
0.000000
  70
    32
  0
VERTEX
  8
0
  5
2CEF
 10
2.16976
 20
31.2654
 30
0.000000
  70
    32
  0
VERTEX
  8
0
  5
2CF0
 10
2.18491
 20
31.2654
 30
0.000000
  70
    32
  0
VERTEX
  8
0
  5
2CF1
 10
2.20006
 20
31.2654
 30
0.000000
  70
    32
  0
VERTEX
  8
0
  5
2CF2
 10
2.21521
 20
31.2654
 30
0.000000
  70
    32
  0
VERTEX
  8
0
  5
2CF3
 10
2.23036
 20
31.2654
 30
0.000000
  70
    32
  0
VERTEX
  8
0
  5
2CF4
 10
2.24551
 20
31.2654
 30
0.000000
  70
    32
  0
VERTEX
  8
0
  5
2CF5
 10
2.26066
 20
31.2653
 30
0.000000
  70
    32
  0
VERTEX
  8
0
  5
2CF6
 10
2.27580
 20
31.2653
 30
0.000000
  70
    32
  0
VERTEX
  8
0
  5
2CF7
 10
2.29095
 20
31.2653
 30
0.000000
  70
    32
  0
VERTEX
  8
0
  5
2CF8
 10
2.30610
 20
31.2653
 30
0.000000
  70
    32
  0
VERTEX
  8
0
  5
2CF9
 10
2.32125
 20
31.2653
 30
0.000000
  70
    32
  0
VERTEX
  8
0
  5
2CFA
 10
2.33640
 20
31.2652
 30
0.000000
  70
    32
  0
VERTEX
  8
0
  5
2CFB
 10
2.35155
 20
31.2652
 30
0.000000
  70
    32
  0
VERTEX
  8
0
  5
2CFC
 10
2.36670
 20
31.2652
 30
0.000000
  70
    32
  0
VERTEX
  8
0
  5
2CFD
 10
2.38184
 20
31.2652
 30
0.000000
  70
    32
  0
VERTEX
  8
0
  5
2CFE
 10
2.39699
 20
31.2651
 30
0.000000
  70
    32
  0
VERTEX
  8
0
  5
2CFF
 10
2.41214
 20
31.2651
 30
0.000000
  70
    32
  0
VERTEX
  8
0
  5
2D00
 10
2.42729
 20
31.2651
 30
0.000000
  70
    32
  0
VERTEX
  8
0
  5
2D01
 10
2.44244
 20
31.2650
 30
0.000000
  70
    32
  0
VERTEX
  8
0
  5
2D02
 10
2.45759
 20
31.2650
 30
0.000000
  70
    32
  0
VERTEX
  8
0
  5
2D03
 10
2.47274
 20
31.2650
 30
0.000000
  70
    32
  0
VERTEX
  8
0
  5
2D04
 10
2.48788
 20
31.2649
 30
0.000000
  70
    32
  0
VERTEX
  8
0
  5
2D05
 10
2.50303
 20
31.2649
 30
0.000000
  70
    32
  0
VERTEX
  8
0
  5
2D06
 10
2.51818
 20
31.2648
 30
0.000000
  70
    32
  0
VERTEX
  8
0
  5
2D07
 10
2.53333
 20
31.2648
 30
0.000000
  70
    32
  0
VERTEX
  8
0
  5
2D08
 10
2.54848
 20
31.2648
 30
0.000000
  70
    32
  0
VERTEX
  8
0
  5
2D09
 10
2.56363
 20
31.2647
 30
0.000000
  70
    32
  0
VERTEX
  8
0
  5
2D0A
 10
2.57878
 20
31.2647
 30
0.000000
  70
    32
  0
VERTEX
  8
0
  5
2D0B
 10
2.59392
 20
31.2646
 30
0.000000
  70
    32
  0
VERTEX
  8
0
  5
2D0C
 10
2.60907
 20
31.2646
 30
0.000000
  70
    32
  0
VERTEX
  8
0
  5
2D0D
 10
2.62422
 20
31.2645
 30
0.000000
  70
    32
  0
VERTEX
  8
0
  5
2D0E
 10
2.63937
 20
31.2645
 30
0.000000
  70
    32
  0
VERTEX
  8
0
  5
2D0F
 10
2.65452
 20
31.2644
 30
0.000000
  70
    32
  0
VERTEX
  8
0
  5
2D10
 10
2.66967
 20
31.2644
 30
0.000000
  70
    32
  0
VERTEX
  8
0
  5
2D11
 10
2.68482
 20
31.2643
 30
0.000000
  70
    32
  0
VERTEX
  8
0
  5
2D12
 10
2.69996
 20
31.2643
 30
0.000000
  70
    32
  0
VERTEX
  8
0
  5
2D13
 10
2.71511
 20
31.2642
 30
0.000000
  70
    32
  0
VERTEX
  8
0
  5
2D14
 10
2.73026
 20
31.2641
 30
0.000000
  70
    32
  0
VERTEX
  8
0
  5
2D15
 10
2.74541
 20
31.2641
 30
0.000000
  70
    32
  0
VERTEX
  8
0
  5
2D16
 10
2.76056
 20
31.2640
 30
0.000000
  70
    32
  0
VERTEX
  8
0
  5
2D17
 10
2.77571
 20
31.2640
 30
0.000000
  70
    32
  0
VERTEX
  8
0
  5
2D18
 10
2.79085
 20
31.2639
 30
0.000000
  70
    32
  0
VERTEX
  8
0
  5
2D19
 10
2.80600
 20
31.2638
 30
0.000000
  70
    32
  0
VERTEX
  8
0
  5
2D1A
 10
2.82115
 20
31.2638
 30
0.000000
  70
    32
  0
VERTEX
  8
0
  5
2D1B
 10
2.83630
 20
31.2637
 30
0.000000
  70
    32
  0
VERTEX
  8
0
  5
2D1C
 10
2.85145
 20
31.2636
 30
0.000000
  70
    32
  0
VERTEX
  8
0
  5
2D1D
 10
2.86660
 20
31.2636
 30
0.000000
  70
    32
  0
VERTEX
  8
0
  5
2D1E
 10
2.88175
 20
31.2635
 30
0.000000
  70
    32
  0
VERTEX
  8
0
  5
2D1F
 10
2.89689
 20
31.2634
 30
0.000000
  70
    32
  0
VERTEX
  8
0
  5
2D20
 10
2.91204
 20
31.2633
 30
0.000000
  70
    32
  0
VERTEX
  8
0
  5
2D21
 10
2.92719
 20
31.2633
 30
0.000000
  70
    32
  0
VERTEX
  8
0
  5
2D22
 10
2.94234
 20
31.2632
 30
0.000000
  70
    32
  0
VERTEX
  8
0
  5
2D23
 10
2.95749
 20
31.2631
 30
0.000000
  70
    32
  0
VERTEX
  8
0
  5
2D24
 10
2.97264
 20
31.2630
 30
0.000000
  70
    32
  0
VERTEX
  8
0
  5
2D25
 10
2.98778
 20
31.2630
 30
0.000000
  70
    32
  0
VERTEX
  8
0
  5
2D26
 10
3.00293
 20
31.2629
 30
0.000000
  70
    32
  0
VERTEX
  8
0
  5
2D27
 10
3.01808
 20
31.2628
 30
0.000000
  70
    32
  0
VERTEX
  8
0
  5
2D28
 10
3.03323
 20
31.2627
 30
0.000000
  70
    32
  0
VERTEX
  8
0
  5
2D29
 10
3.04838
 20
31.2626
 30
0.000000
  70
    32
  0
VERTEX
  8
0
  5
2D2A
 10
3.06353
 20
31.2625
 30
0.000000
  70
    32
  0
VERTEX
  8
0
  5
2D2B
 10
3.07867
 20
31.2624
 30
0.000000
  70
    32
  0
VERTEX
  8
0
  5
2D2C
 10
3.09382
 20
31.2623
 30
0.000000
  70
    32
  0
VERTEX
  8
0
  5
2D2D
 10
3.10897
 20
31.2623
 30
0.000000
  70
    32
  0
VERTEX
  8
0
  5
2D2E
 10
3.12412
 20
31.2622
 30
0.000000
  70
    32
  0
VERTEX
  8
0
  5
2D2F
 10
3.13927
 20
31.2621
 30
0.000000
  70
    32
  0
VERTEX
  8
0
  5
2D30
 10
3.15442
 20
31.2620
 30
0.000000
  70
    32
  0
VERTEX
  8
0
  5
2D31
 10
3.16956
 20
31.2619
 30
0.000000
  70
    32
  0
VERTEX
  8
0
  5
2D32
 10
3.18471
 20
31.2618
 30
0.000000
  70
    32
  0
VERTEX
  8
0
  5
2D33
 10
3.19986
 20
31.2617
 30
0.000000
  70
    32
  0
VERTEX
  8
0
  5
2D34
 10
3.21501
 20
31.2616
 30
0.000000
  70
    32
  0
VERTEX
  8
0
  5
2D35
 10
3.23016
 20
31.2615
 30
0.000000
  70
    32
  0
VERTEX
  8
0
  5
2D36
 10
3.24531
 20
31.2614
 30
0.000000
  70
    32
  0
VERTEX
  8
0
  5
2D37
 10
3.26045
 20
31.2612
 30
0.000000
  70
    32
  0
VERTEX
  8
0
  5
2D38
 10
3.27560
 20
31.2611
 30
0.000000
  70
    32
  0
VERTEX
  8
0
  5
2D39
 10
3.29075
 20
31.2610
 30
0.000000
  70
    32
  0
VERTEX
  8
0
  5
2D3A
 10
3.30590
 20
31.2609
 30
0.000000
  70
    32
  0
VERTEX
  8
0
  5
2D3B
 10
3.32105
 20
31.2608
 30
0.000000
  70
    32
  0
VERTEX
  8
0
  5
2D3C
 10
3.33619
 20
31.2607
 30
0.000000
  70
    32
  0
VERTEX
  8
0
  5
2D3D
 10
3.35134
 20
31.2606
 30
0.000000
  70
    32
  0
VERTEX
  8
0
  5
2D3E
 10
3.36649
 20
31.2604
 30
0.000000
  70
    32
  0
VERTEX
  8
0
  5
2D3F
 10
3.38164
 20
31.2603
 30
0.000000
  70
    32
  0
VERTEX
  8
0
  5
2D40
 10
3.39679
 20
31.2602
 30
0.000000
  70
    32
  0
VERTEX
  8
0
  5
2D41
 10
3.41194
 20
31.2601
 30
0.000000
  70
    32
  0
VERTEX
  8
0
  5
2D42
 10
3.42708
 20
31.2600
 30
0.000000
  70
    32
  0
VERTEX
  8
0
  5
2D43
 10
3.44223
 20
31.2598
 30
0.000000
  70
    32
  0
VERTEX
  8
0
  5
2D44
 10
3.45738
 20
31.2597
 30
0.000000
  70
    32
  0
VERTEX
  8
0
  5
2D45
 10
3.47253
 20
31.2596
 30
0.000000
  70
    32
  0
VERTEX
  8
0
  5
2D46
 10
3.48768
 20
31.2594
 30
0.000000
  70
    32
  0
VERTEX
  8
0
  5
2D47
 10
3.50282
 20
31.2593
 30
0.000000
  70
    32
  0
VERTEX
  8
0
  5
2D48
 10
3.51797
 20
31.2592
 30
0.000000
  70
    32
  0
VERTEX
  8
0
  5
2D49
 10
3.53312
 20
31.2590
 30
0.000000
  70
    32
  0
VERTEX
  8
0
  5
2D4A
 10
3.54827
 20
31.2589
 30
0.000000
  70
    32
  0
VERTEX
  8
0
  5
2D4B
 10
3.56342
 20
31.2588
 30
0.000000
  70
    32
  0
VERTEX
  8
0
  5
2D4C
 10
3.57856
 20
31.2586
 30
0.000000
  70
    32
  0
VERTEX
  8
0
  5
2D4D
 10
3.59371
 20
31.2585
 30
0.000000
  70
    32
  0
VERTEX
  8
0
  5
2D4E
 10
3.60886
 20
31.2583
 30
0.000000
  70
    32
  0
VERTEX
  8
0
  5
2D4F
 10
3.62401
 20
31.2582
 30
0.000000
  70
    32
  0
VERTEX
  8
0
  5
2D50
 10
3.63915
 20
31.2580
 30
0.000000
  70
    32
  0
VERTEX
  8
0
  5
2D51
 10
3.65430
 20
31.2579
 30
0.000000
  70
    32
  0
VERTEX
  8
0
  5
2D52
 10
3.66945
 20
31.2577
 30
0.000000
  70
    32
  0
VERTEX
  8
0
  5
2D53
 10
3.68460
 20
31.2576
 30
0.000000
  70
    32
  0
VERTEX
  8
0
  5
2D54
 10
3.69975
 20
31.2574
 30
0.000000
  70
    32
  0
VERTEX
  8
0
  5
2D55
 10
3.71489
 20
31.2573
 30
0.000000
  70
    32
  0
VERTEX
  8
0
  5
2D56
 10
3.73004
 20
31.2571
 30
0.000000
  70
    32
  0
SEQEND
  8
0
  5
2D57
  0
POLYLINE
  8
0
  5
2D58
  62
7
  66
     1
 10
0.000000
 20
0.000000
 30
0.000000
  70
     8
  0
VERTEX
  8
0
  5
2D59
 10
0.191912
 20
31.2561
 30
0.000000
  70
    32
  0
VERTEX
  8
0
  5
2D5A
 10
0.192260
 20
31.2558
 30
0.000000
  70
    32
  0
VERTEX
  8
0
  5
2D5B
 10
0.192659
 20
31.2557
 30
0.000000
  70
    32
  0
VERTEX
  8
0
  5
2D5C
 10
0.193099
 20
31.2556
 30
0.000000
  70
    32
  0
VERTEX
  8
0
  5
2D5D
 10
0.193571
 20
31.2556
 30
0.000000
  70
    32
  0
VERTEX
  8
0
  5
2D5E
 10
0.194065
 20
31.2556
 30
0.000000
  70
    32
  0
VERTEX
  8
0
  5
2D5F
 10
0.194572
 20
31.2557
 30
0.000000
  70
    32
  0
VERTEX
  8
0
  5
2D60
 10
0.195081
 20
31.2558
 30
0.000000
  70
    32
  0
VERTEX
  8
0
  5
2D61
 10
0.195584
 20
31.2558
 30
0.000000
  70
    32
  0
VERTEX
  8
0
  5
2D62
 10
0.196080
 20
31.2559
 30
0.000000
  70
    32
  0
VERTEX
  8
0
  5
2D63
 10
0.196567
 20
31.2559
 30
0.000000
  70
    32
  0
VERTEX
  8
0
  5
2D64
 10
0.197048
 20
31.2560
 30
0.000000
  70
    32
  0
VERTEX
  8
0
  5
2D65
 10
0.197522
 20
31.2560
 30
0.000000
  70
    32
  0
VERTEX
  8
0
  5
2D66
 10
0.197990
 20
31.2560
 30
0.000000
  70
    32
  0
VERTEX
  8
0
  5
2D67
 10
0.198453
 20
31.2560
 30
0.000000
  70
    32
  0
VERTEX
  8
0
  5
2D68
 10
0.198910
 20
31.2560
 30
0.000000
  70
    32
  0
VERTEX
  8
0
  5
2D69
 10
0.199364
 20
31.2560
 30
0.000000
  70
    32
  0
VERTEX
  8
0
  5
2D6A
 10
0.199813
 20
31.2559
 30
0.000000
  70
    32
  0
VERTEX
  8
0
  5
2D6B
 10
0.200259
 20
31.2559
 30
0.000000
  70
    32
  0
VERTEX
  8
0
  5
2D6C
 10
0.200702
 20
31.2559
 30
0.000000
  70
    32
  0
VERTEX
  8
0
  5
2D6D
 10
0.201143
 20
31.2558
 30
0.000000
  70
    32
  0
VERTEX
  8
0
  5
2D6E
 10
0.201582
 20
31.2558
 30
0.000000
  70
    32
  0
VERTEX
  8
0
  5
2D6F
 10
0.202019
 20
31.2558
 30
0.000000
  70
    32
  0
VERTEX
  8
0
  5
2D70
 10
0.202456
 20
31.2557
 30
0.000000
  70
    32
  0
VERTEX
  8
0
  5
2D71
 10
0.202893
 20
31.2557
 30
0.000000
  70
    32
  0
VERTEX
  8
0
  5
2D72
 10
0.203329
 20
31.2557
 30
0.000000
  70
    32
  0
VERTEX
  8
0
  5
2D73
 10
0.203767
 20
31.2556
 30
0.000000
  70
    32
  0
VERTEX
  8
0
  5
2D74
 10
0.204206
 20
31.2556
 30
0.000000
  70
    32
  0
VERTEX
  8
0
  5
2D75
 10
0.204647
 20
31.2555
 30
0.000000
  70
    32
  0
VERTEX
  8
0
  5
2D76
 10
0.205090
 20
31.2555
 30
0.000000
  70
    32
  0
VERTEX
  8
0
  5
2D77
 10
0.205534
 20
31.2555
 30
0.000000
  70
    32
  0
VERTEX
  8
0
  5
2D78
 10
0.205979
 20
31.2555
 30
0.000000
  70
    32
  0
VERTEX
  8
0
  5
2D79
 10
0.206426
 20
31.2554
 30
0.000000
  70
    32
  0
VERTEX
  8
0
  5
2D7A
 10
0.206875
 20
31.2554
 30
0.000000
  70
    32
  0
VERTEX
  8
0
  5
2D7B
 10
0.207325
 20
31.2554
 30
0.000000
  70
    32
  0
VERTEX
  8
0
  5
2D7C
 10
0.207776
 20
31.2554
 30
0.000000
  70
    32
  0
VERTEX
  8
0
  5
2D7D
 10
0.208228
 20
31.2554
 30
0.000000
  70
    32
  0
VERTEX
  8
0
  5
2D7E
 10
0.208682
 20
31.2554
 30
0.000000
  70
    32
  0
VERTEX
  8
0
  5
2D7F
 10
0.209136
 20
31.2554
 30
0.000000
  70
    32
  0
VERTEX
  8
0
  5
2D80
 10
0.209592
 20
31.2554
 30
0.000000
  70
    32
  0
VERTEX
  8
0
  5
2D81
 10
0.210048
 20
31.2554
 30
0.000000
  70
    32
  0
VERTEX
  8
0
  5
2D82
 10
0.210506
 20
31.2554
 30
0.000000
  70
    32
  0
VERTEX
  8
0
  5
2D83
 10
0.210964
 20
31.2554
 30
0.000000
  70
    32
  0
VERTEX
  8
0
  5
2D84
 10
0.211423
 20
31.2554
 30
0.000000
  70
    32
  0
VERTEX
  8
0
  5
2D85
 10
0.211882
 20
31.2554
 30
0.000000
  70
    32
  0
VERTEX
  8
0
  5
2D86
 10
0.212342
 20
31.2554
 30
0.000000
  70
    32
  0
VERTEX
  8
0
  5
2D87
 10
0.212803
 20
31.2554
 30
0.000000
  70
    32
  0
VERTEX
  8
0
  5
2D88
 10
0.213264
 20
31.2554
 30
0.000000
  70
    32
  0
VERTEX
  8
0
  5
2D89
 10
0.213725
 20
31.2554
 30
0.000000
  70
    32
  0
VERTEX
  8
0
  5
2D8A
 10
0.214187
 20
31.2554
 30
0.000000
  70
    32
  0
VERTEX
  8
0
  5
2D8B
 10
0.214649
 20
31.2554
 30
0.000000
  70
    32
  0
VERTEX
  8
0
  5
2D8C
 10
0.215111
 20
31.2554
 30
0.000000
  70
    32
  0
VERTEX
  8
0
  5
2D8D
 10
0.215573
 20
31.2554
 30
0.000000
  70
    32
  0
VERTEX
  8
0
  5
2D8E
 10
0.216036
 20
31.2554
 30
0.000000
  70
    32
  0
VERTEX
  8
0
  5
2D8F
 10
0.216498
 20
31.2555
 30
0.000000
  70
    32
  0
VERTEX
  8
0
  5
2D90
 10
0.216960
 20
31.2555
 30
0.000000
  70
    32
  0
VERTEX
  8
0
  5
2D91
 10
0.217422
 20
31.2555
 30
0.000000
  70
    32
  0
VERTEX
  8
0
  5
2D92
 10
0.217884
 20
31.2555
 30
0.000000
  70
    32
  0
VERTEX
  8
0
  5
2D93
 10
0.218345
 20
31.2555
 30
0.000000
  70
    32
  0
VERTEX
  8
0
  5
2D94
 10
0.218806
 20
31.2555
 30
0.000000
  70
    32
  0
VERTEX
  8
0
  5
2D95
 10
0.219267
 20
31.2555
 30
0.000000
  70
    32
  0
VERTEX
  8
0
  5
2D96
 10
0.219727
 20
31.2555
 30
0.000000
  70
    32
  0
VERTEX
  8
0
  5
2D97
 10
0.220187
 20
31.2555
 30
0.000000
  70
    32
  0
VERTEX
  8
0
  5
2D98
 10
0.220647
 20
31.2555
 30
0.000000
  70
    32
  0
VERTEX
  8
0
  5
2D99
 10
0.221106
 20
31.2555
 30
0.000000
  70
    32
  0
VERTEX
  8
0
  5
2D9A
 10
0.221565
 20
31.2555
 30
0.000000
  70
    32
  0
VERTEX
  8
0
  5
2D9B
 10
0.222023
 20
31.2555
 30
0.000000
  70
    32
  0
VERTEX
  8
0
  5
2D9C
 10
0.222481
 20
31.2555
 30
0.000000
  70
    32
  0
VERTEX
  8
0
  5
2D9D
 10
0.222939
 20
31.2555
 30
0.000000
  70
    32
  0
VERTEX
  8
0
  5
2D9E
 10
0.223397
 20
31.2555
 30
0.000000
  70
    32
  0
VERTEX
  8
0
  5
2D9F
 10
0.223854
 20
31.2555
 30
0.000000
  70
    32
  0
VERTEX
  8
0
  5
2DA0
 10
0.224311
 20
31.2555
 30
0.000000
  70
    32
  0
VERTEX
  8
0
  5
2DA1
 10
0.224768
 20
31.2555
 30
0.000000
  70
    32
  0
VERTEX
  8
0
  5
2DA2
 10
0.225224
 20
31.2555
 30
0.000000
  70
    32
  0
VERTEX
  8
0
  5
2DA3
 10
0.225681
 20
31.2555
 30
0.000000
  70
    32
  0
VERTEX
  8
0
  5
2DA4
 10
0.226137
 20
31.2555
 30
0.000000
  70
    32
  0
VERTEX
  8
0
  5
2DA5
 10
0.226593
 20
31.2555
 30
0.000000
  70
    32
  0
VERTEX
  8
0
  5
2DA6
 10
0.227049
 20
31.2555
 30
0.000000
  70
    32
  0
VERTEX
  8
0
  5
2DA7
 10
0.227504
 20
31.2555
 30
0.000000
  70
    32
  0
VERTEX
  8
0
  5
2DA8
 10
0.227959
 20
31.2555
 30
0.000000
  70
    32
  0
VERTEX
  8
0
  5
2DA9
 10
0.228415
 20
31.2555
 30
0.000000
  70
    32
  0
VERTEX
  8
0
  5
2DAA
 10
0.228870
 20
31.2555
 30
0.000000
  70
    32
  0
VERTEX
  8
0
  5
2DAB
 10
0.229325
 20
31.2555
 30
0.000000
  70
    32
  0
VERTEX
  8
0
  5
2DAC
 10
0.229779
 20
31.2555
 30
0.000000
  70
    32
  0
VERTEX
  8
0
  5
2DAD
 10
0.230234
 20
31.2555
 30
0.000000
  70
    32
  0
VERTEX
  8
0
  5
2DAE
 10
0.230689
 20
31.2555
 30
0.000000
  70
    32
  0
VERTEX
  8
0
  5
2DAF
 10
0.231143
 20
31.2555
 30
0.000000
  70
    32
  0
VERTEX
  8
0
  5
2DB0
 10
0.231597
 20
31.2555
 30
0.000000
  70
    32
  0
VERTEX
  8
0
  5
2DB1
 10
0.232052
 20
31.2555
 30
0.000000
  70
    32
  0
VERTEX
  8
0
  5
2DB2
 10
0.232506
 20
31.2555
 30
0.000000
  70
    32
  0
VERTEX
  8
0
  5
2DB3
 10
0.232960
 20
31.2555
 30
0.000000
  70
    32
  0
VERTEX
  8
0
  5
2DB4
 10
0.233414
 20
31.2555
 30
0.000000
  70
    32
  0
VERTEX
  8
0
  5
2DB5
 10
0.233869
 20
31.2555
 30
0.000000
  70
    32
  0
VERTEX
  8
0
  5
2DB6
 10
0.234323
 20
31.2555
 30
0.000000
  70
    32
  0
VERTEX
  8
0
  5
2DB7
 10
0.234777
 20
31.2555
 30
0.000000
  70
    32
  0
VERTEX
  8
0
  5
2DB8
 10
0.235231
 20
31.2555
 30
0.000000
  70
    32
  0
VERTEX
  8
0
  5
2DB9
 10
0.235685
 20
31.2555
 30
0.000000
  70
    32
  0
VERTEX
  8
0
  5
2DBA
 10
0.236140
 20
31.2555
 30
0.000000
  70
    32
  0
VERTEX
  8
0
  5
2DBB
 10
0.236594
 20
31.2555
 30
0.000000
  70
    32
  0
VERTEX
  8
0
  5
2DBC
 10
0.237048
 20
31.2555
 30
0.000000
  70
    32
  0
VERTEX
  8
0
  5
2DBD
 10
0.237503
 20
31.2555
 30
0.000000
  70
    32
  0
VERTEX
  8
0
  5
2DBE
 10
0.237957
 20
31.2555
 30
0.000000
  70
    32
  0
VERTEX
  8
0
  5
2DBF
 10
0.238412
 20
31.2555
 30
0.000000
  70
    32
  0
VERTEX
  8
0
  5
2DC0
 10
0.238867
 20
31.2555
 30
0.000000
  70
    32
  0
VERTEX
  8
0
  5
2DC1
 10
0.239322
 20
31.2555
 30
0.000000
  70
    32
  0
VERTEX
  8
0
  5
2DC2
 10
0.239776
 20
31.2555
 30
0.000000
  70
    32
  0
VERTEX
  8
0
  5
2DC3
 10
0.240231
 20
31.2555
 30
0.000000
  70
    32
  0
VERTEX
  8
0
  5
2DC4
 10
0.240687
 20
31.2555
 30
0.000000
  70
    32
  0
VERTEX
  8
0
  5
2DC5
 10
0.241142
 20
31.2555
 30
0.000000
  70
    32
  0
VERTEX
  8
0
  5
2DC6
 10
0.241597
 20
31.2555
 30
0.000000
  70
    32
  0
VERTEX
  8
0
  5
2DC7
 10
0.242052
 20
31.2555
 30
0.000000
  70
    32
  0
VERTEX
  8
0
  5
2DC8
 10
0.242508
 20
31.2555
 30
0.000000
  70
    32
  0
VERTEX
  8
0
  5
2DC9
 10
0.242963
 20
31.2555
 30
0.000000
  70
    32
  0
VERTEX
  8
0
  5
2DCA
 10
0.243419
 20
31.2555
 30
0.000000
  70
    32
  0
VERTEX
  8
0
  5
2DCB
 10
0.243874
 20
31.2555
 30
0.000000
  70
    32
  0
VERTEX
  8
0
  5
2DCC
 10
0.244330
 20
31.2555
 30
0.000000
  70
    32
  0
VERTEX
  8
0
  5
2DCD
 10
0.244786
 20
31.2555
 30
0.000000
  70
    32
  0
VERTEX
  8
0
  5
2DCE
 10
0.245242
 20
31.2555
 30
0.000000
  70
    32
  0
VERTEX
  8
0
  5
2DCF
 10
0.245698
 20
31.2555
 30
0.000000
  70
    32
  0
VERTEX
  8
0
  5
2DD0
 10
0.246154
 20
31.2555
 30
0.000000
  70
    32
  0
VERTEX
  8
0
  5
2DD1
 10
0.246610
 20
31.2555
 30
0.000000
  70
    32
  0
VERTEX
  8
0
  5
2DD2
 10
0.247066
 20
31.2555
 30
0.000000
  70
    32
  0
VERTEX
  8
0
  5
2DD3
 10
0.247522
 20
31.2555
 30
0.000000
  70
    32
  0
VERTEX
  8
0
  5
2DD4
 10
0.247978
 20
31.2555
 30
0.000000
  70
    32
  0
VERTEX
  8
0
  5
2DD5
 10
0.248434
 20
31.2555
 30
0.000000
  70
    32
  0
VERTEX
  8
0
  5
2DD6
 10
0.248890
 20
31.2555
 30
0.000000
  70
    32
  0
VERTEX
  8
0
  5
2DD7
 10
0.249346
 20
31.2555
 30
0.000000
  70
    32
  0
VERTEX
  8
0
  5
2DD8
 10
0.249803
 20
31.2555
 30
0.000000
  70
    32
  0
VERTEX
  8
0
  5
2DD9
 10
0.250259
 20
31.2555
 30
0.000000
  70
    32
  0
VERTEX
  8
0
  5
2DDA
 10
0.250716
 20
31.2555
 30
0.000000
  70
    32
  0
VERTEX
  8
0
  5
2DDB
 10
0.251172
 20
31.2555
 30
0.000000
  70
    32
  0
VERTEX
  8
0
  5
2DDC
 10
0.251628
 20
31.2555
 30
0.000000
  70
    32
  0
VERTEX
  8
0
  5
2DDD
 10
0.252085
 20
31.2555
 30
0.000000
  70
    32
  0
VERTEX
  8
0
  5
2DDE
 10
0.252541
 20
31.2555
 30
0.000000
  70
    32
  0
VERTEX
  8
0
  5
2DDF
 10
0.252998
 20
31.2555
 30
0.000000
  70
    32
  0
VERTEX
  8
0
  5
2DE0
 10
0.253454
 20
31.2555
 30
0.000000
  70
    32
  0
VERTEX
  8
0
  5
2DE1
 10
0.253911
 20
31.2555
 30
0.000000
  70
    32
  0
VERTEX
  8
0
  5
2DE2
 10
0.254367
 20
31.2555
 30
0.000000
  70
    32
  0
VERTEX
  8
0
  5
2DE3
 10
0.254824
 20
31.2555
 30
0.000000
  70
    32
  0
VERTEX
  8
0
  5
2DE4
 10
0.255281
 20
31.2555
 30
0.000000
  70
    32
  0
VERTEX
  8
0
  5
2DE5
 10
0.255737
 20
31.2555
 30
0.000000
  70
    32
  0
VERTEX
  8
0
  5
2DE6
 10
0.256194
 20
31.2555
 30
0.000000
  70
    32
  0
VERTEX
  8
0
  5
2DE7
 10
0.256650
 20
31.2555
 30
0.000000
  70
    32
  0
VERTEX
  8
0
  5
2DE8
 10
0.257107
 20
31.2555
 30
0.000000
  70
    32
  0
VERTEX
  8
0
  5
2DE9
 10
0.257564
 20
31.2555
 30
0.000000
  70
    32
  0
VERTEX
  8
0
  5
2DEA
 10
0.258020
 20
31.2555
 30
0.000000
  70
    32
  0
VERTEX
  8
0
  5
2DEB
 10
0.258477
 20
31.2555
 30
0.000000
  70
    32
  0
VERTEX
  8
0
  5
2DEC
 10
0.258934
 20
31.2555
 30
0.000000
  70
    32
  0
VERTEX
  8
0
  5
2DED
 10
0.259390
 20
31.2555
 30
0.000000
  70
    32
  0
VERTEX
  8
0
  5
2DEE
 10
0.259847
 20
31.2555
 30
0.000000
  70
    32
  0
VERTEX
  8
0
  5
2DEF
 10
0.260303
 20
31.2555
 30
0.000000
  70
    32
  0
VERTEX
  8
0
  5
2DF0
 10
0.260760
 20
31.2555
 30
0.000000
  70
    32
  0
VERTEX
  8
0
  5
2DF1
 10
0.261216
 20
31.2556
 30
0.000000
  70
    32
  0
VERTEX
  8
0
  5
2DF2
 10
0.261673
 20
31.2556
 30
0.000000
  70
    32
  0
VERTEX
  8
0
  5
2DF3
 10
0.262129
 20
31.2556
 30
0.000000
  70
    32
  0
VERTEX
  8
0
  5
2DF4
 10
0.262586
 20
31.2556
 30
0.000000
  70
    32
  0
VERTEX
  8
0
  5
2DF5
 10
0.263042
 20
31.2556
 30
0.000000
  70
    32
  0
VERTEX
  8
0
  5
2DF6
 10
0.263498
 20
31.2556
 30
0.000000
  70
    32
  0
VERTEX
  8
0
  5
2DF7
 10
0.263955
 20
31.2556
 30
0.000000
  70
    32
  0
VERTEX
  8
0
  5
2DF8
 10
0.264411
 20
31.2556
 30
0.000000
  70
    32
  0
VERTEX
  8
0
  5
2DF9
 10
0.264868
 20
31.2556
 30
0.000000
  70
    32
  0
VERTEX
  8
0
  5
2DFA
 10
0.265324
 20
31.2556
 30
0.000000
  70
    32
  0
VERTEX
  8
0
  5
2DFB
 10
0.265780
 20
31.2556
 30
0.000000
  70
    32
  0
VERTEX
  8
0
  5
2DFC
 10
0.266236
 20
31.2556
 30
0.000000
  70
    32
  0
VERTEX
  8
0
  5
2DFD
 10
0.266693
 20
31.2556
 30
0.000000
  70
    32
  0
VERTEX
  8
0
  5
2DFE
 10
0.267149
 20
31.2556
 30
0.000000
  70
    32
  0
VERTEX
  8
0
  5
2DFF
 10
0.267605
 20
31.2556
 30
0.000000
  70
    32
  0
VERTEX
  8
0
  5
2E00
 10
0.268061
 20
31.2556
 30
0.000000
  70
    32
  0
VERTEX
  8
0
  5
2E01
 10
0.268518
 20
31.2556
 30
0.000000
  70
    32
  0
VERTEX
  8
0
  5
2E02
 10
0.268974
 20
31.2556
 30
0.000000
  70
    32
  0
VERTEX
  8
0
  5
2E03
 10
0.269430
 20
31.2556
 30
0.000000
  70
    32
  0
VERTEX
  8
0
  5
2E04
 10
0.269886
 20
31.2556
 30
0.000000
  70
    32
  0
VERTEX
  8
0
  5
2E05
 10
0.270342
 20
31.2556
 30
0.000000
  70
    32
  0
VERTEX
  8
0
  5
2E06
 10
0.270798
 20
31.2556
 30
0.000000
  70
    32
  0
VERTEX
  8
0
  5
2E07
 10
0.271254
 20
31.2556
 30
0.000000
  70
    32
  0
VERTEX
  8
0
  5
2E08
 10
0.271710
 20
31.2556
 30
0.000000
  70
    32
  0
VERTEX
  8
0
  5
2E09
 10
0.272166
 20
31.2556
 30
0.000000
  70
    32
  0
VERTEX
  8
0
  5
2E0A
 10
0.272622
 20
31.2556
 30
0.000000
  70
    32
  0
VERTEX
  8
0
  5
2E0B
 10
0.273079
 20
31.2556
 30
0.000000
  70
    32
  0
VERTEX
  8
0
  5
2E0C
 10
0.273535
 20
31.2556
 30
0.000000
  70
    32
  0
VERTEX
  8
0
  5
2E0D
 10
0.273991
 20
31.2556
 30
0.000000
  70
    32
  0
VERTEX
  8
0
  5
2E0E
 10
0.274447
 20
31.2556
 30
0.000000
  70
    32
  0
VERTEX
  8
0
  5
2E0F
 10
0.274903
 20
31.2556
 30
0.000000
  70
    32
  0
VERTEX
  8
0
  5
2E10
 10
0.275359
 20
31.2556
 30
0.000000
  70
    32
  0
VERTEX
  8
0
  5
2E11
 10
0.275815
 20
31.2556
 30
0.000000
  70
    32
  0
VERTEX
  8
0
  5
2E12
 10
0.276270
 20
31.2556
 30
0.000000
  70
    32
  0
VERTEX
  8
0
  5
2E13
 10
0.276726
 20
31.2556
 30
0.000000
  70
    32
  0
VERTEX
  8
0
  5
2E14
 10
0.277182
 20
31.2556
 30
0.000000
  70
    32
  0
VERTEX
  8
0
  5
2E15
 10
0.277638
 20
31.2556
 30
0.000000
  70
    32
  0
VERTEX
  8
0
  5
2E16
 10
0.278094
 20
31.2556
 30
0.000000
  70
    32
  0
VERTEX
  8
0
  5
2E17
 10
0.278550
 20
31.2556
 30
0.000000
  70
    32
  0
VERTEX
  8
0
  5
2E18
 10
0.279006
 20
31.2556
 30
0.000000
  70
    32
  0
VERTEX
  8
0
  5
2E19
 10
0.279462
 20
31.2556
 30
0.000000
  70
    32
  0
VERTEX
  8
0
  5
2E1A
 10
0.279918
 20
31.2557
 30
0.000000
  70
    32
  0
VERTEX
  8
0
  5
2E1B
 10
0.280374
 20
31.2557
 30
0.000000
  70
    32
  0
VERTEX
  8
0
  5
2E1C
 10
0.280830
 20
31.2557
 30
0.000000
  70
    32
  0
VERTEX
  8
0
  5
2E1D
 10
0.281286
 20
31.2557
 30
0.000000
  70
    32
  0
VERTEX
  8
0
  5
2E1E
 10
0.281742
 20
31.2557
 30
0.000000
  70
    32
  0
VERTEX
  8
0
  5
2E1F
 10
0.282198
 20
31.2557
 30
0.000000
  70
    32
  0
VERTEX
  8
0
  5
2E20
 10
0.282653
 20
31.2557
 30
0.000000
  70
    32
  0
VERTEX
  8
0
  5
2E21
 10
0.283109
 20
31.2557
 30
0.000000
  70
    32
  0
VERTEX
  8
0
  5
2E22
 10
0.283565
 20
31.2557
 30
0.000000
  70
    32
  0
VERTEX
  8
0
  5
2E23
 10
0.284021
 20
31.2557
 30
0.000000
  70
    32
  0
VERTEX
  8
0
  5
2E24
 10
0.284477
 20
31.2557
 30
0.000000
  70
    32
  0
VERTEX
  8
0
  5
2E25
 10
0.284933
 20
31.2557
 30
0.000000
  70
    32
  0
VERTEX
  8
0
  5
2E26
 10
0.285389
 20
31.2557
 30
0.000000
  70
    32
  0
VERTEX
  8
0
  5
2E27
 10
0.285845
 20
31.2557
 30
0.000000
  70
    32
  0
VERTEX
  8
0
  5
2E28
 10
0.286301
 20
31.2557
 30
0.000000
  70
    32
  0
VERTEX
  8
0
  5
2E29
 10
0.286756
 20
31.2557
 30
0.000000
  70
    32
  0
VERTEX
  8
0
  5
2E2A
 10
0.287212
 20
31.2557
 30
0.000000
  70
    32
  0
VERTEX
  8
0
  5
2E2B
 10
0.287668
 20
31.2557
 30
0.000000
  70
    32
  0
VERTEX
  8
0
  5
2E2C
 10
0.288124
 20
31.2557
 30
0.000000
  70
    32
  0
VERTEX
  8
0
  5
2E2D
 10
0.288580
 20
31.2557
 30
0.000000
  70
    32
  0
VERTEX
  8
0
  5
2E2E
 10
0.289036
 20
31.2557
 30
0.000000
  70
    32
  0
VERTEX
  8
0
  5
2E2F
 10
0.289492
 20
31.2557
 30
0.000000
  70
    32
  0
VERTEX
  8
0
  5
2E30
 10
0.289948
 20
31.2557
 30
0.000000
  70
    32
  0
VERTEX
  8
0
  5
2E31
 10
0.290404
 20
31.2557
 30
0.000000
  70
    32
  0
VERTEX
  8
0
  5
2E32
 10
0.290860
 20
31.2557
 30
0.000000
  70
    32
  0
VERTEX
  8
0
  5
2E33
 10
0.291316
 20
31.2557
 30
0.000000
  70
    32
  0
VERTEX
  8
0
  5
2E34
 10
0.291772
 20
31.2557
 30
0.000000
  70
    32
  0
VERTEX
  8
0
  5
2E35
 10
0.292228
 20
31.2557
 30
0.000000
  70
    32
  0
VERTEX
  8
0
  5
2E36
 10
0.292684
 20
31.2557
 30
0.000000
  70
    32
  0
VERTEX
  8
0
  5
2E37
 10
0.293140
 20
31.2557
 30
0.000000
  70
    32
  0
VERTEX
  8
0
  5
2E38
 10
0.293596
 20
31.2557
 30
0.000000
  70
    32
  0
VERTEX
  8
0
  5
2E39
 10
0.294052
 20
31.2557
 30
0.000000
  70
    32
  0
VERTEX
  8
0
  5
2E3A
 10
0.294508
 20
31.2557
 30
0.000000
  70
    32
  0
VERTEX
  8
0
  5
2E3B
 10
0.294964
 20
31.2557
 30
0.000000
  70
    32
  0
VERTEX
  8
0
  5
2E3C
 10
0.295420
 20
31.2557
 30
0.000000
  70
    32
  0
VERTEX
  8
0
  5
2E3D
 10
0.295876
 20
31.2557
 30
0.000000
  70
    32
  0
VERTEX
  8
0
  5
2E3E
 10
0.296332
 20
31.2557
 30
0.000000
  70
    32
  0
VERTEX
  8
0
  5
2E3F
 10
0.296788
 20
31.2558
 30
0.000000
  70
    32
  0
VERTEX
  8
0
  5
2E40
 10
0.297244
 20
31.2558
 30
0.000000
  70
    32
  0
VERTEX
  8
0
  5
2E41
 10
0.297700
 20
31.2558
 30
0.000000
  70
    32
  0
VERTEX
  8
0
  5
2E42
 10
0.298156
 20
31.2558
 30
0.000000
  70
    32
  0
VERTEX
  8
0
  5
2E43
 10
0.298612
 20
31.2558
 30
0.000000
  70
    32
  0
VERTEX
  8
0
  5
2E44
 10
0.299068
 20
31.2558
 30
0.000000
  70
    32
  0
VERTEX
  8
0
  5
2E45
 10
0.299524
 20
31.2558
 30
0.000000
  70
    32
  0
VERTEX
  8
0
  5
2E46
 10
0.299980
 20
31.2558
 30
0.000000
  70
    32
  0
VERTEX
  8
0
  5
2E47
 10
0.300436
 20
31.2558
 30
0.000000
  70
    32
  0
VERTEX
  8
0
  5
2E48
 10
0.300892
 20
31.2558
 30
0.000000
  70
    32
  0
VERTEX
  8
0
  5
2E49
 10
0.301348
 20
31.2558
 30
0.000000
  70
    32
  0
VERTEX
  8
0
  5
2E4A
 10
0.301804
 20
31.2558
 30
0.000000
  70
    32
  0
VERTEX
  8
0
  5
2E4B
 10
0.302260
 20
31.2558
 30
0.000000
  70
    32
  0
VERTEX
  8
0
  5
2E4C
 10
0.302716
 20
31.2558
 30
0.000000
  70
    32
  0
VERTEX
  8
0
  5
2E4D
 10
0.303172
 20
31.2558
 30
0.000000
  70
    32
  0
VERTEX
  8
0
  5
2E4E
 10
0.303628
 20
31.2558
 30
0.000000
  70
    32
  0
VERTEX
  8
0
  5
2E4F
 10
0.304084
 20
31.2558
 30
0.000000
  70
    32
  0
VERTEX
  8
0
  5
2E50
 10
0.304541
 20
31.2558
 30
0.000000
  70
    32
  0
VERTEX
  8
0
  5
2E51
 10
0.304997
 20
31.2558
 30
0.000000
  70
    32
  0
VERTEX
  8
0
  5
2E52
 10
0.305453
 20
31.2558
 30
0.000000
  70
    32
  0
VERTEX
  8
0
  5
2E53
 10
0.305909
 20
31.2558
 30
0.000000
  70
    32
  0
VERTEX
  8
0
  5
2E54
 10
0.306365
 20
31.2558
 30
0.000000
  70
    32
  0
VERTEX
  8
0
  5
2E55
 10
0.306821
 20
31.2558
 30
0.000000
  70
    32
  0
VERTEX
  8
0
  5
2E56
 10
0.307277
 20
31.2558
 30
0.000000
  70
    32
  0
VERTEX
  8
0
  5
2E57
 10
0.307733
 20
31.2558
 30
0.000000
  70
    32
  0
VERTEX
  8
0
  5
2E58
 10
0.308189
 20
31.2558
 30
0.000000
  70
    32
  0
VERTEX
  8
0
  5
2E59
 10
0.308645
 20
31.2558
 30
0.000000
  70
    32
  0
VERTEX
  8
0
  5
2E5A
 10
0.309101
 20
31.2558
 30
0.000000
  70
    32
  0
VERTEX
  8
0
  5
2E5B
 10
0.309557
 20
31.2559
 30
0.000000
  70
    32
  0
VERTEX
  8
0
  5
2E5C
 10
0.310013
 20
31.2559
 30
0.000000
  70
    32
  0
VERTEX
  8
0
  5
2E5D
 10
0.310470
 20
31.2559
 30
0.000000
  70
    32
  0
VERTEX
  8
0
  5
2E5E
 10
0.310926
 20
31.2559
 30
0.000000
  70
    32
  0
VERTEX
  8
0
  5
2E5F
 10
0.311382
 20
31.2559
 30
0.000000
  70
    32
  0
VERTEX
  8
0
  5
2E60
 10
0.311838
 20
31.2559
 30
0.000000
  70
    32
  0
VERTEX
  8
0
  5
2E61
 10
0.312294
 20
31.2559
 30
0.000000
  70
    32
  0
VERTEX
  8
0
  5
2E62
 10
0.312750
 20
31.2559
 30
0.000000
  70
    32
  0
VERTEX
  8
0
  5
2E63
 10
0.313206
 20
31.2559
 30
0.000000
  70
    32
  0
VERTEX
  8
0
  5
2E64
 10
0.313662
 20
31.2559
 30
0.000000
  70
    32
  0
VERTEX
  8
0
  5
2E65
 10
0.314118
 20
31.2559
 30
0.000000
  70
    32
  0
VERTEX
  8
0
  5
2E66
 10
0.314574
 20
31.2559
 30
0.000000
  70
    32
  0
VERTEX
  8
0
  5
2E67
 10
0.315030
 20
31.2559
 30
0.000000
  70
    32
  0
VERTEX
  8
0
  5
2E68
 10
0.315487
 20
31.2559
 30
0.000000
  70
    32
  0
VERTEX
  8
0
  5
2E69
 10
0.315943
 20
31.2559
 30
0.000000
  70
    32
  0
VERTEX
  8
0
  5
2E6A
 10
0.316399
 20
31.2559
 30
0.000000
  70
    32
  0
VERTEX
  8
0
  5
2E6B
 10
0.316855
 20
31.2559
 30
0.000000
  70
    32
  0
VERTEX
  8
0
  5
2E6C
 10
0.317311
 20
31.2559
 30
0.000000
  70
    32
  0
VERTEX
  8
0
  5
2E6D
 10
0.317767
 20
31.2559
 30
0.000000
  70
    32
  0
VERTEX
  8
0
  5
2E6E
 10
0.318223
 20
31.2559
 30
0.000000
  70
    32
  0
VERTEX
  8
0
  5
2E6F
 10
0.318679
 20
31.2559
 30
0.000000
  70
    32
  0
VERTEX
  8
0
  5
2E70
 10
0.319135
 20
31.2559
 30
0.000000
  70
    32
  0
VERTEX
  8
0
  5
2E71
 10
0.319591
 20
31.2559
 30
0.000000
  70
    32
  0
VERTEX
  8
0
  5
2E72
 10
0.320047
 20
31.2559
 30
0.000000
  70
    32
  0
VERTEX
  8
0
  5
2E73
 10
0.320503
 20
31.2559
 30
0.000000
  70
    32
  0
VERTEX
  8
0
  5
2E74
 10
0.320959
 20
31.2560
 30
0.000000
  70
    32
  0
VERTEX
  8
0
  5
2E75
 10
0.321416
 20
31.2560
 30
0.000000
  70
    32
  0
VERTEX
  8
0
  5
2E76
 10
0.321872
 20
31.2560
 30
0.000000
  70
    32
  0
VERTEX
  8
0
  5
2E77
 10
0.322328
 20
31.2560
 30
0.000000
  70
    32
  0
VERTEX
  8
0
  5
2E78
 10
0.322784
 20
31.2560
 30
0.000000
  70
    32
  0
VERTEX
  8
0
  5
2E79
 10
0.323240
 20
31.2560
 30
0.000000
  70
    32
  0
VERTEX
  8
0
  5
2E7A
 10
0.323696
 20
31.2560
 30
0.000000
  70
    32
  0
VERTEX
  8
0
  5
2E7B
 10
0.324152
 20
31.2560
 30
0.000000
  70
    32
  0
VERTEX
  8
0
  5
2E7C
 10
0.324608
 20
31.2560
 30
0.000000
  70
    32
  0
VERTEX
  8
0
  5
2E7D
 10
0.325064
 20
31.2560
 30
0.000000
  70
    32
  0
VERTEX
  8
0
  5
2E7E
 10
0.325520
 20
31.2560
 30
0.000000
  70
    32
  0
VERTEX
  8
0
  5
2E7F
 10
0.325976
 20
31.2560
 30
0.000000
  70
    32
  0
VERTEX
  8
0
  5
2E80
 10
0.326432
 20
31.2560
 30
0.000000
  70
    32
  0
VERTEX
  8
0
  5
2E81
 10
0.326888
 20
31.2560
 30
0.000000
  70
    32
  0
VERTEX
  8
0
  5
2E82
 10
0.327344
 20
31.2560
 30
0.000000
  70
    32
  0
VERTEX
  8
0
  5
2E83
 10
0.327800
 20
31.2560
 30
0.000000
  70
    32
  0
VERTEX
  8
0
  5
2E84
 10
0.328256
 20
31.2560
 30
0.000000
  70
    32
  0
VERTEX
  8
0
  5
2E85
 10
0.328712
 20
31.2560
 30
0.000000
  70
    32
  0
VERTEX
  8
0
  5
2E86
 10
0.329168
 20
31.2560
 30
0.000000
  70
    32
  0
VERTEX
  8
0
  5
2E87
 10
0.329624
 20
31.2560
 30
0.000000
  70
    32
  0
VERTEX
  8
0
  5
2E88
 10
0.330081
 20
31.2560
 30
0.000000
  70
    32
  0
VERTEX
  8
0
  5
2E89
 10
0.330537
 20
31.2560
 30
0.000000
  70
    32
  0
VERTEX
  8
0
  5
2E8A
 10
0.330993
 20
31.2560
 30
0.000000
  70
    32
  0
VERTEX
  8
0
  5
2E8B
 10
0.331449
 20
31.2561
 30
0.000000
  70
    32
  0
VERTEX
  8
0
  5
2E8C
 10
0.331905
 20
31.2561
 30
0.000000
  70
    32
  0
VERTEX
  8
0
  5
2E8D
 10
0.332361
 20
31.2561
 30
0.000000
  70
    32
  0
VERTEX
  8
0
  5
2E8E
 10
0.332817
 20
31.2561
 30
0.000000
  70
    32
  0
VERTEX
  8
0
  5
2E8F
 10
0.333273
 20
31.2561
 30
0.000000
  70
    32
  0
VERTEX
  8
0
  5
2E90
 10
0.333729
 20
31.2561
 30
0.000000
  70
    32
  0
VERTEX
  8
0
  5
2E91
 10
0.334185
 20
31.2561
 30
0.000000
  70
    32
  0
VERTEX
  8
0
  5
2E92
 10
0.334641
 20
31.2561
 30
0.000000
  70
    32
  0
VERTEX
  8
0
  5
2E93
 10
0.335097
 20
31.2561
 30
0.000000
  70
    32
  0
VERTEX
  8
0
  5
2E94
 10
0.335553
 20
31.2561
 30
0.000000
  70
    32
  0
VERTEX
  8
0
  5
2E95
 10
0.336009
 20
31.2561
 30
0.000000
  70
    32
  0
VERTEX
  8
0
  5
2E96
 10
0.336465
 20
31.2561
 30
0.000000
  70
    32
  0
VERTEX
  8
0
  5
2E97
 10
0.336921
 20
31.2561
 30
0.000000
  70
    32
  0
VERTEX
  8
0
  5
2E98
 10
0.337377
 20
31.2561
 30
0.000000
  70
    32
  0
VERTEX
  8
0
  5
2E99
 10
0.337833
 20
31.2561
 30
0.000000
  70
    32
  0
VERTEX
  8
0
  5
2E9A
 10
0.338289
 20
31.2561
 30
0.000000
  70
    32
  0
VERTEX
  8
0
  5
2E9B
 10
0.338745
 20
31.2561
 30
0.000000
  70
    32
  0
VERTEX
  8
0
  5
2E9C
 10
0.339201
 20
31.2561
 30
0.000000
  70
    32
  0
VERTEX
  8
0
  5
2E9D
 10
0.339657
 20
31.2561
 30
0.000000
  70
    32
  0
VERTEX
  8
0
  5
2E9E
 10
0.340113
 20
31.2561
 30
0.000000
  70
    32
  0
VERTEX
  8
0
  5
2E9F
 10
0.340569
 20
31.2562
 30
0.000000
  70
    32
  0
VERTEX
  8
0
  5
2EA0
 10
0.341025
 20
31.2562
 30
0.000000
  70
    32
  0
VERTEX
  8
0
  5
2EA1
 10
0.341481
 20
31.2562
 30
0.000000
  70
    32
  0
VERTEX
  8
0
  5
2EA2
 10
0.341937
 20
31.2562
 30
0.000000
  70
    32
  0
VERTEX
  8
0
  5
2EA3
 10
0.342393
 20
31.2562
 30
0.000000
  70
    32
  0
VERTEX
  8
0
  5
2EA4
 10
0.342849
 20
31.2562
 30
0.000000
  70
    32
  0
VERTEX
  8
0
  5
2EA5
 10
0.343305
 20
31.2562
 30
0.000000
  70
    32
  0
VERTEX
  8
0
  5
2EA6
 10
0.343761
 20
31.2562
 30
0.000000
  70
    32
  0
VERTEX
  8
0
  5
2EA7
 10
0.344217
 20
31.2562
 30
0.000000
  70
    32
  0
VERTEX
  8
0
  5
2EA8
 10
0.344673
 20
31.2562
 30
0.000000
  70
    32
  0
VERTEX
  8
0
  5
2EA9
 10
0.345129
 20
31.2562
 30
0.000000
  70
    32
  0
VERTEX
  8
0
  5
2EAA
 10
0.345585
 20
31.2562
 30
0.000000
  70
    32
  0
VERTEX
  8
0
  5
2EAB
 10
0.346041
 20
31.2562
 30
0.000000
  70
    32
  0
VERTEX
  8
0
  5
2EAC
 10
0.346498
 20
31.2562
 30
0.000000
  70
    32
  0
VERTEX
  8
0
  5
2EAD
 10
0.346954
 20
31.2562
 30
0.000000
  70
    32
  0
VERTEX
  8
0
  5
2EAE
 10
0.347410
 20
31.2562
 30
0.000000
  70
    32
  0
VERTEX
  8
0
  5
2EAF
 10
0.347866
 20
31.2562
 30
0.000000
  70
    32
  0
VERTEX
  8
0
  5
2EB0
 10
0.348322
 20
31.2562
 30
0.000000
  70
    32
  0
VERTEX
  8
0
  5
2EB1
 10
0.348778
 20
31.2562
 30
0.000000
  70
    32
  0
VERTEX
  8
0
  5
2EB2
 10
0.349234
 20
31.2563
 30
0.000000
  70
    32
  0
VERTEX
  8
0
  5
2EB3
 10
0.349690
 20
31.2563
 30
0.000000
  70
    32
  0
VERTEX
  8
0
  5
2EB4
 10
0.350146
 20
31.2563
 30
0.000000
  70
    32
  0
VERTEX
  8
0
  5
2EB5
 10
0.350602
 20
31.2563
 30
0.000000
  70
    32
  0
VERTEX
  8
0
  5
2EB6
 10
0.351058
 20
31.2563
 30
0.000000
  70
    32
  0
VERTEX
  8
0
  5
2EB7
 10
0.351514
 20
31.2563
 30
0.000000
  70
    32
  0
VERTEX
  8
0
  5
2EB8
 10
0.351970
 20
31.2563
 30
0.000000
  70
    32
  0
SEQEND
  8
0
  5
2EB9
  0
LINE
  5
FAC
  8
0
  6
CONTINUOUS
 62
     7
 10
0.0
 20
31.061961252480149
 30
0.0
 11
0.0
 21
31.078639099469719
 31
0.0
  0
LINE
  5
FAD
  8
0
  6
CONTINUOUS
 62
     7
 10
0.0
 20
31.078639099469719
 30
0.0
 11
0.0
 21
31.080437059547119
 31
0.0
  0
LINE
  5
FAE
  8
0
  6
CONTINUOUS
 62
     7
 10
0.0
 20
31.06648460291758
 30
0.0
 11
0.0
 21
31.059171045282419
 31
0.0
  0
LINE
  5
FAF
  8
0
  6
CONTINUOUS
 62
     7
 10
0.0
 20
31.080436966965149
 30
0.0
 11
0.0
 21
31.06648460291758
 31
0.0
  0
POLYLINE
  8
DATUM_AXIS
  5
2EBA
  62
7
  66
     1
 10
0.000000
 20
0.000000
 30
0.000000
  70
     8
  0
VERTEX
  8
DATUM_AXIS
  5
2EBB
 10
4.81158
 20
31.4514
 30
0.000000
  70
    32
  0
VERTEX
  8
DATUM_AXIS
  5
2EBC
 10
4.80913
 20
31.4515
 30
0.000000
  70
    32
  0
VERTEX
  8
DATUM_AXIS
  5
2EBD
 10
4.80668
 20
31.4517
 30
0.000000
  70
    32
  0
VERTEX
  8
DATUM_AXIS
  5
2EBE
 10
4.80424
 20
31.4518
 30
0.000000
  70
    32
  0
VERTEX
  8
DATUM_AXIS
  5
2EBF
 10
4.80179
 20
31.4520
 30
0.000000
  70
    32
  0
VERTEX
  8
DATUM_AXIS
  5
2EC0
 10
4.79934
 20
31.4521
 30
0.000000
  70
    32
  0
VERTEX
  8
DATUM_AXIS
  5
2EC1
 10
4.79690
 20
31.4523
 30
0.000000
  70
    32
  0
VERTEX
  8
DATUM_AXIS
  5
2EC2
 10
4.79445
 20
31.4524
 30
0.000000
  70
    32
  0
VERTEX
  8
DATUM_AXIS
  5
2EC3
 10
4.79200
 20
31.4526
 30
0.000000
  70
    32
  0
VERTEX
  8
DATUM_AXIS
  5
2EC4
 10
4.78956
 20
31.4527
 30
0.000000
  70
    32
  0
VERTEX
  8
DATUM_AXIS
  5
2EC5
 10
4.78711
 20
31.4529
 30
0.000000
  70
    32
  0
VERTEX
  8
DATUM_AXIS
  5
2EC6
 10
4.78466
 20
31.4530
 30
0.000000
  70
    32
  0
VERTEX
  8
DATUM_AXIS
  5
2EC7
 10
4.78222
 20
31.4532
 30
0.000000
  70
    32
  0
VERTEX
  8
DATUM_AXIS
  5
2EC8
 10
4.77977
 20
31.4534
 30
0.000000
  70
    32
  0
VERTEX
  8
DATUM_AXIS
  5
2EC9
 10
4.77732
 20
31.4535
 30
0.000000
  70
    32
  0
VERTEX
  8
DATUM_AXIS
  5
2ECA
 10
4.77488
 20
31.4537
 30
0.000000
  70
    32
  0
VERTEX
  8
DATUM_AXIS
  5
2ECB
 10
4.77243
 20
31.4538
 30
0.000000
  70
    32
  0
VERTEX
  8
DATUM_AXIS
  5
2ECC
 10
4.76998
 20
31.4540
 30
0.000000
  70
    32
  0
VERTEX
  8
DATUM_AXIS
  5
2ECD
 10
4.76754
 20
31.4541
 30
0.000000
  70
    32
  0
VERTEX
  8
DATUM_AXIS
  5
2ECE
 10
4.76509
 20
31.4543
 30
0.000000
  70
    32
  0
VERTEX
  8
DATUM_AXIS
  5
2ECF
 10
4.76264
 20
31.4544
 30
0.000000
  70
    32
  0
VERTEX
  8
DATUM_AXIS
  5
2ED0
 10
4.76020
 20
31.4546
 30
0.000000
  70
    32
  0
VERTEX
  8
DATUM_AXIS
  5
2ED1
 10
4.75775
 20
31.4547
 30
0.000000
  70
    32
  0
VERTEX
  8
DATUM_AXIS
  5
2ED2
 10
4.75530
 20
31.4549
 30
0.000000
  70
    32
  0
VERTEX
  8
DATUM_AXIS
  5
2ED3
 10
4.75286
 20
31.4550
 30
0.000000
  70
    32
  0
VERTEX
  8
DATUM_AXIS
  5
2ED4
 10
4.75041
 20
31.4552
 30
0.000000
  70
    32
  0
VERTEX
  8
DATUM_AXIS
  5
2ED5
 10
4.74796
 20
31.4553
 30
0.000000
  70
    32
  0
VERTEX
  8
DATUM_AXIS
  5
2ED6
 10
4.74552
 20
31.4555
 30
0.000000
  70
    32
  0
VERTEX
  8
DATUM_AXIS
  5
2ED7
 10
4.74307
 20
31.4556
 30
0.000000
  70
    32
  0
VERTEX
  8
DATUM_AXIS
  5
2ED8
 10
4.74062
 20
31.4558
 30
0.000000
  70
    32
  0
VERTEX
  8
DATUM_AXIS
  5
2ED9
 10
4.73817
 20
31.4559
 30
0.000000
  70
    32
  0
VERTEX
  8
DATUM_AXIS
  5
2EDA
 10
4.73573
 20
31.4560
 30
0.000000
  70
    32
  0
VERTEX
  8
DATUM_AXIS
  5
2EDB
 10
4.73328
 20
31.4562
 30
0.000000
  70
    32
  0
VERTEX
  8
DATUM_AXIS
  5
2EDC
 10
4.73083
 20
31.4563
 30
0.000000
  70
    32
  0
VERTEX
  8
DATUM_AXIS
  5
2EDD
 10
4.72839
 20
31.4565
 30
0.000000
  70
    32
  0
VERTEX
  8
DATUM_AXIS
  5
2EDE
 10
4.72594
 20
31.4566
 30
0.000000
  70
    32
  0
VERTEX
  8
DATUM_AXIS
  5
2EDF
 10
4.72349
 20
31.4568
 30
0.000000
  70
    32
  0
VERTEX
  8
DATUM_AXIS
  5
2EE0
 10
4.72105
 20
31.4569
 30
0.000000
  70
    32
  0
VERTEX
  8
DATUM_AXIS
  5
2EE1
 10
4.71860
 20
31.4571
 30
0.000000
  70
    32
  0
VERTEX
  8
DATUM_AXIS
  5
2EE2
 10
4.71615
 20
31.4572
 30
0.000000
  70
    32
  0
VERTEX
  8
DATUM_AXIS
  5
2EE3
 10
4.71370
 20
31.4574
 30
0.000000
  70
    32
  0
VERTEX
  8
DATUM_AXIS
  5
2EE4
 10
4.71126
 20
31.4575
 30
0.000000
  70
    32
  0
VERTEX
  8
DATUM_AXIS
  5
2EE5
 10
4.70881
 20
31.4576
 30
0.000000
  70
    32
  0
VERTEX
  8
DATUM_AXIS
  5
2EE6
 10
4.70636
 20
31.4578
 30
0.000000
  70
    32
  0
VERTEX
  8
DATUM_AXIS
  5
2EE7
 10
4.70392
 20
31.4579
 30
0.000000
  70
    32
  0
VERTEX
  8
DATUM_AXIS
  5
2EE8
 10
4.70147
 20
31.4581
 30
0.000000
  70
    32
  0
VERTEX
  8
DATUM_AXIS
  5
2EE9
 10
4.69902
 20
31.4582
 30
0.000000
  70
    32
  0
VERTEX
  8
DATUM_AXIS
  5
2EEA
 10
4.69657
 20
31.4584
 30
0.000000
  70
    32
  0
VERTEX
  8
DATUM_AXIS
  5
2EEB
 10
4.69413
 20
31.4585
 30
0.000000
  70
    32
  0
VERTEX
  8
DATUM_AXIS
  5
2EEC
 10
4.69168
 20
31.4587
 30
0.000000
  70
    32
  0
VERTEX
  8
DATUM_AXIS
  5
2EED
 10
4.68923
 20
31.4588
 30
0.000000
  70
    32
  0
VERTEX
  8
DATUM_AXIS
  5
2EEE
 10
4.68678
 20
31.4589
 30
0.000000
  70
    32
  0
VERTEX
  8
DATUM_AXIS
  5
2EEF
 10
4.68434
 20
31.4591
 30
0.000000
  70
    32
  0
VERTEX
  8
DATUM_AXIS
  5
2EF0
 10
4.68189
 20
31.4592
 30
0.000000
  70
    32
  0
VERTEX
  8
DATUM_AXIS
  5
2EF1
 10
4.67944
 20
31.4594
 30
0.000000
  70
    32
  0
VERTEX
  8
DATUM_AXIS
  5
2EF2
 10
4.67700
 20
31.4595
 30
0.000000
  70
    32
  0
VERTEX
  8
DATUM_AXIS
  5
2EF3
 10
4.67455
 20
31.4596
 30
0.000000
  70
    32
  0
VERTEX
  8
DATUM_AXIS
  5
2EF4
 10
4.67210
 20
31.4598
 30
0.000000
  70
    32
  0
VERTEX
  8
DATUM_AXIS
  5
2EF5
 10
4.66965
 20
31.4599
 30
0.000000
  70
    32
  0
VERTEX
  8
DATUM_AXIS
  5
2EF6
 10
4.66721
 20
31.4601
 30
0.000000
  70
    32
  0
VERTEX
  8
DATUM_AXIS
  5
2EF7
 10
4.66476
 20
31.4602
 30
0.000000
  70
    32
  0
VERTEX
  8
DATUM_AXIS
  5
2EF8
 10
4.66231
 20
31.4603
 30
0.000000
  70
    32
  0
VERTEX
  8
DATUM_AXIS
  5
2EF9
 10
4.65986
 20
31.4605
 30
0.000000
  70
    32
  0
VERTEX
  8
DATUM_AXIS
  5
2EFA
 10
4.65742
 20
31.4606
 30
0.000000
  70
    32
  0
VERTEX
  8
DATUM_AXIS
  5
2EFB
 10
4.65497
 20
31.4608
 30
0.000000
  70
    32
  0
VERTEX
  8
DATUM_AXIS
  5
2EFC
 10
4.65252
 20
31.4609
 30
0.000000
  70
    32
  0
VERTEX
  8
DATUM_AXIS
  5
2EFD
 10
4.65007
 20
31.4610
 30
0.000000
  70
    32
  0
VERTEX
  8
DATUM_AXIS
  5
2EFE
 10
4.64763
 20
31.4612
 30
0.000000
  70
    32
  0
VERTEX
  8
DATUM_AXIS
  5
2EFF
 10
4.64518
 20
31.4613
 30
0.000000
  70
    32
  0
VERTEX
  8
DATUM_AXIS
  5
2F00
 10
4.64273
 20
31.4615
 30
0.000000
  70
    32
  0
VERTEX
  8
DATUM_AXIS
  5
2F01
 10
4.64028
 20
31.4616
 30
0.000000
  70
    32
  0
VERTEX
  8
DATUM_AXIS
  5
2F02
 10
4.63784
 20
31.4617
 30
0.000000
  70
    32
  0
VERTEX
  8
DATUM_AXIS
  5
2F03
 10
4.63539
 20
31.4619
 30
0.000000
  70
    32
  0
VERTEX
  8
DATUM_AXIS
  5
2F04
 10
4.63294
 20
31.4620
 30
0.000000
  70
    32
  0
VERTEX
  8
DATUM_AXIS
  5
2F05
 10
4.63049
 20
31.4621
 30
0.000000
  70
    32
  0
VERTEX
  8
DATUM_AXIS
  5
2F06
 10
4.62805
 20
31.4623
 30
0.000000
  70
    32
  0
VERTEX
  8
DATUM_AXIS
  5
2F07
 10
4.62560
 20
31.4624
 30
0.000000
  70
    32
  0
VERTEX
  8
DATUM_AXIS
  5
2F08
 10
4.62315
 20
31.4625
 30
0.000000
  70
    32
  0
VERTEX
  8
DATUM_AXIS
  5
2F09
 10
4.62070
 20
31.4627
 30
0.000000
  70
    32
  0
VERTEX
  8
DATUM_AXIS
  5
2F0A
 10
4.61826
 20
31.4628
 30
0.000000
  70
    32
  0
VERTEX
  8
DATUM_AXIS
  5
2F0B
 10
4.61581
 20
31.4629
 30
0.000000
  70
    32
  0
VERTEX
  8
DATUM_AXIS
  5
2F0C
 10
4.61336
 20
31.4631
 30
0.000000
  70
    32
  0
VERTEX
  8
DATUM_AXIS
  5
2F0D
 10
4.61091
 20
31.4632
 30
0.000000
  70
    32
  0
VERTEX
  8
DATUM_AXIS
  5
2F0E
 10
4.60846
 20
31.4633
 30
0.000000
  70
    32
  0
VERTEX
  8
DATUM_AXIS
  5
2F0F
 10
4.60602
 20
31.4635
 30
0.000000
  70
    32
  0
VERTEX
  8
DATUM_AXIS
  5
2F10
 10
4.60357
 20
31.4636
 30
0.000000
  70
    32
  0
VERTEX
  8
DATUM_AXIS
  5
2F11
 10
4.60112
 20
31.4637
 30
0.000000
  70
    32
  0
VERTEX
  8
DATUM_AXIS
  5
2F12
 10
4.59867
 20
31.4639
 30
0.000000
  70
    32
  0
VERTEX
  8
DATUM_AXIS
  5
2F13
 10
4.59623
 20
31.4640
 30
0.000000
  70
    32
  0
VERTEX
  8
DATUM_AXIS
  5
2F14
 10
4.59378
 20
31.4641
 30
0.000000
  70
    32
  0
VERTEX
  8
DATUM_AXIS
  5
2F15
 10
4.59133
 20
31.4643
 30
0.000000
  70
    32
  0
VERTEX
  8
DATUM_AXIS
  5
2F16
 10
4.58888
 20
31.4644
 30
0.000000
  70
    32
  0
VERTEX
  8
DATUM_AXIS
  5
2F17
 10
4.58643
 20
31.4645
 30
0.000000
  70
    32
  0
VERTEX
  8
DATUM_AXIS
  5
2F18
 10
4.58399
 20
31.4647
 30
0.000000
  70
    32
  0
VERTEX
  8
DATUM_AXIS
  5
2F19
 10
4.58154
 20
31.4648
 30
0.000000
  70
    32
  0
VERTEX
  8
DATUM_AXIS
  5
2F1A
 10
4.57909
 20
31.4649
 30
0.000000
  70
    32
  0
VERTEX
  8
DATUM_AXIS
  5
2F1B
 10
4.57664
 20
31.4651
 30
0.000000
  70
    32
  0
VERTEX
  8
DATUM_AXIS
  5
2F1C
 10
4.57419
 20
31.4652
 30
0.000000
  70
    32
  0
VERTEX
  8
DATUM_AXIS
  5
2F1D
 10
4.57175
 20
31.4653
 30
0.000000
  70
    32
  0
VERTEX
  8
DATUM_AXIS
  5
2F1E
 10
4.56930
 20
31.4655
 30
0.000000
  70
    32
  0
VERTEX
  8
DATUM_AXIS
  5
2F1F
 10
4.56685
 20
31.4656
 30
0.000000
  70
    32
  0
VERTEX
  8
DATUM_AXIS
  5
2F20
 10
4.56440
 20
31.4657
 30
0.000000
  70
    32
  0
VERTEX
  8
DATUM_AXIS
  5
2F21
 10
4.56195
 20
31.4658
 30
0.000000
  70
    32
  0
VERTEX
  8
DATUM_AXIS
  5
2F22
 10
4.55951
 20
31.4660
 30
0.000000
  70
    32
  0
VERTEX
  8
DATUM_AXIS
  5
2F23
 10
4.55706
 20
31.4661
 30
0.000000
  70
    32
  0
VERTEX
  8
DATUM_AXIS
  5
2F24
 10
4.55461
 20
31.4662
 30
0.000000
  70
    32
  0
VERTEX
  8
DATUM_AXIS
  5
2F25
 10
4.55216
 20
31.4664
 30
0.000000
  70
    32
  0
VERTEX
  8
DATUM_AXIS
  5
2F26
 10
4.54971
 20
31.4665
 30
0.000000
  70
    32
  0
VERTEX
  8
DATUM_AXIS
  5
2F27
 10
4.54727
 20
31.4666
 30
0.000000
  70
    32
  0
VERTEX
  8
DATUM_AXIS
  5
2F28
 10
4.54482
 20
31.4667
 30
0.000000
  70
    32
  0
VERTEX
  8
DATUM_AXIS
  5
2F29
 10
4.54237
 20
31.4669
 30
0.000000
  70
    32
  0
VERTEX
  8
DATUM_AXIS
  5
2F2A
 10
4.53992
 20
31.4670
 30
0.000000
  70
    32
  0
VERTEX
  8
DATUM_AXIS
  5
2F2B
 10
4.53747
 20
31.4671
 30
0.000000
  70
    32
  0
VERTEX
  8
DATUM_AXIS
  5
2F2C
 10
4.53503
 20
31.4672
 30
0.000000
  70
    32
  0
VERTEX
  8
DATUM_AXIS
  5
2F2D
 10
4.53258
 20
31.4674
 30
0.000000
  70
    32
  0
VERTEX
  8
DATUM_AXIS
  5
2F2E
 10
4.53013
 20
31.4675
 30
0.000000
  70
    32
  0
VERTEX
  8
DATUM_AXIS
  5
2F2F
 10
4.52768
 20
31.4676
 30
0.000000
  70
    32
  0
VERTEX
  8
DATUM_AXIS
  5
2F30
 10
4.52523
 20
31.4677
 30
0.000000
  70
    32
  0
VERTEX
  8
DATUM_AXIS
  5
2F31
 10
4.52278
 20
31.4679
 30
0.000000
  70
    32
  0
VERTEX
  8
DATUM_AXIS
  5
2F32
 10
4.52034
 20
31.4680
 30
0.000000
  70
    32
  0
VERTEX
  8
DATUM_AXIS
  5
2F33
 10
4.51789
 20
31.4681
 30
0.000000
  70
    32
  0
VERTEX
  8
DATUM_AXIS
  5
2F34
 10
4.51544
 20
31.4682
 30
0.000000
  70
    32
  0
VERTEX
  8
DATUM_AXIS
  5
2F35
 10
4.51299
 20
31.4684
 30
0.000000
  70
    32
  0
VERTEX
  8
DATUM_AXIS
  5
2F36
 10
4.51054
 20
31.4685
 30
0.000000
  70
    32
  0
VERTEX
  8
DATUM_AXIS
  5
2F37
 10
4.50810
 20
31.4686
 30
0.000000
  70
    32
  0
VERTEX
  8
DATUM_AXIS
  5
2F38
 10
4.50565
 20
31.4687
 30
0.000000
  70
    32
  0
VERTEX
  8
DATUM_AXIS
  5
2F39
 10
4.50320
 20
31.4689
 30
0.000000
  70
    32
  0
VERTEX
  8
DATUM_AXIS
  5
2F3A
 10
4.50075
 20
31.4690
 30
0.000000
  70
    32
  0
SEQEND
  8
DATUM_AXIS
  5
2F3B
  0
LINE
  5
FB1
  8
DATUM_AXIS
  6
CONTINUOUS
 62
     7
 10
5.0192895817953591
 20
31.43722863692966
 30
0.0
 11
4.8115754810629729
 21
31.451356407969001
 31
0.0
  0
LINE
  5
FB2
  8
DATUM_AXIS
  6
CONTINUOUS
 62
     7
 10
5.159536909961961
 20
31.426624039068798
 30
0.0
 11
5.0192895817953591
 21
31.43722863692966
 31
0.0
  0
LINE
  5
FB3
  8
DATUM_AXIS
  6
CONTINUOUS
 62
     7
 10
5.383247001287006
 20
31.407930617872559
 30
0.0
 11
5.159536909961961
 21
31.426624039068798
 31
0.0
  0
LINE
  5
FB4
  8
DATUM_AXIS
  6
CONTINUOUS
 62
     7
 10
5.5073530340119126
 20
31.396617629226778
 30
0.0
 11
5.383247001287006
 21
31.407930617872559
 31
0.0
  0
POLYLINE
  8
DATUM_AXIS
  5
2F3C
  62
7
  66
     1
 10
0.000000
 20
0.000000
 30
0.000000
  70
     8
  0
VERTEX
  8
DATUM_AXIS
  5
2F3D
 10
5.78378
 20
31.3690
 30
0.000000
  70
    32
  0
VERTEX
  8
DATUM_AXIS
  5
2F3E
 10
5.78160
 20
31.3692
 30
0.000000
  70
    32
  0
VERTEX
  8
DATUM_AXIS
  5
2F3F
 10
5.77943
 20
31.3695
 30
0.000000
  70
    32
  0
VERTEX
  8
DATUM_AXIS
  5
2F40
 10
5.77725
 20
31.3697
 30
0.000000
  70
    32
  0
VERTEX
  8
DATUM_AXIS
  5
2F41
 10
5.77508
 20
31.3699
 30
0.000000
  70
    32
  0
VERTEX
  8
DATUM_AXIS
  5
2F42
 10
5.77290
 20
31.3702
 30
0.000000
  70
    32
  0
VERTEX
  8
DATUM_AXIS
  5
2F43
 10
5.77073
 20
31.3704
 30
0.000000
  70
    32
  0
VERTEX
  8
DATUM_AXIS
  5
2F44
 10
5.76855
 20
31.3706
 30
0.000000
  70
    32
  0
VERTEX
  8
DATUM_AXIS
  5
2F45
 10
5.76637
 20
31.3708
 30
0.000000
  70
    32
  0
VERTEX
  8
DATUM_AXIS
  5
2F46
 10
5.76420
 20
31.3711
 30
0.000000
  70
    32
  0
VERTEX
  8
DATUM_AXIS
  5
2F47
 10
5.76202
 20
31.3713
 30
0.000000
  70
    32
  0
VERTEX
  8
DATUM_AXIS
  5
2F48
 10
5.75985
 20
31.3715
 30
0.000000
  70
    32
  0
VERTEX
  8
DATUM_AXIS
  5
2F49
 10
5.75767
 20
31.3718
 30
0.000000
  70
    32
  0
VERTEX
  8
DATUM_AXIS
  5
2F4A
 10
5.75550
 20
31.3720
 30
0.000000
  70
    32
  0
VERTEX
  8
DATUM_AXIS
  5
2F4B
 10
5.75332
 20
31.3722
 30
0.000000
  70
    32
  0
VERTEX
  8
DATUM_AXIS
  5
2F4C
 10
5.75115
 20
31.3724
 30
0.000000
  70
    32
  0
VERTEX
  8
DATUM_AXIS
  5
2F4D
 10
5.74897
 20
31.3727
 30
0.000000
  70
    32
  0
VERTEX
  8
DATUM_AXIS
  5
2F4E
 10
5.74680
 20
31.3729
 30
0.000000
  70
    32
  0
VERTEX
  8
DATUM_AXIS
  5
2F4F
 10
5.74462
 20
31.3731
 30
0.000000
  70
    32
  0
VERTEX
  8
DATUM_AXIS
  5
2F50
 10
5.74244
 20
31.3733
 30
0.000000
  70
    32
  0
VERTEX
  8
DATUM_AXIS
  5
2F51
 10
5.74027
 20
31.3736
 30
0.000000
  70
    32
  0
VERTEX
  8
DATUM_AXIS
  5
2F52
 10
5.73809
 20
31.3738
 30
0.000000
  70
    32
  0
VERTEX
  8
DATUM_AXIS
  5
2F53
 10
5.73592
 20
31.3740
 30
0.000000
  70
    32
  0
VERTEX
  8
DATUM_AXIS
  5
2F54
 10
5.73374
 20
31.3742
 30
0.000000
  70
    32
  0
VERTEX
  8
DATUM_AXIS
  5
2F55
 10
5.73157
 20
31.3745
 30
0.000000
  70
    32
  0
VERTEX
  8
DATUM_AXIS
  5
2F56
 10
5.72939
 20
31.3747
 30
0.000000
  70
    32
  0
VERTEX
  8
DATUM_AXIS
  5
2F57
 10
5.72721
 20
31.3749
 30
0.000000
  70
    32
  0
VERTEX
  8
DATUM_AXIS
  5
2F58
 10
5.72504
 20
31.3751
 30
0.000000
  70
    32
  0
VERTEX
  8
DATUM_AXIS
  5
2F59
 10
5.72286
 20
31.3754
 30
0.000000
  70
    32
  0
VERTEX
  8
DATUM_AXIS
  5
2F5A
 10
5.72069
 20
31.3756
 30
0.000000
  70
    32
  0
VERTEX
  8
DATUM_AXIS
  5
2F5B
 10
5.71851
 20
31.3758
 30
0.000000
  70
    32
  0
VERTEX
  8
DATUM_AXIS
  5
2F5C
 10
5.71633
 20
31.3760
 30
0.000000
  70
    32
  0
VERTEX
  8
DATUM_AXIS
  5
2F5D
 10
5.71416
 20
31.3763
 30
0.000000
  70
    32
  0
VERTEX
  8
DATUM_AXIS
  5
2F5E
 10
5.71198
 20
31.3765
 30
0.000000
  70
    32
  0
VERTEX
  8
DATUM_AXIS
  5
2F5F
 10
5.70981
 20
31.3767
 30
0.000000
  70
    32
  0
VERTEX
  8
DATUM_AXIS
  5
2F60
 10
5.70763
 20
31.3769
 30
0.000000
  70
    32
  0
VERTEX
  8
DATUM_AXIS
  5
2F61
 10
5.70545
 20
31.3772
 30
0.000000
  70
    32
  0
VERTEX
  8
DATUM_AXIS
  5
2F62
 10
5.70328
 20
31.3774
 30
0.000000
  70
    32
  0
VERTEX
  8
DATUM_AXIS
  5
2F63
 10
5.70110
 20
31.3776
 30
0.000000
  70
    32
  0
VERTEX
  8
DATUM_AXIS
  5
2F64
 10
5.69893
 20
31.3778
 30
0.000000
  70
    32
  0
VERTEX
  8
DATUM_AXIS
  5
2F65
 10
5.69675
 20
31.3781
 30
0.000000
  70
    32
  0
VERTEX
  8
DATUM_AXIS
  5
2F66
 10
5.69457
 20
31.3783
 30
0.000000
  70
    32
  0
VERTEX
  8
DATUM_AXIS
  5
2F67
 10
5.69240
 20
31.3785
 30
0.000000
  70
    32
  0
VERTEX
  8
DATUM_AXIS
  5
2F68
 10
5.69022
 20
31.3787
 30
0.000000
  70
    32
  0
VERTEX
  8
DATUM_AXIS
  5
2F69
 10
5.68805
 20
31.3789
 30
0.000000
  70
    32
  0
VERTEX
  8
DATUM_AXIS
  5
2F6A
 10
5.68587
 20
31.3792
 30
0.000000
  70
    32
  0
VERTEX
  8
DATUM_AXIS
  5
2F6B
 10
5.68369
 20
31.3794
 30
0.000000
  70
    32
  0
VERTEX
  8
DATUM_AXIS
  5
2F6C
 10
5.68152
 20
31.3796
 30
0.000000
  70
    32
  0
VERTEX
  8
DATUM_AXIS
  5
2F6D
 10
5.67934
 20
31.3798
 30
0.000000
  70
    32
  0
VERTEX
  8
DATUM_AXIS
  5
2F6E
 10
5.67716
 20
31.3800
 30
0.000000
  70
    32
  0
VERTEX
  8
DATUM_AXIS
  5
2F6F
 10
5.67499
 20
31.3803
 30
0.000000
  70
    32
  0
VERTEX
  8
DATUM_AXIS
  5
2F70
 10
5.67281
 20
31.3805
 30
0.000000
  70
    32
  0
VERTEX
  8
DATUM_AXIS
  5
2F71
 10
5.67064
 20
31.3807
 30
0.000000
  70
    32
  0
VERTEX
  8
DATUM_AXIS
  5
2F72
 10
5.66846
 20
31.3809
 30
0.000000
  70
    32
  0
VERTEX
  8
DATUM_AXIS
  5
2F73
 10
5.66628
 20
31.3811
 30
0.000000
  70
    32
  0
VERTEX
  8
DATUM_AXIS
  5
2F74
 10
5.66411
 20
31.3814
 30
0.000000
  70
    32
  0
VERTEX
  8
DATUM_AXIS
  5
2F75
 10
5.66193
 20
31.3816
 30
0.000000
  70
    32
  0
VERTEX
  8
DATUM_AXIS
  5
2F76
 10
5.65975
 20
31.3818
 30
0.000000
  70
    32
  0
VERTEX
  8
DATUM_AXIS
  5
2F77
 10
5.65758
 20
31.3820
 30
0.000000
  70
    32
  0
VERTEX
  8
DATUM_AXIS
  5
2F78
 10
5.65540
 20
31.3822
 30
0.000000
  70
    32
  0
VERTEX
  8
DATUM_AXIS
  5
2F79
 10
5.65322
 20
31.3825
 30
0.000000
  70
    32
  0
VERTEX
  8
DATUM_AXIS
  5
2F7A
 10
5.65105
 20
31.3827
 30
0.000000
  70
    32
  0
VERTEX
  8
DATUM_AXIS
  5
2F7B
 10
5.64887
 20
31.3829
 30
0.000000
  70
    32
  0
VERTEX
  8
DATUM_AXIS
  5
2F7C
 10
5.64669
 20
31.3831
 30
0.000000
  70
    32
  0
VERTEX
  8
DATUM_AXIS
  5
2F7D
 10
5.64452
 20
31.3833
 30
0.000000
  70
    32
  0
VERTEX
  8
DATUM_AXIS
  5
2F7E
 10
5.64234
 20
31.3835
 30
0.000000
  70
    32
  0
VERTEX
  8
DATUM_AXIS
  5
2F7F
 10
5.64016
 20
31.3838
 30
0.000000
  70
    32
  0
VERTEX
  8
DATUM_AXIS
  5
2F80
 10
5.63799
 20
31.3840
 30
0.000000
  70
    32
  0
VERTEX
  8
DATUM_AXIS
  5
2F81
 10
5.63581
 20
31.3842
 30
0.000000
  70
    32
  0
VERTEX
  8
DATUM_AXIS
  5
2F82
 10
5.63363
 20
31.3844
 30
0.000000
  70
    32
  0
VERTEX
  8
DATUM_AXIS
  5
2F83
 10
5.63146
 20
31.3846
 30
0.000000
  70
    32
  0
VERTEX
  8
DATUM_AXIS
  5
2F84
 10
5.62928
 20
31.3848
 30
0.000000
  70
    32
  0
VERTEX
  8
DATUM_AXIS
  5
2F85
 10
5.62710
 20
31.3851
 30
0.000000
  70
    32
  0
VERTEX
  8
DATUM_AXIS
  5
2F86
 10
5.62493
 20
31.3853
 30
0.000000
  70
    32
  0
VERTEX
  8
DATUM_AXIS
  5
2F87
 10
5.62275
 20
31.3855
 30
0.000000
  70
    32
  0
VERTEX
  8
DATUM_AXIS
  5
2F88
 10
5.62057
 20
31.3857
 30
0.000000
  70
    32
  0
VERTEX
  8
DATUM_AXIS
  5
2F89
 10
5.61840
 20
31.3859
 30
0.000000
  70
    32
  0
VERTEX
  8
DATUM_AXIS
  5
2F8A
 10
5.61622
 20
31.3861
 30
0.000000
  70
    32
  0
VERTEX
  8
DATUM_AXIS
  5
2F8B
 10
5.61404
 20
31.3864
 30
0.000000
  70
    32
  0
VERTEX
  8
DATUM_AXIS
  5
2F8C
 10
5.61187
 20
31.3866
 30
0.000000
  70
    32
  0
VERTEX
  8
DATUM_AXIS
  5
2F8D
 10
5.60969
 20
31.3868
 30
0.000000
  70
    32
  0
VERTEX
  8
DATUM_AXIS
  5
2F8E
 10
5.60751
 20
31.3870
 30
0.000000
  70
    32
  0
VERTEX
  8
DATUM_AXIS
  5
2F8F
 10
5.60534
 20
31.3872
 30
0.000000
  70
    32
  0
VERTEX
  8
DATUM_AXIS
  5
2F90
 10
5.60316
 20
31.3874
 30
0.000000
  70
    32
  0
VERTEX
  8
DATUM_AXIS
  5
2F91
 10
5.60098
 20
31.3876
 30
0.000000
  70
    32
  0
VERTEX
  8
DATUM_AXIS
  5
2F92
 10
5.59881
 20
31.3879
 30
0.000000
  70
    32
  0
VERTEX
  8
DATUM_AXIS
  5
2F93
 10
5.59663
 20
31.3881
 30
0.000000
  70
    32
  0
VERTEX
  8
DATUM_AXIS
  5
2F94
 10
5.59445
 20
31.3883
 30
0.000000
  70
    32
  0
VERTEX
  8
DATUM_AXIS
  5
2F95
 10
5.59227
 20
31.3885
 30
0.000000
  70
    32
  0
VERTEX
  8
DATUM_AXIS
  5
2F96
 10
5.59010
 20
31.3887
 30
0.000000
  70
    32
  0
VERTEX
  8
DATUM_AXIS
  5
2F97
 10
5.58792
 20
31.3889
 30
0.000000
  70
    32
  0
VERTEX
  8
DATUM_AXIS
  5
2F98
 10
5.58574
 20
31.3891
 30
0.000000
  70
    32
  0
VERTEX
  8
DATUM_AXIS
  5
2F99
 10
5.58357
 20
31.3893
 30
0.000000
  70
    32
  0
VERTEX
  8
DATUM_AXIS
  5
2F9A
 10
5.58139
 20
31.3895
 30
0.000000
  70
    32
  0
VERTEX
  8
DATUM_AXIS
  5
2F9B
 10
5.57921
 20
31.3898
 30
0.000000
  70
    32
  0
VERTEX
  8
DATUM_AXIS
  5
2F9C
 10
5.57703
 20
31.3900
 30
0.000000
  70
    32
  0
VERTEX
  8
DATUM_AXIS
  5
2F9D
 10
5.57486
 20
31.3902
 30
0.000000
  70
    32
  0
VERTEX
  8
DATUM_AXIS
  5
2F9E
 10
5.57268
 20
31.3904
 30
0.000000
  70
    32
  0
VERTEX
  8
DATUM_AXIS
  5
2F9F
 10
5.57050
 20
31.3906
 30
0.000000
  70
    32
  0
VERTEX
  8
DATUM_AXIS
  5
2FA0
 10
5.56832
 20
31.3908
 30
0.000000
  70
    32
  0
VERTEX
  8
DATUM_AXIS
  5
2FA1
 10
5.56615
 20
31.3910
 30
0.000000
  70
    32
  0
VERTEX
  8
DATUM_AXIS
  5
2FA2
 10
5.56397
 20
31.3912
 30
0.000000
  70
    32
  0
VERTEX
  8
DATUM_AXIS
  5
2FA3
 10
5.56179
 20
31.3914
 30
0.000000
  70
    32
  0
VERTEX
  8
DATUM_AXIS
  5
2FA4
 10
5.55962
 20
31.3917
 30
0.000000
  70
    32
  0
VERTEX
  8
DATUM_AXIS
  5
2FA5
 10
5.55744
 20
31.3919
 30
0.000000
  70
    32
  0
VERTEX
  8
DATUM_AXIS
  5
2FA6
 10
5.55526
 20
31.3921
 30
0.000000
  70
    32
  0
VERTEX
  8
DATUM_AXIS
  5
2FA7
 10
5.55308
 20
31.3923
 30
0.000000
  70
    32
  0
VERTEX
  8
DATUM_AXIS
  5
2FA8
 10
5.55091
 20
31.3925
 30
0.000000
  70
    32
  0
VERTEX
  8
DATUM_AXIS
  5
2FA9
 10
5.54873
 20
31.3927
 30
0.000000
  70
    32
  0
VERTEX
  8
DATUM_AXIS
  5
2FAA
 10
5.54655
 20
31.3929
 30
0.000000
  70
    32
  0
VERTEX
  8
DATUM_AXIS
  5
2FAB
 10
5.54437
 20
31.3931
 30
0.000000
  70
    32
  0
VERTEX
  8
DATUM_AXIS
  5
2FAC
 10
5.54220
 20
31.3933
 30
0.000000
  70
    32
  0
VERTEX
  8
DATUM_AXIS
  5
2FAD
 10
5.54002
 20
31.3935
 30
0.000000
  70
    32
  0
VERTEX
  8
DATUM_AXIS
  5
2FAE
 10
5.53784
 20
31.3937
 30
0.000000
  70
    32
  0
VERTEX
  8
DATUM_AXIS
  5
2FAF
 10
5.53566
 20
31.3939
 30
0.000000
  70
    32
  0
VERTEX
  8
DATUM_AXIS
  5
2FB0
 10
5.53349
 20
31.3941
 30
0.000000
  70
    32
  0
VERTEX
  8
DATUM_AXIS
  5
2FB1
 10
5.53131
 20
31.3944
 30
0.000000
  70
    32
  0
VERTEX
  8
DATUM_AXIS
  5
2FB2
 10
5.52913
 20
31.3946
 30
0.000000
  70
    32
  0
VERTEX
  8
DATUM_AXIS
  5
2FB3
 10
5.52695
 20
31.3948
 30
0.000000
  70
    32
  0
VERTEX
  8
DATUM_AXIS
  5
2FB4
 10
5.52478
 20
31.3950
 30
0.000000
  70
    32
  0
VERTEX
  8
DATUM_AXIS
  5
2FB5
 10
5.52260
 20
31.3952
 30
0.000000
  70
    32
  0
VERTEX
  8
DATUM_AXIS
  5
2FB6
 10
5.52042
 20
31.3954
 30
0.000000
  70
    32
  0
VERTEX
  8
DATUM_AXIS
  5
2FB7
 10
5.51824
 20
31.3956
 30
0.000000
  70
    32
  0
VERTEX
  8
DATUM_AXIS
  5
2FB8
 10
5.51606
 20
31.3958
 30
0.000000
  70
    32
  0
VERTEX
  8
DATUM_AXIS
  5
2FB9
 10
5.51389
 20
31.3960
 30
0.000000
  70
    32
  0
VERTEX
  8
DATUM_AXIS
  5
2FBA
 10
5.51171
 20
31.3962
 30
0.000000
  70
    32
  0
VERTEX
  8
DATUM_AXIS
  5
2FBB
 10
5.50953
 20
31.3964
 30
0.000000
  70
    32
  0
VERTEX
  8
DATUM_AXIS
  5
2FBC
 10
5.50735
 20
31.3966
 30
0.000000
  70
    32
  0
SEQEND
  8
DATUM_AXIS
  5
2FBD
  0
LINE
  5
FB6
  8
DATUM_AXIS
  6
CONTINUOUS
 62
     7
 10
5.8549927362140544
 20
31.361347193448839
 30
0.0
 11
5.7837772576268804
 21
31.36900234941837
 31
0.0
  0
POLYLINE
  8
DATUM_AXIS
  5
2FBE
  62
7
  66
     1
 10
0.000000
 20
0.000000
 30
0.000000
  70
     8
  0
VERTEX
  8
DATUM_AXIS
  5
2FBF
 10
6.20250
 20
31.3208
 30
0.000000
  70
    32
  0
VERTEX
  8
DATUM_AXIS
  5
2FC0
 10
6.19977
 20
31.3212
 30
0.000000
  70
    32
  0
VERTEX
  8
DATUM_AXIS
  5
2FC1
 10
6.19703
 20
31.3215
 30
0.000000
  70
    32
  0
VERTEX
  8
DATUM_AXIS
  5
2FC2
 10
6.19430
 20
31.3218
 30
0.000000
  70
    32
  0
VERTEX
  8
DATUM_AXIS
  5
2FC3
 10
6.19156
 20
31.3222
 30
0.000000
  70
    32
  0
VERTEX
  8
DATUM_AXIS
  5
2FC4
 10
6.18883
 20
31.3225
 30
0.000000
  70
    32
  0
VERTEX
  8
DATUM_AXIS
  5
2FC5
 10
6.18610
 20
31.3228
 30
0.000000
  70
    32
  0
VERTEX
  8
DATUM_AXIS
  5
2FC6
 10
6.18336
 20
31.3232
 30
0.000000
  70
    32
  0
VERTEX
  8
DATUM_AXIS
  5
2FC7
 10
6.18063
 20
31.3235
 30
0.000000
  70
    32
  0
VERTEX
  8
DATUM_AXIS
  5
2FC8
 10
6.17789
 20
31.3239
 30
0.000000
  70
    32
  0
VERTEX
  8
DATUM_AXIS
  5
2FC9
 10
6.17516
 20
31.3242
 30
0.000000
  70
    32
  0
VERTEX
  8
DATUM_AXIS
  5
2FCA
 10
6.17243
 20
31.3245
 30
0.000000
  70
    32
  0
VERTEX
  8
DATUM_AXIS
  5
2FCB
 10
6.16969
 20
31.3249
 30
0.000000
  70
    32
  0
VERTEX
  8
DATUM_AXIS
  5
2FCC
 10
6.16696
 20
31.3252
 30
0.000000
  70
    32
  0
VERTEX
  8
DATUM_AXIS
  5
2FCD
 10
6.16422
 20
31.3255
 30
0.000000
  70
    32
  0
VERTEX
  8
DATUM_AXIS
  5
2FCE
 10
6.16149
 20
31.3259
 30
0.000000
  70
    32
  0
VERTEX
  8
DATUM_AXIS
  5
2FCF
 10
6.15875
 20
31.3262
 30
0.000000
  70
    32
  0
VERTEX
  8
DATUM_AXIS
  5
2FD0
 10
6.15602
 20
31.3265
 30
0.000000
  70
    32
  0
VERTEX
  8
DATUM_AXIS
  5
2FD1
 10
6.15329
 20
31.3269
 30
0.000000
  70
    32
  0
VERTEX
  8
DATUM_AXIS
  5
2FD2
 10
6.15055
 20
31.3272
 30
0.000000
  70
    32
  0
VERTEX
  8
DATUM_AXIS
  5
2FD3
 10
6.14782
 20
31.3275
 30
0.000000
  70
    32
  0
VERTEX
  8
DATUM_AXIS
  5
2FD4
 10
6.14508
 20
31.3279
 30
0.000000
  70
    32
  0
VERTEX
  8
DATUM_AXIS
  5
2FD5
 10
6.14235
 20
31.3282
 30
0.000000
  70
    32
  0
VERTEX
  8
DATUM_AXIS
  5
2FD6
 10
6.13961
 20
31.3285
 30
0.000000
  70
    32
  0
VERTEX
  8
DATUM_AXIS
  5
2FD7
 10
6.13688
 20
31.3289
 30
0.000000
  70
    32
  0
VERTEX
  8
DATUM_AXIS
  5
2FD8
 10
6.13414
 20
31.3292
 30
0.000000
  70
    32
  0
VERTEX
  8
DATUM_AXIS
  5
2FD9
 10
6.13141
 20
31.3295
 30
0.000000
  70
    32
  0
VERTEX
  8
DATUM_AXIS
  5
2FDA
 10
6.12867
 20
31.3299
 30
0.000000
  70
    32
  0
VERTEX
  8
DATUM_AXIS
  5
2FDB
 10
6.12594
 20
31.3302
 30
0.000000
  70
    32
  0
VERTEX
  8
DATUM_AXIS
  5
2FDC
 10
6.12320
 20
31.3305
 30
0.000000
  70
    32
  0
VERTEX
  8
DATUM_AXIS
  5
2FDD
 10
6.12047
 20
31.3309
 30
0.000000
  70
    32
  0
VERTEX
  8
DATUM_AXIS
  5
2FDE
 10
6.11773
 20
31.3312
 30
0.000000
  70
    32
  0
VERTEX
  8
DATUM_AXIS
  5
2FDF
 10
6.11500
 20
31.3315
 30
0.000000
  70
    32
  0
VERTEX
  8
DATUM_AXIS
  5
2FE0
 10
6.11226
 20
31.3318
 30
0.000000
  70
    32
  0
VERTEX
  8
DATUM_AXIS
  5
2FE1
 10
6.10953
 20
31.3322
 30
0.000000
  70
    32
  0
VERTEX
  8
DATUM_AXIS
  5
2FE2
 10
6.10679
 20
31.3325
 30
0.000000
  70
    32
  0
VERTEX
  8
DATUM_AXIS
  5
2FE3
 10
6.10406
 20
31.3328
 30
0.000000
  70
    32
  0
VERTEX
  8
DATUM_AXIS
  5
2FE4
 10
6.10132
 20
31.3332
 30
0.000000
  70
    32
  0
VERTEX
  8
DATUM_AXIS
  5
2FE5
 10
6.09859
 20
31.3335
 30
0.000000
  70
    32
  0
VERTEX
  8
DATUM_AXIS
  5
2FE6
 10
6.09585
 20
31.3338
 30
0.000000
  70
    32
  0
VERTEX
  8
DATUM_AXIS
  5
2FE7
 10
6.09312
 20
31.3341
 30
0.000000
  70
    32
  0
VERTEX
  8
DATUM_AXIS
  5
2FE8
 10
6.09038
 20
31.3345
 30
0.000000
  70
    32
  0
VERTEX
  8
DATUM_AXIS
  5
2FE9
 10
6.08764
 20
31.3348
 30
0.000000
  70
    32
  0
VERTEX
  8
DATUM_AXIS
  5
2FEA
 10
6.08491
 20
31.3351
 30
0.000000
  70
    32
  0
VERTEX
  8
DATUM_AXIS
  5
2FEB
 10
6.08217
 20
31.3354
 30
0.000000
  70
    32
  0
VERTEX
  8
DATUM_AXIS
  5
2FEC
 10
6.07944
 20
31.3358
 30
0.000000
  70
    32
  0
VERTEX
  8
DATUM_AXIS
  5
2FED
 10
6.07670
 20
31.3361
 30
0.000000
  70
    32
  0
VERTEX
  8
DATUM_AXIS
  5
2FEE
 10
6.07397
 20
31.3364
 30
0.000000
  70
    32
  0
VERTEX
  8
DATUM_AXIS
  5
2FEF
 10
6.07123
 20
31.3367
 30
0.000000
  70
    32
  0
VERTEX
  8
DATUM_AXIS
  5
2FF0
 10
6.06850
 20
31.3371
 30
0.000000
  70
    32
  0
VERTEX
  8
DATUM_AXIS
  5
2FF1
 10
6.06576
 20
31.3374
 30
0.000000
  70
    32
  0
VERTEX
  8
DATUM_AXIS
  5
2FF2
 10
6.06302
 20
31.3377
 30
0.000000
  70
    32
  0
VERTEX
  8
DATUM_AXIS
  5
2FF3
 10
6.06029
 20
31.3380
 30
0.000000
  70
    32
  0
VERTEX
  8
DATUM_AXIS
  5
2FF4
 10
6.05755
 20
31.3384
 30
0.000000
  70
    32
  0
VERTEX
  8
DATUM_AXIS
  5
2FF5
 10
6.05482
 20
31.3387
 30
0.000000
  70
    32
  0
VERTEX
  8
DATUM_AXIS
  5
2FF6
 10
6.05208
 20
31.3390
 30
0.000000
  70
    32
  0
VERTEX
  8
DATUM_AXIS
  5
2FF7
 10
6.04934
 20
31.3393
 30
0.000000
  70
    32
  0
VERTEX
  8
DATUM_AXIS
  5
2FF8
 10
6.04661
 20
31.3397
 30
0.000000
  70
    32
  0
VERTEX
  8
DATUM_AXIS
  5
2FF9
 10
6.04387
 20
31.3400
 30
0.000000
  70
    32
  0
VERTEX
  8
DATUM_AXIS
  5
2FFA
 10
6.04114
 20
31.3403
 30
0.000000
  70
    32
  0
VERTEX
  8
DATUM_AXIS
  5
2FFB
 10
6.03840
 20
31.3406
 30
0.000000
  70
    32
  0
VERTEX
  8
DATUM_AXIS
  5
2FFC
 10
6.03566
 20
31.3409
 30
0.000000
  70
    32
  0
VERTEX
  8
DATUM_AXIS
  5
2FFD
 10
6.03293
 20
31.3413
 30
0.000000
  70
    32
  0
VERTEX
  8
DATUM_AXIS
  5
2FFE
 10
6.03019
 20
31.3416
 30
0.000000
  70
    32
  0
VERTEX
  8
DATUM_AXIS
  5
2FFF
 10
6.02745
 20
31.3419
 30
0.000000
  70
    32
  0
VERTEX
  8
DATUM_AXIS
  5
3000
 10
6.02472
 20
31.3422
 30
0.000000
  70
    32
  0
VERTEX
  8
DATUM_AXIS
  5
3001
 10
6.02198
 20
31.3425
 30
0.000000
  70
    32
  0
VERTEX
  8
DATUM_AXIS
  5
3002
 10
6.01925
 20
31.3428
 30
0.000000
  70
    32
  0
VERTEX
  8
DATUM_AXIS
  5
3003
 10
6.01651
 20
31.3432
 30
0.000000
  70
    32
  0
VERTEX
  8
DATUM_AXIS
  5
3004
 10
6.01377
 20
31.3435
 30
0.000000
  70
    32
  0
VERTEX
  8
DATUM_AXIS
  5
3005
 10
6.01104
 20
31.3438
 30
0.000000
  70
    32
  0
VERTEX
  8
DATUM_AXIS
  5
3006
 10
6.00830
 20
31.3441
 30
0.000000
  70
    32
  0
VERTEX
  8
DATUM_AXIS
  5
3007
 10
6.00556
 20
31.3444
 30
0.000000
  70
    32
  0
VERTEX
  8
DATUM_AXIS
  5
3008
 10
6.00283
 20
31.3447
 30
0.000000
  70
    32
  0
VERTEX
  8
DATUM_AXIS
  5
3009
 10
6.00009
 20
31.3451
 30
0.000000
  70
    32
  0
VERTEX
  8
DATUM_AXIS
  5
300A
 10
5.99735
 20
31.3454
 30
0.000000
  70
    32
  0
VERTEX
  8
DATUM_AXIS
  5
300B
 10
5.99462
 20
31.3457
 30
0.000000
  70
    32
  0
VERTEX
  8
DATUM_AXIS
  5
300C
 10
5.99188
 20
31.3460
 30
0.000000
  70
    32
  0
VERTEX
  8
DATUM_AXIS
  5
300D
 10
5.98914
 20
31.3463
 30
0.000000
  70
    32
  0
VERTEX
  8
DATUM_AXIS
  5
300E
 10
5.98641
 20
31.3466
 30
0.000000
  70
    32
  0
VERTEX
  8
DATUM_AXIS
  5
300F
 10
5.98367
 20
31.3470
 30
0.000000
  70
    32
  0
VERTEX
  8
DATUM_AXIS
  5
3010
 10
5.98093
 20
31.3473
 30
0.000000
  70
    32
  0
VERTEX
  8
DATUM_AXIS
  5
3011
 10
5.97819
 20
31.3476
 30
0.000000
  70
    32
  0
VERTEX
  8
DATUM_AXIS
  5
3012
 10
5.97546
 20
31.3479
 30
0.000000
  70
    32
  0
VERTEX
  8
DATUM_AXIS
  5
3013
 10
5.97272
 20
31.3482
 30
0.000000
  70
    32
  0
VERTEX
  8
DATUM_AXIS
  5
3014
 10
5.96998
 20
31.3485
 30
0.000000
  70
    32
  0
VERTEX
  8
DATUM_AXIS
  5
3015
 10
5.96725
 20
31.3488
 30
0.000000
  70
    32
  0
VERTEX
  8
DATUM_AXIS
  5
3016
 10
5.96451
 20
31.3491
 30
0.000000
  70
    32
  0
VERTEX
  8
DATUM_AXIS
  5
3017
 10
5.96177
 20
31.3495
 30
0.000000
  70
    32
  0
VERTEX
  8
DATUM_AXIS
  5
3018
 10
5.95903
 20
31.3498
 30
0.000000
  70
    32
  0
VERTEX
  8
DATUM_AXIS
  5
3019
 10
5.95630
 20
31.3501
 30
0.000000
  70
    32
  0
VERTEX
  8
DATUM_AXIS
  5
301A
 10
5.95356
 20
31.3504
 30
0.000000
  70
    32
  0
VERTEX
  8
DATUM_AXIS
  5
301B
 10
5.95082
 20
31.3507
 30
0.000000
  70
    32
  0
VERTEX
  8
DATUM_AXIS
  5
301C
 10
5.94808
 20
31.3510
 30
0.000000
  70
    32
  0
VERTEX
  8
DATUM_AXIS
  5
301D
 10
5.94535
 20
31.3513
 30
0.000000
  70
    32
  0
VERTEX
  8
DATUM_AXIS
  5
301E
 10
5.94261
 20
31.3516
 30
0.000000
  70
    32
  0
VERTEX
  8
DATUM_AXIS
  5
301F
 10
5.93987
 20
31.3519
 30
0.000000
  70
    32
  0
VERTEX
  8
DATUM_AXIS
  5
3020
 10
5.93714
 20
31.3522
 30
0.000000
  70
    32
  0
VERTEX
  8
DATUM_AXIS
  5
3021
 10
5.93440
 20
31.3526
 30
0.000000
  70
    32
  0
VERTEX
  8
DATUM_AXIS
  5
3022
 10
5.93166
 20
31.3529
 30
0.000000
  70
    32
  0
VERTEX
  8
DATUM_AXIS
  5
3023
 10
5.92892
 20
31.3532
 30
0.000000
  70
    32
  0
VERTEX
  8
DATUM_AXIS
  5
3024
 10
5.92618
 20
31.3535
 30
0.000000
  70
    32
  0
VERTEX
  8
DATUM_AXIS
  5
3025
 10
5.92345
 20
31.3538
 30
0.000000
  70
    32
  0
VERTEX
  8
DATUM_AXIS
  5
3026
 10
5.92071
 20
31.3541
 30
0.000000
  70
    32
  0
VERTEX
  8
DATUM_AXIS
  5
3027
 10
5.91797
 20
31.3544
 30
0.000000
  70
    32
  0
VERTEX
  8
DATUM_AXIS
  5
3028
 10
5.91523
 20
31.3547
 30
0.000000
  70
    32
  0
VERTEX
  8
DATUM_AXIS
  5
3029
 10
5.91250
 20
31.3550
 30
0.000000
  70
    32
  0
VERTEX
  8
DATUM_AXIS
  5
302A
 10
5.90976
 20
31.3553
 30
0.000000
  70
    32
  0
VERTEX
  8
DATUM_AXIS
  5
302B
 10
5.90702
 20
31.3556
 30
0.000000
  70
    32
  0
VERTEX
  8
DATUM_AXIS
  5
302C
 10
5.90428
 20
31.3559
 30
0.000000
  70
    32
  0
VERTEX
  8
DATUM_AXIS
  5
302D
 10
5.90154
 20
31.3562
 30
0.000000
  70
    32
  0
VERTEX
  8
DATUM_AXIS
  5
302E
 10
5.89881
 20
31.3565
 30
0.000000
  70
    32
  0
VERTEX
  8
DATUM_AXIS
  5
302F
 10
5.89607
 20
31.3568
 30
0.000000
  70
    32
  0
VERTEX
  8
DATUM_AXIS
  5
3030
 10
5.89333
 20
31.3571
 30
0.000000
  70
    32
  0
VERTEX
  8
DATUM_AXIS
  5
3031
 10
5.89059
 20
31.3574
 30
0.000000
  70
    32
  0
VERTEX
  8
DATUM_AXIS
  5
3032
 10
5.88785
 20
31.3577
 30
0.000000
  70
    32
  0
VERTEX
  8
DATUM_AXIS
  5
3033
 10
5.88512
 20
31.3580
 30
0.000000
  70
    32
  0
VERTEX
  8
DATUM_AXIS
  5
3034
 10
5.88238
 20
31.3583
 30
0.000000
  70
    32
  0
VERTEX
  8
DATUM_AXIS
  5
3035
 10
5.87964
 20
31.3586
 30
0.000000
  70
    32
  0
VERTEX
  8
DATUM_AXIS
  5
3036
 10
5.87690
 20
31.3589
 30
0.000000
  70
    32
  0
VERTEX
  8
DATUM_AXIS
  5
3037
 10
5.87416
 20
31.3592
 30
0.000000
  70
    32
  0
VERTEX
  8
DATUM_AXIS
  5
3038
 10
5.87142
 20
31.3595
 30
0.000000
  70
    32
  0
VERTEX
  8
DATUM_AXIS
  5
3039
 10
5.86869
 20
31.3598
 30
0.000000
  70
    32
  0
VERTEX
  8
DATUM_AXIS
  5
303A
 10
5.86595
 20
31.3602
 30
0.000000
  70
    32
  0
VERTEX
  8
DATUM_AXIS
  5
303B
 10
5.86321
 20
31.3604
 30
0.000000
  70
    32
  0
VERTEX
  8
DATUM_AXIS
  5
303C
 10
5.86047
 20
31.3607
 30
0.000000
  70
    32
  0
VERTEX
  8
DATUM_AXIS
  5
303D
 10
5.85773
 20
31.3610
 30
0.000000
  70
    32
  0
VERTEX
  8
DATUM_AXIS
  5
303E
 10
5.85499
 20
31.3613
 30
0.000000
  70
    32
  0
SEQEND
  8
DATUM_AXIS
  5
303F
  0
POLYLINE
  8
DATUM_AXIS
  5
3040
  62
7
  66
     1
 10
0.000000
 20
0.000000
 30
0.000000
  70
     8
  0
VERTEX
  8
DATUM_AXIS
  5
3041
 10
6.53864
 20
31.2766
 30
0.000000
  70
    32
  0
VERTEX
  8
DATUM_AXIS
  5
3042
 10
6.53600
 20
31.2770
 30
0.000000
  70
    32
  0
VERTEX
  8
DATUM_AXIS
  5
3043
 10
6.53336
 20
31.2773
 30
0.000000
  70
    32
  0
VERTEX
  8
DATUM_AXIS
  5
3044
 10
6.53071
 20
31.2777
 30
0.000000
  70
    32
  0
VERTEX
  8
DATUM_AXIS
  5
3045
 10
6.52807
 20
31.2781
 30
0.000000
  70
    32
  0
VERTEX
  8
DATUM_AXIS
  5
3046
 10
6.52542
 20
31.2784
 30
0.000000
  70
    32
  0
VERTEX
  8
DATUM_AXIS
  5
3047
 10
6.52278
 20
31.2788
 30
0.000000
  70
    32
  0
VERTEX
  8
DATUM_AXIS
  5
3048
 10
6.52013
 20
31.2792
 30
0.000000
  70
    32
  0
VERTEX
  8
DATUM_AXIS
  5
3049
 10
6.51749
 20
31.2795
 30
0.000000
  70
    32
  0
VERTEX
  8
DATUM_AXIS
  5
304A
 10
6.51484
 20
31.2799
 30
0.000000
  70
    32
  0
VERTEX
  8
DATUM_AXIS
  5
304B
 10
6.51220
 20
31.2802
 30
0.000000
  70
    32
  0
VERTEX
  8
DATUM_AXIS
  5
304C
 10
6.50956
 20
31.2806
 30
0.000000
  70
    32
  0
VERTEX
  8
DATUM_AXIS
  5
304D
 10
6.50691
 20
31.2810
 30
0.000000
  70
    32
  0
VERTEX
  8
DATUM_AXIS
  5
304E
 10
6.50427
 20
31.2813
 30
0.000000
  70
    32
  0
VERTEX
  8
DATUM_AXIS
  5
304F
 10
6.50162
 20
31.2817
 30
0.000000
  70
    32
  0
VERTEX
  8
DATUM_AXIS
  5
3050
 10
6.49898
 20
31.2821
 30
0.000000
  70
    32
  0
VERTEX
  8
DATUM_AXIS
  5
3051
 10
6.49633
 20
31.2824
 30
0.000000
  70
    32
  0
VERTEX
  8
DATUM_AXIS
  5
3052
 10
6.49369
 20
31.2828
 30
0.000000
  70
    32
  0
VERTEX
  8
DATUM_AXIS
  5
3053
 10
6.49104
 20
31.2832
 30
0.000000
  70
    32
  0
VERTEX
  8
DATUM_AXIS
  5
3054
 10
6.48840
 20
31.2835
 30
0.000000
  70
    32
  0
VERTEX
  8
DATUM_AXIS
  5
3055
 10
6.48575
 20
31.2839
 30
0.000000
  70
    32
  0
VERTEX
  8
DATUM_AXIS
  5
3056
 10
6.48311
 20
31.2842
 30
0.000000
  70
    32
  0
VERTEX
  8
DATUM_AXIS
  5
3057
 10
6.48046
 20
31.2846
 30
0.000000
  70
    32
  0
VERTEX
  8
DATUM_AXIS
  5
3058
 10
6.47782
 20
31.2850
 30
0.000000
  70
    32
  0
VERTEX
  8
DATUM_AXIS
  5
3059
 10
6.47517
 20
31.2853
 30
0.000000
  70
    32
  0
VERTEX
  8
DATUM_AXIS
  5
305A
 10
6.47253
 20
31.2857
 30
0.000000
  70
    32
  0
VERTEX
  8
DATUM_AXIS
  5
305B
 10
6.46988
 20
31.2860
 30
0.000000
  70
    32
  0
VERTEX
  8
DATUM_AXIS
  5
305C
 10
6.46723
 20
31.2864
 30
0.000000
  70
    32
  0
VERTEX
  8
DATUM_AXIS
  5
305D
 10
6.46459
 20
31.2868
 30
0.000000
  70
    32
  0
VERTEX
  8
DATUM_AXIS
  5
305E
 10
6.46194
 20
31.2871
 30
0.000000
  70
    32
  0
VERTEX
  8
DATUM_AXIS
  5
305F
 10
6.45930
 20
31.2875
 30
0.000000
  70
    32
  0
VERTEX
  8
DATUM_AXIS
  5
3060
 10
6.45665
 20
31.2878
 30
0.000000
  70
    32
  0
VERTEX
  8
DATUM_AXIS
  5
3061
 10
6.45401
 20
31.2882
 30
0.000000
  70
    32
  0
VERTEX
  8
DATUM_AXIS
  5
3062
 10
6.45136
 20
31.2885
 30
0.000000
  70
    32
  0
VERTEX
  8
DATUM_AXIS
  5
3063
 10
6.44872
 20
31.2889
 30
0.000000
  70
    32
  0
VERTEX
  8
DATUM_AXIS
  5
3064
 10
6.44607
 20
31.2893
 30
0.000000
  70
    32
  0
VERTEX
  8
DATUM_AXIS
  5
3065
 10
6.44342
 20
31.2896
 30
0.000000
  70
    32
  0
VERTEX
  8
DATUM_AXIS
  5
3066
 10
6.44078
 20
31.2900
 30
0.000000
  70
    32
  0
VERTEX
  8
DATUM_AXIS
  5
3067
 10
6.43813
 20
31.2903
 30
0.000000
  70
    32
  0
VERTEX
  8
DATUM_AXIS
  5
3068
 10
6.43549
 20
31.2907
 30
0.000000
  70
    32
  0
VERTEX
  8
DATUM_AXIS
  5
3069
 10
6.43284
 20
31.2910
 30
0.000000
  70
    32
  0
VERTEX
  8
DATUM_AXIS
  5
306A
 10
6.43020
 20
31.2914
 30
0.000000
  70
    32
  0
VERTEX
  8
DATUM_AXIS
  5
306B
 10
6.42755
 20
31.2918
 30
0.000000
  70
    32
  0
VERTEX
  8
DATUM_AXIS
  5
306C
 10
6.42490
 20
31.2921
 30
0.000000
  70
    32
  0
VERTEX
  8
DATUM_AXIS
  5
306D
 10
6.42226
 20
31.2925
 30
0.000000
  70
    32
  0
VERTEX
  8
DATUM_AXIS
  5
306E
 10
6.41961
 20
31.2928
 30
0.000000
  70
    32
  0
VERTEX
  8
DATUM_AXIS
  5
306F
 10
6.41697
 20
31.2932
 30
0.000000
  70
    32
  0
VERTEX
  8
DATUM_AXIS
  5
3070
 10
6.41432
 20
31.2935
 30
0.000000
  70
    32
  0
VERTEX
  8
DATUM_AXIS
  5
3071
 10
6.41167
 20
31.2939
 30
0.000000
  70
    32
  0
VERTEX
  8
DATUM_AXIS
  5
3072
 10
6.40903
 20
31.2942
 30
0.000000
  70
    32
  0
VERTEX
  8
DATUM_AXIS
  5
3073
 10
6.40638
 20
31.2946
 30
0.000000
  70
    32
  0
VERTEX
  8
DATUM_AXIS
  5
3074
 10
6.40373
 20
31.2949
 30
0.000000
  70
    32
  0
VERTEX
  8
DATUM_AXIS
  5
3075
 10
6.40109
 20
31.2953
 30
0.000000
  70
    32
  0
VERTEX
  8
DATUM_AXIS
  5
3076
 10
6.39844
 20
31.2956
 30
0.000000
  70
    32
  0
VERTEX
  8
DATUM_AXIS
  5
3077
 10
6.39580
 20
31.2960
 30
0.000000
  70
    32
  0
VERTEX
  8
DATUM_AXIS
  5
3078
 10
6.39315
 20
31.2963
 30
0.000000
  70
    32
  0
VERTEX
  8
DATUM_AXIS
  5
3079
 10
6.39050
 20
31.2967
 30
0.000000
  70
    32
  0
VERTEX
  8
DATUM_AXIS
  5
307A
 10
6.38786
 20
31.2970
 30
0.000000
  70
    32
  0
VERTEX
  8
DATUM_AXIS
  5
307B
 10
6.38521
 20
31.2974
 30
0.000000
  70
    32
  0
VERTEX
  8
DATUM_AXIS
  5
307C
 10
6.38256
 20
31.2977
 30
0.000000
  70
    32
  0
VERTEX
  8
DATUM_AXIS
  5
307D
 10
6.37992
 20
31.2981
 30
0.000000
  70
    32
  0
VERTEX
  8
DATUM_AXIS
  5
307E
 10
6.37727
 20
31.2984
 30
0.000000
  70
    32
  0
VERTEX
  8
DATUM_AXIS
  5
307F
 10
6.37462
 20
31.2988
 30
0.000000
  70
    32
  0
VERTEX
  8
DATUM_AXIS
  5
3080
 10
6.37198
 20
31.2991
 30
0.000000
  70
    32
  0
VERTEX
  8
DATUM_AXIS
  5
3081
 10
6.36933
 20
31.2995
 30
0.000000
  70
    32
  0
VERTEX
  8
DATUM_AXIS
  5
3082
 10
6.36668
 20
31.2998
 30
0.000000
  70
    32
  0
VERTEX
  8
DATUM_AXIS
  5
3083
 10
6.36403
 20
31.3002
 30
0.000000
  70
    32
  0
VERTEX
  8
DATUM_AXIS
  5
3084
 10
6.36139
 20
31.3005
 30
0.000000
  70
    32
  0
VERTEX
  8
DATUM_AXIS
  5
3085
 10
6.35874
 20
31.3009
 30
0.000000
  70
    32
  0
VERTEX
  8
DATUM_AXIS
  5
3086
 10
6.35609
 20
31.3012
 30
0.000000
  70
    32
  0
VERTEX
  8
DATUM_AXIS
  5
3087
 10
6.35345
 20
31.3016
 30
0.000000
  70
    32
  0
VERTEX
  8
DATUM_AXIS
  5
3088
 10
6.35080
 20
31.3019
 30
0.000000
  70
    32
  0
VERTEX
  8
DATUM_AXIS
  5
3089
 10
6.34815
 20
31.3023
 30
0.000000
  70
    32
  0
VERTEX
  8
DATUM_AXIS
  5
308A
 10
6.34551
 20
31.3026
 30
0.000000
  70
    32
  0
VERTEX
  8
DATUM_AXIS
  5
308B
 10
6.34286
 20
31.3029
 30
0.000000
  70
    32
  0
VERTEX
  8
DATUM_AXIS
  5
308C
 10
6.34021
 20
31.3033
 30
0.000000
  70
    32
  0
VERTEX
  8
DATUM_AXIS
  5
308D
 10
6.33756
 20
31.3036
 30
0.000000
  70
    32
  0
VERTEX
  8
DATUM_AXIS
  5
308E
 10
6.33492
 20
31.3040
 30
0.000000
  70
    32
  0
VERTEX
  8
DATUM_AXIS
  5
308F
 10
6.33227
 20
31.3043
 30
0.000000
  70
    32
  0
VERTEX
  8
DATUM_AXIS
  5
3090
 10
6.32962
 20
31.3047
 30
0.000000
  70
    32
  0
VERTEX
  8
DATUM_AXIS
  5
3091
 10
6.32697
 20
31.3050
 30
0.000000
  70
    32
  0
VERTEX
  8
DATUM_AXIS
  5
3092
 10
6.32433
 20
31.3054
 30
0.000000
  70
    32
  0
VERTEX
  8
DATUM_AXIS
  5
3093
 10
6.32168
 20
31.3057
 30
0.000000
  70
    32
  0
VERTEX
  8
DATUM_AXIS
  5
3094
 10
6.31903
 20
31.3060
 30
0.000000
  70
    32
  0
VERTEX
  8
DATUM_AXIS
  5
3095
 10
6.31638
 20
31.3064
 30
0.000000
  70
    32
  0
VERTEX
  8
DATUM_AXIS
  5
3096
 10
6.31374
 20
31.3067
 30
0.000000
  70
    32
  0
VERTEX
  8
DATUM_AXIS
  5
3097
 10
6.31109
 20
31.3071
 30
0.000000
  70
    32
  0
VERTEX
  8
DATUM_AXIS
  5
3098
 10
6.30844
 20
31.3074
 30
0.000000
  70
    32
  0
VERTEX
  8
DATUM_AXIS
  5
3099
 10
6.30579
 20
31.3078
 30
0.000000
  70
    32
  0
VERTEX
  8
DATUM_AXIS
  5
309A
 10
6.30315
 20
31.3081
 30
0.000000
  70
    32
  0
VERTEX
  8
DATUM_AXIS
  5
309B
 10
6.30050
 20
31.3084
 30
0.000000
  70
    32
  0
VERTEX
  8
DATUM_AXIS
  5
309C
 10
6.29785
 20
31.3088
 30
0.000000
  70
    32
  0
VERTEX
  8
DATUM_AXIS
  5
309D
 10
6.29520
 20
31.3091
 30
0.000000
  70
    32
  0
VERTEX
  8
DATUM_AXIS
  5
309E
 10
6.29255
 20
31.3095
 30
0.000000
  70
    32
  0
VERTEX
  8
DATUM_AXIS
  5
309F
 10
6.28991
 20
31.3098
 30
0.000000
  70
    32
  0
VERTEX
  8
DATUM_AXIS
  5
30A0
 10
6.28726
 20
31.3101
 30
0.000000
  70
    32
  0
VERTEX
  8
DATUM_AXIS
  5
30A1
 10
6.28461
 20
31.3105
 30
0.000000
  70
    32
  0
VERTEX
  8
DATUM_AXIS
  5
30A2
 10
6.28196
 20
31.3108
 30
0.000000
  70
    32
  0
VERTEX
  8
DATUM_AXIS
  5
30A3
 10
6.27931
 20
31.3111
 30
0.000000
  70
    32
  0
VERTEX
  8
DATUM_AXIS
  5
30A4
 10
6.27666
 20
31.3115
 30
0.000000
  70
    32
  0
VERTEX
  8
DATUM_AXIS
  5
30A5
 10
6.27402
 20
31.3118
 30
0.000000
  70
    32
  0
VERTEX
  8
DATUM_AXIS
  5
30A6
 10
6.27137
 20
31.3122
 30
0.000000
  70
    32
  0
VERTEX
  8
DATUM_AXIS
  5
30A7
 10
6.26872
 20
31.3125
 30
0.000000
  70
    32
  0
VERTEX
  8
DATUM_AXIS
  5
30A8
 10
6.26607
 20
31.3128
 30
0.000000
  70
    32
  0
VERTEX
  8
DATUM_AXIS
  5
30A9
 10
6.26342
 20
31.3132
 30
0.000000
  70
    32
  0
VERTEX
  8
DATUM_AXIS
  5
30AA
 10
6.26078
 20
31.3135
 30
0.000000
  70
    32
  0
VERTEX
  8
DATUM_AXIS
  5
30AB
 10
6.25813
 20
31.3138
 30
0.000000
  70
    32
  0
VERTEX
  8
DATUM_AXIS
  5
30AC
 10
6.25548
 20
31.3142
 30
0.000000
  70
    32
  0
VERTEX
  8
DATUM_AXIS
  5
30AD
 10
6.25283
 20
31.3145
 30
0.000000
  70
    32
  0
VERTEX
  8
DATUM_AXIS
  5
30AE
 10
6.25018
 20
31.3148
 30
0.000000
  70
    32
  0
VERTEX
  8
DATUM_AXIS
  5
30AF
 10
6.24753
 20
31.3152
 30
0.000000
  70
    32
  0
VERTEX
  8
DATUM_AXIS
  5
30B0
 10
6.24488
 20
31.3155
 30
0.000000
  70
    32
  0
VERTEX
  8
DATUM_AXIS
  5
30B1
 10
6.24224
 20
31.3158
 30
0.000000
  70
    32
  0
VERTEX
  8
DATUM_AXIS
  5
30B2
 10
6.23959
 20
31.3162
 30
0.000000
  70
    32
  0
VERTEX
  8
DATUM_AXIS
  5
30B3
 10
6.23694
 20
31.3165
 30
0.000000
  70
    32
  0
VERTEX
  8
DATUM_AXIS
  5
30B4
 10
6.23429
 20
31.3168
 30
0.000000
  70
    32
  0
VERTEX
  8
DATUM_AXIS
  5
30B5
 10
6.23164
 20
31.3172
 30
0.000000
  70
    32
  0
VERTEX
  8
DATUM_AXIS
  5
30B6
 10
6.22899
 20
31.3175
 30
0.000000
  70
    32
  0
VERTEX
  8
DATUM_AXIS
  5
30B7
 10
6.22634
 20
31.3178
 30
0.000000
  70
    32
  0
VERTEX
  8
DATUM_AXIS
  5
30B8
 10
6.22369
 20
31.3182
 30
0.000000
  70
    32
  0
VERTEX
  8
DATUM_AXIS
  5
30B9
 10
6.22104
 20
31.3185
 30
0.000000
  70
    32
  0
VERTEX
  8
DATUM_AXIS
  5
30BA
 10
6.21840
 20
31.3188
 30
0.000000
  70
    32
  0
VERTEX
  8
DATUM_AXIS
  5
30BB
 10
6.21575
 20
31.3192
 30
0.000000
  70
    32
  0
VERTEX
  8
DATUM_AXIS
  5
30BC
 10
6.21310
 20
31.3195
 30
0.000000
  70
    32
  0
VERTEX
  8
DATUM_AXIS
  5
30BD
 10
6.21045
 20
31.3198
 30
0.000000
  70
    32
  0
VERTEX
  8
DATUM_AXIS
  5
30BE
 10
6.20780
 20
31.3202
 30
0.000000
  70
    32
  0
VERTEX
  8
DATUM_AXIS
  5
30BF
 10
6.20515
 20
31.3205
 30
0.000000
  70
    32
  0
VERTEX
  8
DATUM_AXIS
  5
30C0
 10
6.20250
 20
31.3208
 30
0.000000
  70
    32
  0
SEQEND
  8
DATUM_AXIS
  5
30C1
  0
POLYLINE
  8
DATUM_AXIS
  5
30C2
  62
7
  66
     1
 10
0.000000
 20
0.000000
 30
0.000000
  70
     8
  0
VERTEX
  8
DATUM_AXIS
  5
30C3
 10
2.94478
 20
31.4938
 30
0.000000
  70
    32
  0
VERTEX
  8
DATUM_AXIS
  5
30C4
 10
2.93870
 20
31.4937
 30
0.000000
  70
    32
  0
VERTEX
  8
DATUM_AXIS
  5
30C5
 10
2.93262
 20
31.4935
 30
0.000000
  70
    32
  0
VERTEX
  8
DATUM_AXIS
  5
30C6
 10
2.92653
 20
31.4934
 30
0.000000
  70
    32
  0
VERTEX
  8
DATUM_AXIS
  5
30C7
 10
2.92045
 20
31.4933
 30
0.000000
  70
    32
  0
VERTEX
  8
DATUM_AXIS
  5
30C8
 10
2.91436
 20
31.4932
 30
0.000000
  70
    32
  0
VERTEX
  8
DATUM_AXIS
  5
30C9
 10
2.90828
 20
31.4931
 30
0.000000
  70
    32
  0
VERTEX
  8
DATUM_AXIS
  5
30CA
 10
2.90220
 20
31.4930
 30
0.000000
  70
    32
  0
VERTEX
  8
DATUM_AXIS
  5
30CB
 10
2.89611
 20
31.4928
 30
0.000000
  70
    32
  0
VERTEX
  8
DATUM_AXIS
  5
30CC
 10
2.89003
 20
31.4927
 30
0.000000
  70
    32
  0
VERTEX
  8
DATUM_AXIS
  5
30CD
 10
2.88395
 20
31.4926
 30
0.000000
  70
    32
  0
VERTEX
  8
DATUM_AXIS
  5
30CE
 10
2.87786
 20
31.4925
 30
0.000000
  70
    32
  0
VERTEX
  8
DATUM_AXIS
  5
30CF
 10
2.87178
 20
31.4923
 30
0.000000
  70
    32
  0
VERTEX
  8
DATUM_AXIS
  5
30D0
 10
2.86570
 20
31.4922
 30
0.000000
  70
    32
  0
VERTEX
  8
DATUM_AXIS
  5
30D1
 10
2.85961
 20
31.4921
 30
0.000000
  70
    32
  0
VERTEX
  8
DATUM_AXIS
  5
30D2
 10
2.85353
 20
31.4919
 30
0.000000
  70
    32
  0
VERTEX
  8
DATUM_AXIS
  5
30D3
 10
2.84745
 20
31.4918
 30
0.000000
  70
    32
  0
VERTEX
  8
DATUM_AXIS
  5
30D4
 10
2.84136
 20
31.4917
 30
0.000000
  70
    32
  0
VERTEX
  8
DATUM_AXIS
  5
30D5
 10
2.83528
 20
31.4915
 30
0.000000
  70
    32
  0
VERTEX
  8
DATUM_AXIS
  5
30D6
 10
2.82920
 20
31.4914
 30
0.000000
  70
    32
  0
VERTEX
  8
DATUM_AXIS
  5
30D7
 10
2.82311
 20
31.4912
 30
0.000000
  70
    32
  0
VERTEX
  8
DATUM_AXIS
  5
30D8
 10
2.81703
 20
31.4911
 30
0.000000
  70
    32
  0
VERTEX
  8
DATUM_AXIS
  5
30D9
 10
2.81095
 20
31.4910
 30
0.000000
  70
    32
  0
VERTEX
  8
DATUM_AXIS
  5
30DA
 10
2.80486
 20
31.4908
 30
0.000000
  70
    32
  0
VERTEX
  8
DATUM_AXIS
  5
30DB
 10
2.79878
 20
31.4907
 30
0.000000
  70
    32
  0
VERTEX
  8
DATUM_AXIS
  5
30DC
 10
2.79270
 20
31.4905
 30
0.000000
  70
    32
  0
VERTEX
  8
DATUM_AXIS
  5
30DD
 10
2.78661
 20
31.4904
 30
0.000000
  70
    32
  0
VERTEX
  8
DATUM_AXIS
  5
30DE
 10
2.78053
 20
31.4902
 30
0.000000
  70
    32
  0
VERTEX
  8
DATUM_AXIS
  5
30DF
 10
2.77445
 20
31.4901
 30
0.000000
  70
    32
  0
VERTEX
  8
DATUM_AXIS
  5
30E0
 10
2.76836
 20
31.4899
 30
0.000000
  70
    32
  0
VERTEX
  8
DATUM_AXIS
  5
30E1
 10
2.76228
 20
31.4897
 30
0.000000
  70
    32
  0
VERTEX
  8
DATUM_AXIS
  5
30E2
 10
2.75620
 20
31.4896
 30
0.000000
  70
    32
  0
VERTEX
  8
DATUM_AXIS
  5
30E3
 10
2.75012
 20
31.4894
 30
0.000000
  70
    32
  0
VERTEX
  8
DATUM_AXIS
  5
30E4
 10
2.74403
 20
31.4893
 30
0.000000
  70
    32
  0
VERTEX
  8
DATUM_AXIS
  5
30E5
 10
2.73795
 20
31.4891
 30
0.000000
  70
    32
  0
VERTEX
  8
DATUM_AXIS
  5
30E6
 10
2.73187
 20
31.4889
 30
0.000000
  70
    32
  0
VERTEX
  8
DATUM_AXIS
  5
30E7
 10
2.72578
 20
31.4888
 30
0.000000
  70
    32
  0
VERTEX
  8
DATUM_AXIS
  5
30E8
 10
2.71970
 20
31.4886
 30
0.000000
  70
    32
  0
VERTEX
  8
DATUM_AXIS
  5
30E9
 10
2.71362
 20
31.4884
 30
0.000000
  70
    32
  0
VERTEX
  8
DATUM_AXIS
  5
30EA
 10
2.70754
 20
31.4883
 30
0.000000
  70
    32
  0
VERTEX
  8
DATUM_AXIS
  5
30EB
 10
2.70145
 20
31.4881
 30
0.000000
  70
    32
  0
VERTEX
  8
DATUM_AXIS
  5
30EC
 10
2.69537
 20
31.4879
 30
0.000000
  70
    32
  0
VERTEX
  8
DATUM_AXIS
  5
30ED
 10
2.68929
 20
31.4877
 30
0.000000
  70
    32
  0
VERTEX
  8
DATUM_AXIS
  5
30EE
 10
2.68321
 20
31.4875
 30
0.000000
  70
    32
  0
VERTEX
  8
DATUM_AXIS
  5
30EF
 10
2.67712
 20
31.4874
 30
0.000000
  70
    32
  0
VERTEX
  8
DATUM_AXIS
  5
30F0
 10
2.67104
 20
31.4872
 30
0.000000
  70
    32
  0
VERTEX
  8
DATUM_AXIS
  5
30F1
 10
2.66496
 20
31.4870
 30
0.000000
  70
    32
  0
VERTEX
  8
DATUM_AXIS
  5
30F2
 10
2.65888
 20
31.4868
 30
0.000000
  70
    32
  0
VERTEX
  8
DATUM_AXIS
  5
30F3
 10
2.65280
 20
31.4866
 30
0.000000
  70
    32
  0
VERTEX
  8
DATUM_AXIS
  5
30F4
 10
2.64671
 20
31.4864
 30
0.000000
  70
    32
  0
VERTEX
  8
DATUM_AXIS
  5
30F5
 10
2.64063
 20
31.4863
 30
0.000000
  70
    32
  0
VERTEX
  8
DATUM_AXIS
  5
30F6
 10
2.63455
 20
31.4861
 30
0.000000
  70
    32
  0
VERTEX
  8
DATUM_AXIS
  5
30F7
 10
2.62847
 20
31.4859
 30
0.000000
  70
    32
  0
VERTEX
  8
DATUM_AXIS
  5
30F8
 10
2.62238
 20
31.4857
 30
0.000000
  70
    32
  0
VERTEX
  8
DATUM_AXIS
  5
30F9
 10
2.61630
 20
31.4855
 30
0.000000
  70
    32
  0
VERTEX
  8
DATUM_AXIS
  5
30FA
 10
2.61022
 20
31.4853
 30
0.000000
  70
    32
  0
VERTEX
  8
DATUM_AXIS
  5
30FB
 10
2.60414
 20
31.4851
 30
0.000000
  70
    32
  0
VERTEX
  8
DATUM_AXIS
  5
30FC
 10
2.59806
 20
31.4849
 30
0.000000
  70
    32
  0
VERTEX
  8
DATUM_AXIS
  5
30FD
 10
2.59198
 20
31.4847
 30
0.000000
  70
    32
  0
VERTEX
  8
DATUM_AXIS
  5
30FE
 10
2.58589
 20
31.4845
 30
0.000000
  70
    32
  0
VERTEX
  8
DATUM_AXIS
  5
30FF
 10
2.57981
 20
31.4843
 30
0.000000
  70
    32
  0
VERTEX
  8
DATUM_AXIS
  5
3100
 10
2.57373
 20
31.4841
 30
0.000000
  70
    32
  0
VERTEX
  8
DATUM_AXIS
  5
3101
 10
2.56765
 20
31.4839
 30
0.000000
  70
    32
  0
VERTEX
  8
DATUM_AXIS
  5
3102
 10
2.56157
 20
31.4836
 30
0.000000
  70
    32
  0
VERTEX
  8
DATUM_AXIS
  5
3103
 10
2.55549
 20
31.4834
 30
0.000000
  70
    32
  0
VERTEX
  8
DATUM_AXIS
  5
3104
 10
2.54940
 20
31.4832
 30
0.000000
  70
    32
  0
VERTEX
  8
DATUM_AXIS
  5
3105
 10
2.54332
 20
31.4830
 30
0.000000
  70
    32
  0
VERTEX
  8
DATUM_AXIS
  5
3106
 10
2.53724
 20
31.4828
 30
0.000000
  70
    32
  0
VERTEX
  8
DATUM_AXIS
  5
3107
 10
2.53116
 20
31.4826
 30
0.000000
  70
    32
  0
VERTEX
  8
DATUM_AXIS
  5
3108
 10
2.52508
 20
31.4823
 30
0.000000
  70
    32
  0
VERTEX
  8
DATUM_AXIS
  5
3109
 10
2.51900
 20
31.4821
 30
0.000000
  70
    32
  0
VERTEX
  8
DATUM_AXIS
  5
310A
 10
2.51292
 20
31.4819
 30
0.000000
  70
    32
  0
VERTEX
  8
DATUM_AXIS
  5
310B
 10
2.50684
 20
31.4817
 30
0.000000
  70
    32
  0
VERTEX
  8
DATUM_AXIS
  5
310C
 10
2.50076
 20
31.4814
 30
0.000000
  70
    32
  0
VERTEX
  8
DATUM_AXIS
  5
310D
 10
2.49468
 20
31.4812
 30
0.000000
  70
    32
  0
VERTEX
  8
DATUM_AXIS
  5
310E
 10
2.48859
 20
31.4810
 30
0.000000
  70
    32
  0
VERTEX
  8
DATUM_AXIS
  5
310F
 10
2.48251
 20
31.4808
 30
0.000000
  70
    32
  0
VERTEX
  8
DATUM_AXIS
  5
3110
 10
2.47643
 20
31.4805
 30
0.000000
  70
    32
  0
VERTEX
  8
DATUM_AXIS
  5
3111
 10
2.47035
 20
31.4803
 30
0.000000
  70
    32
  0
VERTEX
  8
DATUM_AXIS
  5
3112
 10
2.46427
 20
31.4800
 30
0.000000
  70
    32
  0
VERTEX
  8
DATUM_AXIS
  5
3113
 10
2.45819
 20
31.4798
 30
0.000000
  70
    32
  0
VERTEX
  8
DATUM_AXIS
  5
3114
 10
2.45211
 20
31.4796
 30
0.000000
  70
    32
  0
VERTEX
  8
DATUM_AXIS
  5
3115
 10
2.44603
 20
31.4793
 30
0.000000
  70
    32
  0
VERTEX
  8
DATUM_AXIS
  5
3116
 10
2.43995
 20
31.4791
 30
0.000000
  70
    32
  0
VERTEX
  8
DATUM_AXIS
  5
3117
 10
2.43387
 20
31.4788
 30
0.000000
  70
    32
  0
VERTEX
  8
DATUM_AXIS
  5
3118
 10
2.42779
 20
31.4786
 30
0.000000
  70
    32
  0
VERTEX
  8
DATUM_AXIS
  5
3119
 10
2.42171
 20
31.4783
 30
0.000000
  70
    32
  0
VERTEX
  8
DATUM_AXIS
  5
311A
 10
2.41563
 20
31.4781
 30
0.000000
  70
    32
  0
VERTEX
  8
DATUM_AXIS
  5
311B
 10
2.40955
 20
31.4778
 30
0.000000
  70
    32
  0
VERTEX
  8
DATUM_AXIS
  5
311C
 10
2.40347
 20
31.4776
 30
0.000000
  70
    32
  0
VERTEX
  8
DATUM_AXIS
  5
311D
 10
2.39739
 20
31.4773
 30
0.000000
  70
    32
  0
VERTEX
  8
DATUM_AXIS
  5
311E
 10
2.39131
 20
31.4771
 30
0.000000
  70
    32
  0
VERTEX
  8
DATUM_AXIS
  5
311F
 10
2.38523
 20
31.4768
 30
0.000000
  70
    32
  0
VERTEX
  8
DATUM_AXIS
  5
3120
 10
2.37915
 20
31.4766
 30
0.000000
  70
    32
  0
VERTEX
  8
DATUM_AXIS
  5
3121
 10
2.37307
 20
31.4763
 30
0.000000
  70
    32
  0
VERTEX
  8
DATUM_AXIS
  5
3122
 10
2.36699
 20
31.4760
 30
0.000000
  70
    32
  0
VERTEX
  8
DATUM_AXIS
  5
3123
 10
2.36091
 20
31.4758
 30
0.000000
  70
    32
  0
VERTEX
  8
DATUM_AXIS
  5
3124
 10
2.35483
 20
31.4755
 30
0.000000
  70
    32
  0
VERTEX
  8
DATUM_AXIS
  5
3125
 10
2.34876
 20
31.4752
 30
0.000000
  70
    32
  0
VERTEX
  8
DATUM_AXIS
  5
3126
 10
2.34268
 20
31.4750
 30
0.000000
  70
    32
  0
VERTEX
  8
DATUM_AXIS
  5
3127
 10
2.33660
 20
31.4747
 30
0.000000
  70
    32
  0
VERTEX
  8
DATUM_AXIS
  5
3128
 10
2.33052
 20
31.4744
 30
0.000000
  70
    32
  0
VERTEX
  8
DATUM_AXIS
  5
3129
 10
2.32444
 20
31.4742
 30
0.000000
  70
    32
  0
VERTEX
  8
DATUM_AXIS
  5
312A
 10
2.31836
 20
31.4739
 30
0.000000
  70
    32
  0
VERTEX
  8
DATUM_AXIS
  5
312B
 10
2.31228
 20
31.4736
 30
0.000000
  70
    32
  0
VERTEX
  8
DATUM_AXIS
  5
312C
 10
2.30620
 20
31.4733
 30
0.000000
  70
    32
  0
VERTEX
  8
DATUM_AXIS
  5
312D
 10
2.30013
 20
31.4731
 30
0.000000
  70
    32
  0
VERTEX
  8
DATUM_AXIS
  5
312E
 10
2.29405
 20
31.4728
 30
0.000000
  70
    32
  0
VERTEX
  8
DATUM_AXIS
  5
312F
 10
2.28797
 20
31.4725
 30
0.000000
  70
    32
  0
VERTEX
  8
DATUM_AXIS
  5
3130
 10
2.28189
 20
31.4722
 30
0.000000
  70
    32
  0
VERTEX
  8
DATUM_AXIS
  5
3131
 10
2.27581
 20
31.4719
 30
0.000000
  70
    32
  0
VERTEX
  8
DATUM_AXIS
  5
3132
 10
2.26973
 20
31.4716
 30
0.000000
  70
    32
  0
VERTEX
  8
DATUM_AXIS
  5
3133
 10
2.26366
 20
31.4713
 30
0.000000
  70
    32
  0
VERTEX
  8
DATUM_AXIS
  5
3134
 10
2.25758
 20
31.4710
 30
0.000000
  70
    32
  0
VERTEX
  8
DATUM_AXIS
  5
3135
 10
2.25150
 20
31.4708
 30
0.000000
  70
    32
  0
VERTEX
  8
DATUM_AXIS
  5
3136
 10
2.24542
 20
31.4705
 30
0.000000
  70
    32
  0
VERTEX
  8
DATUM_AXIS
  5
3137
 10
2.23935
 20
31.4702
 30
0.000000
  70
    32
  0
VERTEX
  8
DATUM_AXIS
  5
3138
 10
2.23327
 20
31.4699
 30
0.000000
  70
    32
  0
VERTEX
  8
DATUM_AXIS
  5
3139
 10
2.22719
 20
31.4696
 30
0.000000
  70
    32
  0
VERTEX
  8
DATUM_AXIS
  5
313A
 10
2.22111
 20
31.4693
 30
0.000000
  70
    32
  0
VERTEX
  8
DATUM_AXIS
  5
313B
 10
2.21504
 20
31.4690
 30
0.000000
  70
    32
  0
VERTEX
  8
DATUM_AXIS
  5
313C
 10
2.20896
 20
31.4687
 30
0.000000
  70
    32
  0
VERTEX
  8
DATUM_AXIS
  5
313D
 10
2.20288
 20
31.4684
 30
0.000000
  70
    32
  0
VERTEX
  8
DATUM_AXIS
  5
313E
 10
2.19680
 20
31.4680
 30
0.000000
  70
    32
  0
VERTEX
  8
DATUM_AXIS
  5
313F
 10
2.19073
 20
31.4677
 30
0.000000
  70
    32
  0
VERTEX
  8
DATUM_AXIS
  5
3140
 10
2.18465
 20
31.4674
 30
0.000000
  70
    32
  0
VERTEX
  8
DATUM_AXIS
  5
3141
 10
2.17857
 20
31.4671
 30
0.000000
  70
    32
  0
VERTEX
  8
DATUM_AXIS
  5
3142
 10
2.17250
 20
31.4668
 30
0.000000
  70
    32
  0
SEQEND
  8
DATUM_AXIS
  5
3143
  0
POLYLINE
  8
DATUM_AXIS
  5
3144
  62
7
  66
     1
 10
0.000000
 20
0.000000
 30
0.000000
  70
     8
  0
VERTEX
  8
DATUM_AXIS
  5
3145
 10
3.81202
 20
31.4896
 30
0.000000
  70
    32
  0
VERTEX
  8
DATUM_AXIS
  5
3146
 10
3.81368
 20
31.4895
 30
0.000000
  70
    32
  0
VERTEX
  8
DATUM_AXIS
  5
3147
 10
3.81534
 20
31.4895
 30
0.000000
  70
    32
  0
VERTEX
  8
DATUM_AXIS
  5
3148
 10
3.81700
 20
31.4895
 30
0.000000
  70
    32
  0
VERTEX
  8
DATUM_AXIS
  5
3149
 10
3.81866
 20
31.4894
 30
0.000000
  70
    32
  0
VERTEX
  8
DATUM_AXIS
  5
314A
 10
3.82032
 20
31.4894
 30
0.000000
  70
    32
  0
VERTEX
  8
DATUM_AXIS
  5
314B
 10
3.82198
 20
31.4894
 30
0.000000
  70
    32
  0
VERTEX
  8
DATUM_AXIS
  5
314C
 10
3.82364
 20
31.4893
 30
0.000000
  70
    32
  0
VERTEX
  8
DATUM_AXIS
  5
314D
 10
3.82530
 20
31.4893
 30
0.000000
  70
    32
  0
VERTEX
  8
DATUM_AXIS
  5
314E
 10
3.82696
 20
31.4893
 30
0.000000
  70
    32
  0
VERTEX
  8
DATUM_AXIS
  5
314F
 10
3.82862
 20
31.4892
 30
0.000000
  70
    32
  0
VERTEX
  8
DATUM_AXIS
  5
3150
 10
3.83028
 20
31.4892
 30
0.000000
  70
    32
  0
VERTEX
  8
DATUM_AXIS
  5
3151
 10
3.83194
 20
31.4892
 30
0.000000
  70
    32
  0
VERTEX
  8
DATUM_AXIS
  5
3152
 10
3.83360
 20
31.4891
 30
0.000000
  70
    32
  0
VERTEX
  8
DATUM_AXIS
  5
3153
 10
3.83526
 20
31.4891
 30
0.000000
  70
    32
  0
VERTEX
  8
DATUM_AXIS
  5
3154
 10
3.83692
 20
31.4891
 30
0.000000
  70
    32
  0
VERTEX
  8
DATUM_AXIS
  5
3155
 10
3.83858
 20
31.4890
 30
0.000000
  70
    32
  0
VERTEX
  8
DATUM_AXIS
  5
3156
 10
3.84024
 20
31.4890
 30
0.000000
  70
    32
  0
VERTEX
  8
DATUM_AXIS
  5
3157
 10
3.84190
 20
31.4890
 30
0.000000
  70
    32
  0
VERTEX
  8
DATUM_AXIS
  5
3158
 10
3.84356
 20
31.4889
 30
0.000000
  70
    32
  0
VERTEX
  8
DATUM_AXIS
  5
3159
 10
3.84522
 20
31.4889
 30
0.000000
  70
    32
  0
VERTEX
  8
DATUM_AXIS
  5
315A
 10
3.84688
 20
31.4889
 30
0.000000
  70
    32
  0
VERTEX
  8
DATUM_AXIS
  5
315B
 10
3.84854
 20
31.4888
 30
0.000000
  70
    32
  0
VERTEX
  8
DATUM_AXIS
  5
315C
 10
3.85020
 20
31.4888
 30
0.000000
  70
    32
  0
VERTEX
  8
DATUM_AXIS
  5
315D
 10
3.85186
 20
31.4888
 30
0.000000
  70
    32
  0
VERTEX
  8
DATUM_AXIS
  5
315E
 10
3.85352
 20
31.4887
 30
0.000000
  70
    32
  0
VERTEX
  8
DATUM_AXIS
  5
315F
 10
3.85518
 20
31.4887
 30
0.000000
  70
    32
  0
VERTEX
  8
DATUM_AXIS
  5
3160
 10
3.85684
 20
31.4887
 30
0.000000
  70
    32
  0
VERTEX
  8
DATUM_AXIS
  5
3161
 10
3.85850
 20
31.4886
 30
0.000000
  70
    32
  0
VERTEX
  8
DATUM_AXIS
  5
3162
 10
3.86016
 20
31.4886
 30
0.000000
  70
    32
  0
VERTEX
  8
DATUM_AXIS
  5
3163
 10
3.86182
 20
31.4886
 30
0.000000
  70
    32
  0
VERTEX
  8
DATUM_AXIS
  5
3164
 10
3.86348
 20
31.4885
 30
0.000000
  70
    32
  0
VERTEX
  8
DATUM_AXIS
  5
3165
 10
3.86514
 20
31.4885
 30
0.000000
  70
    32
  0
VERTEX
  8
DATUM_AXIS
  5
3166
 10
3.86680
 20
31.4885
 30
0.000000
  70
    32
  0
VERTEX
  8
DATUM_AXIS
  5
3167
 10
3.86846
 20
31.4884
 30
0.000000
  70
    32
  0
VERTEX
  8
DATUM_AXIS
  5
3168
 10
3.87012
 20
31.4884
 30
0.000000
  70
    32
  0
VERTEX
  8
DATUM_AXIS
  5
3169
 10
3.87178
 20
31.4884
 30
0.000000
  70
    32
  0
VERTEX
  8
DATUM_AXIS
  5
316A
 10
3.87344
 20
31.4883
 30
0.000000
  70
    32
  0
VERTEX
  8
DATUM_AXIS
  5
316B
 10
3.87510
 20
31.4883
 30
0.000000
  70
    32
  0
VERTEX
  8
DATUM_AXIS
  5
316C
 10
3.87676
 20
31.4883
 30
0.000000
  70
    32
  0
VERTEX
  8
DATUM_AXIS
  5
316D
 10
3.87842
 20
31.4882
 30
0.000000
  70
    32
  0
VERTEX
  8
DATUM_AXIS
  5
316E
 10
3.88008
 20
31.4882
 30
0.000000
  70
    32
  0
VERTEX
  8
DATUM_AXIS
  5
316F
 10
3.88174
 20
31.4881
 30
0.000000
  70
    32
  0
VERTEX
  8
DATUM_AXIS
  5
3170
 10
3.88340
 20
31.4881
 30
0.000000
  70
    32
  0
VERTEX
  8
DATUM_AXIS
  5
3171
 10
3.88506
 20
31.4881
 30
0.000000
  70
    32
  0
VERTEX
  8
DATUM_AXIS
  5
3172
 10
3.88672
 20
31.4880
 30
0.000000
  70
    32
  0
VERTEX
  8
DATUM_AXIS
  5
3173
 10
3.88838
 20
31.4880
 30
0.000000
  70
    32
  0
VERTEX
  8
DATUM_AXIS
  5
3174
 10
3.89004
 20
31.4880
 30
0.000000
  70
    32
  0
VERTEX
  8
DATUM_AXIS
  5
3175
 10
3.89170
 20
31.4879
 30
0.000000
  70
    32
  0
VERTEX
  8
DATUM_AXIS
  5
3176
 10
3.89336
 20
31.4879
 30
0.000000
  70
    32
  0
VERTEX
  8
DATUM_AXIS
  5
3177
 10
3.89502
 20
31.4879
 30
0.000000
  70
    32
  0
VERTEX
  8
DATUM_AXIS
  5
3178
 10
3.89668
 20
31.4878
 30
0.000000
  70
    32
  0
VERTEX
  8
DATUM_AXIS
  5
3179
 10
3.89834
 20
31.4878
 30
0.000000
  70
    32
  0
VERTEX
  8
DATUM_AXIS
  5
317A
 10
3.90000
 20
31.4878
 30
0.000000
  70
    32
  0
VERTEX
  8
DATUM_AXIS
  5
317B
 10
3.90166
 20
31.4877
 30
0.000000
  70
    32
  0
VERTEX
  8
DATUM_AXIS
  5
317C
 10
3.90332
 20
31.4877
 30
0.000000
  70
    32
  0
VERTEX
  8
DATUM_AXIS
  5
317D
 10
3.90498
 20
31.4876
 30
0.000000
  70
    32
  0
VERTEX
  8
DATUM_AXIS
  5
317E
 10
3.90664
 20
31.4876
 30
0.000000
  70
    32
  0
VERTEX
  8
DATUM_AXIS
  5
317F
 10
3.90830
 20
31.4876
 30
0.000000
  70
    32
  0
VERTEX
  8
DATUM_AXIS
  5
3180
 10
3.90996
 20
31.4875
 30
0.000000
  70
    32
  0
VERTEX
  8
DATUM_AXIS
  5
3181
 10
3.91162
 20
31.4875
 30
0.000000
  70
    32
  0
VERTEX
  8
DATUM_AXIS
  5
3182
 10
3.91328
 20
31.4875
 30
0.000000
  70
    32
  0
VERTEX
  8
DATUM_AXIS
  5
3183
 10
3.91494
 20
31.4874
 30
0.000000
  70
    32
  0
VERTEX
  8
DATUM_AXIS
  5
3184
 10
3.91660
 20
31.4874
 30
0.000000
  70
    32
  0
VERTEX
  8
DATUM_AXIS
  5
3185
 10
3.91826
 20
31.4873
 30
0.000000
  70
    32
  0
VERTEX
  8
DATUM_AXIS
  5
3186
 10
3.91992
 20
31.4873
 30
0.000000
  70
    32
  0
VERTEX
  8
DATUM_AXIS
  5
3187
 10
3.92158
 20
31.4873
 30
0.000000
  70
    32
  0
VERTEX
  8
DATUM_AXIS
  5
3188
 10
3.92324
 20
31.4872
 30
0.000000
  70
    32
  0
VERTEX
  8
DATUM_AXIS
  5
3189
 10
3.92490
 20
31.4872
 30
0.000000
  70
    32
  0
VERTEX
  8
DATUM_AXIS
  5
318A
 10
3.92656
 20
31.4872
 30
0.000000
  70
    32
  0
VERTEX
  8
DATUM_AXIS
  5
318B
 10
3.92822
 20
31.4871
 30
0.000000
  70
    32
  0
VERTEX
  8
DATUM_AXIS
  5
318C
 10
3.92988
 20
31.4871
 30
0.000000
  70
    32
  0
VERTEX
  8
DATUM_AXIS
  5
318D
 10
3.93154
 20
31.4870
 30
0.000000
  70
    32
  0
VERTEX
  8
DATUM_AXIS
  5
318E
 10
3.93320
 20
31.4870
 30
0.000000
  70
    32
  0
VERTEX
  8
DATUM_AXIS
  5
318F
 10
3.93486
 20
31.4870
 30
0.000000
  70
    32
  0
VERTEX
  8
DATUM_AXIS
  5
3190
 10
3.93652
 20
31.4869
 30
0.000000
  70
    32
  0
VERTEX
  8
DATUM_AXIS
  5
3191
 10
3.93818
 20
31.4869
 30
0.000000
  70
    32
  0
VERTEX
  8
DATUM_AXIS
  5
3192
 10
3.93984
 20
31.4869
 30
0.000000
  70
    32
  0
VERTEX
  8
DATUM_AXIS
  5
3193
 10
3.94150
 20
31.4868
 30
0.000000
  70
    32
  0
VERTEX
  8
DATUM_AXIS
  5
3194
 10
3.94316
 20
31.4868
 30
0.000000
  70
    32
  0
VERTEX
  8
DATUM_AXIS
  5
3195
 10
3.94482
 20
31.4867
 30
0.000000
  70
    32
  0
VERTEX
  8
DATUM_AXIS
  5
3196
 10
3.94648
 20
31.4867
 30
0.000000
  70
    32
  0
VERTEX
  8
DATUM_AXIS
  5
3197
 10
3.94814
 20
31.4867
 30
0.000000
  70
    32
  0
VERTEX
  8
DATUM_AXIS
  5
3198
 10
3.94980
 20
31.4866
 30
0.000000
  70
    32
  0
VERTEX
  8
DATUM_AXIS
  5
3199
 10
3.95146
 20
31.4866
 30
0.000000
  70
    32
  0
VERTEX
  8
DATUM_AXIS
  5
319A
 10
3.95312
 20
31.4865
 30
0.000000
  70
    32
  0
VERTEX
  8
DATUM_AXIS
  5
319B
 10
3.95478
 20
31.4865
 30
0.000000
  70
    32
  0
VERTEX
  8
DATUM_AXIS
  5
319C
 10
3.95644
 20
31.4865
 30
0.000000
  70
    32
  0
VERTEX
  8
DATUM_AXIS
  5
319D
 10
3.95810
 20
31.4864
 30
0.000000
  70
    32
  0
VERTEX
  8
DATUM_AXIS
  5
319E
 10
3.95976
 20
31.4864
 30
0.000000
  70
    32
  0
VERTEX
  8
DATUM_AXIS
  5
319F
 10
3.96142
 20
31.4863
 30
0.000000
  70
    32
  0
VERTEX
  8
DATUM_AXIS
  5
31A0
 10
3.96308
 20
31.4863
 30
0.000000
  70
    32
  0
VERTEX
  8
DATUM_AXIS
  5
31A1
 10
3.96474
 20
31.4863
 30
0.000000
  70
    32
  0
VERTEX
  8
DATUM_AXIS
  5
31A2
 10
3.96640
 20
31.4862
 30
0.000000
  70
    32
  0
VERTEX
  8
DATUM_AXIS
  5
31A3
 10
3.96806
 20
31.4862
 30
0.000000
  70
    32
  0
VERTEX
  8
DATUM_AXIS
  5
31A4
 10
3.96972
 20
31.4861
 30
0.000000
  70
    32
  0
VERTEX
  8
DATUM_AXIS
  5
31A5
 10
3.97138
 20
31.4861
 30
0.000000
  70
    32
  0
VERTEX
  8
DATUM_AXIS
  5
31A6
 10
3.97304
 20
31.4861
 30
0.000000
  70
    32
  0
VERTEX
  8
DATUM_AXIS
  5
31A7
 10
3.97470
 20
31.4860
 30
0.000000
  70
    32
  0
VERTEX
  8
DATUM_AXIS
  5
31A8
 10
3.97636
 20
31.4860
 30
0.000000
  70
    32
  0
VERTEX
  8
DATUM_AXIS
  5
31A9
 10
3.97802
 20
31.4859
 30
0.000000
  70
    32
  0
VERTEX
  8
DATUM_AXIS
  5
31AA
 10
3.97968
 20
31.4859
 30
0.000000
  70
    32
  0
VERTEX
  8
DATUM_AXIS
  5
31AB
 10
3.98134
 20
31.4859
 30
0.000000
  70
    32
  0
VERTEX
  8
DATUM_AXIS
  5
31AC
 10
3.98300
 20
31.4858
 30
0.000000
  70
    32
  0
VERTEX
  8
DATUM_AXIS
  5
31AD
 10
3.98466
 20
31.4858
 30
0.000000
  70
    32
  0
VERTEX
  8
DATUM_AXIS
  5
31AE
 10
3.98632
 20
31.4857
 30
0.000000
  70
    32
  0
VERTEX
  8
DATUM_AXIS
  5
31AF
 10
3.98798
 20
31.4857
 30
0.000000
  70
    32
  0
VERTEX
  8
DATUM_AXIS
  5
31B0
 10
3.98964
 20
31.4857
 30
0.000000
  70
    32
  0
VERTEX
  8
DATUM_AXIS
  5
31B1
 10
3.99130
 20
31.4856
 30
0.000000
  70
    32
  0
VERTEX
  8
DATUM_AXIS
  5
31B2
 10
3.99296
 20
31.4856
 30
0.000000
  70
    32
  0
VERTEX
  8
DATUM_AXIS
  5
31B3
 10
3.99461
 20
31.4855
 30
0.000000
  70
    32
  0
VERTEX
  8
DATUM_AXIS
  5
31B4
 10
3.99627
 20
31.4855
 30
0.000000
  70
    32
  0
VERTEX
  8
DATUM_AXIS
  5
31B5
 10
3.99793
 20
31.4855
 30
0.000000
  70
    32
  0
VERTEX
  8
DATUM_AXIS
  5
31B6
 10
3.99959
 20
31.4854
 30
0.000000
  70
    32
  0
VERTEX
  8
DATUM_AXIS
  5
31B7
 10
4.00125
 20
31.4854
 30
0.000000
  70
    32
  0
VERTEX
  8
DATUM_AXIS
  5
31B8
 10
4.00291
 20
31.4853
 30
0.000000
  70
    32
  0
VERTEX
  8
DATUM_AXIS
  5
31B9
 10
4.00457
 20
31.4853
 30
0.000000
  70
    32
  0
VERTEX
  8
DATUM_AXIS
  5
31BA
 10
4.00623
 20
31.4852
 30
0.000000
  70
    32
  0
VERTEX
  8
DATUM_AXIS
  5
31BB
 10
4.00789
 20
31.4852
 30
0.000000
  70
    32
  0
VERTEX
  8
DATUM_AXIS
  5
31BC
 10
4.00955
 20
31.4852
 30
0.000000
  70
    32
  0
VERTEX
  8
DATUM_AXIS
  5
31BD
 10
4.01121
 20
31.4851
 30
0.000000
  70
    32
  0
VERTEX
  8
DATUM_AXIS
  5
31BE
 10
4.01287
 20
31.4851
 30
0.000000
  70
    32
  0
VERTEX
  8
DATUM_AXIS
  5
31BF
 10
4.01453
 20
31.4850
 30
0.000000
  70
    32
  0
VERTEX
  8
DATUM_AXIS
  5
31C0
 10
4.01619
 20
31.4850
 30
0.000000
  70
    32
  0
VERTEX
  8
DATUM_AXIS
  5
31C1
 10
4.01785
 20
31.4849
 30
0.000000
  70
    32
  0
VERTEX
  8
DATUM_AXIS
  5
31C2
 10
4.01951
 20
31.4849
 30
0.000000
  70
    32
  0
VERTEX
  8
DATUM_AXIS
  5
31C3
 10
4.02117
 20
31.4849
 30
0.000000
  70
    32
  0
VERTEX
  8
DATUM_AXIS
  5
31C4
 10
4.02283
 20
31.4848
 30
0.000000
  70
    32
  0
VERTEX
  8
DATUM_AXIS
  5
31C5
 10
4.02449
 20
31.4848
 30
0.000000
  70
    32
  0
VERTEX
  8
DATUM_AXIS
  5
31C6
 10
4.02615
 20
31.4847
 30
0.000000
  70
    32
  0
VERTEX
  8
DATUM_AXIS
  5
31C7
 10
4.02781
 20
31.4847
 30
0.000000
  70
    32
  0
VERTEX
  8
DATUM_AXIS
  5
31C8
 10
4.02947
 20
31.4846
 30
0.000000
  70
    32
  0
VERTEX
  8
DATUM_AXIS
  5
31C9
 10
4.03113
 20
31.4846
 30
0.000000
  70
    32
  0
VERTEX
  8
DATUM_AXIS
  5
31CA
 10
4.03279
 20
31.4846
 30
0.000000
  70
    32
  0
VERTEX
  8
DATUM_AXIS
  5
31CB
 10
4.03445
 20
31.4845
 30
0.000000
  70
    32
  0
VERTEX
  8
DATUM_AXIS
  5
31CC
 10
4.03611
 20
31.4845
 30
0.000000
  70
    32
  0
VERTEX
  8
DATUM_AXIS
  5
31CD
 10
4.03777
 20
31.4844
 30
0.000000
  70
    32
  0
VERTEX
  8
DATUM_AXIS
  5
31CE
 10
4.03943
 20
31.4844
 30
0.000000
  70
    32
  0
VERTEX
  8
DATUM_AXIS
  5
31CF
 10
4.04109
 20
31.4843
 30
0.000000
  70
    32
  0
VERTEX
  8
DATUM_AXIS
  5
31D0
 10
4.04275
 20
31.4843
 30
0.000000
  70
    32
  0
VERTEX
  8
DATUM_AXIS
  5
31D1
 10
4.04441
 20
31.4843
 30
0.000000
  70
    32
  0
VERTEX
  8
DATUM_AXIS
  5
31D2
 10
4.04607
 20
31.4842
 30
0.000000
  70
    32
  0
VERTEX
  8
DATUM_AXIS
  5
31D3
 10
4.04773
 20
31.4842
 30
0.000000
  70
    32
  0
VERTEX
  8
DATUM_AXIS
  5
31D4
 10
4.04939
 20
31.4841
 30
0.000000
  70
    32
  0
VERTEX
  8
DATUM_AXIS
  5
31D5
 10
4.05105
 20
31.4841
 30
0.000000
  70
    32
  0
VERTEX
  8
DATUM_AXIS
  5
31D6
 10
4.05271
 20
31.4840
 30
0.000000
  70
    32
  0
VERTEX
  8
DATUM_AXIS
  5
31D7
 10
4.05437
 20
31.4840
 30
0.000000
  70
    32
  0
VERTEX
  8
DATUM_AXIS
  5
31D8
 10
4.05603
 20
31.4839
 30
0.000000
  70
    32
  0
VERTEX
  8
DATUM_AXIS
  5
31D9
 10
4.05769
 20
31.4839
 30
0.000000
  70
    32
  0
VERTEX
  8
DATUM_AXIS
  5
31DA
 10
4.05935
 20
31.4839
 30
0.000000
  70
    32
  0
VERTEX
  8
DATUM_AXIS
  5
31DB
 10
4.06101
 20
31.4838
 30
0.000000
  70
    32
  0
VERTEX
  8
DATUM_AXIS
  5
31DC
 10
4.06267
 20
31.4838
 30
0.000000
  70
    32
  0
VERTEX
  8
DATUM_AXIS
  5
31DD
 10
4.06433
 20
31.4837
 30
0.000000
  70
    32
  0
VERTEX
  8
DATUM_AXIS
  5
31DE
 10
4.06599
 20
31.4837
 30
0.000000
  70
    32
  0
VERTEX
  8
DATUM_AXIS
  5
31DF
 10
4.06765
 20
31.4836
 30
0.000000
  70
    32
  0
VERTEX
  8
DATUM_AXIS
  5
31E0
 10
4.06931
 20
31.4836
 30
0.000000
  70
    32
  0
VERTEX
  8
DATUM_AXIS
  5
31E1
 10
4.07097
 20
31.4835
 30
0.000000
  70
    32
  0
VERTEX
  8
DATUM_AXIS
  5
31E2
 10
4.07263
 20
31.4835
 30
0.000000
  70
    32
  0
VERTEX
  8
DATUM_AXIS
  5
31E3
 10
4.07429
 20
31.4835
 30
0.000000
  70
    32
  0
VERTEX
  8
DATUM_AXIS
  5
31E4
 10
4.07594
 20
31.4834
 30
0.000000
  70
    32
  0
VERTEX
  8
DATUM_AXIS
  5
31E5
 10
4.07760
 20
31.4834
 30
0.000000
  70
    32
  0
VERTEX
  8
DATUM_AXIS
  5
31E6
 10
4.07926
 20
31.4833
 30
0.000000
  70
    32
  0
VERTEX
  8
DATUM_AXIS
  5
31E7
 10
4.08092
 20
31.4833
 30
0.000000
  70
    32
  0
VERTEX
  8
DATUM_AXIS
  5
31E8
 10
4.08258
 20
31.4832
 30
0.000000
  70
    32
  0
VERTEX
  8
DATUM_AXIS
  5
31E9
 10
4.08424
 20
31.4832
 30
0.000000
  70
    32
  0
VERTEX
  8
DATUM_AXIS
  5
31EA
 10
4.08590
 20
31.4831
 30
0.000000
  70
    32
  0
VERTEX
  8
DATUM_AXIS
  5
31EB
 10
4.08756
 20
31.4831
 30
0.000000
  70
    32
  0
VERTEX
  8
DATUM_AXIS
  5
31EC
 10
4.08922
 20
31.4830
 30
0.000000
  70
    32
  0
VERTEX
  8
DATUM_AXIS
  5
31ED
 10
4.09088
 20
31.4830
 30
0.000000
  70
    32
  0
VERTEX
  8
DATUM_AXIS
  5
31EE
 10
4.09254
 20
31.4829
 30
0.000000
  70
    32
  0
VERTEX
  8
DATUM_AXIS
  5
31EF
 10
4.09420
 20
31.4829
 30
0.000000
  70
    32
  0
VERTEX
  8
DATUM_AXIS
  5
31F0
 10
4.09586
 20
31.4829
 30
0.000000
  70
    32
  0
VERTEX
  8
DATUM_AXIS
  5
31F1
 10
4.09752
 20
31.4828
 30
0.000000
  70
    32
  0
VERTEX
  8
DATUM_AXIS
  5
31F2
 10
4.09918
 20
31.4828
 30
0.000000
  70
    32
  0
VERTEX
  8
DATUM_AXIS
  5
31F3
 10
4.10084
 20
31.4827
 30
0.000000
  70
    32
  0
VERTEX
  8
DATUM_AXIS
  5
31F4
 10
4.10250
 20
31.4827
 30
0.000000
  70
    32
  0
VERTEX
  8
DATUM_AXIS
  5
31F5
 10
4.10416
 20
31.4826
 30
0.000000
  70
    32
  0
VERTEX
  8
DATUM_AXIS
  5
31F6
 10
4.10582
 20
31.4826
 30
0.000000
  70
    32
  0
VERTEX
  8
DATUM_AXIS
  5
31F7
 10
4.10748
 20
31.4825
 30
0.000000
  70
    32
  0
VERTEX
  8
DATUM_AXIS
  5
31F8
 10
4.10914
 20
31.4825
 30
0.000000
  70
    32
  0
VERTEX
  8
DATUM_AXIS
  5
31F9
 10
4.11080
 20
31.4824
 30
0.000000
  70
    32
  0
VERTEX
  8
DATUM_AXIS
  5
31FA
 10
4.11246
 20
31.4824
 30
0.000000
  70
    32
  0
VERTEX
  8
DATUM_AXIS
  5
31FB
 10
4.11412
 20
31.4823
 30
0.000000
  70
    32
  0
VERTEX
  8
DATUM_AXIS
  5
31FC
 10
4.11578
 20
31.4823
 30
0.000000
  70
    32
  0
VERTEX
  8
DATUM_AXIS
  5
31FD
 10
4.11744
 20
31.4822
 30
0.000000
  70
    32
  0
VERTEX
  8
DATUM_AXIS
  5
31FE
 10
4.11910
 20
31.4822
 30
0.000000
  70
    32
  0
VERTEX
  8
DATUM_AXIS
  5
31FF
 10
4.12076
 20
31.4821
 30
0.000000
  70
    32
  0
VERTEX
  8
DATUM_AXIS
  5
3200
 10
4.12242
 20
31.4821
 30
0.000000
  70
    32
  0
VERTEX
  8
DATUM_AXIS
  5
3201
 10
4.12408
 20
31.4821
 30
0.000000
  70
    32
  0
VERTEX
  8
DATUM_AXIS
  5
3202
 10
4.12574
 20
31.4820
 30
0.000000
  70
    32
  0
VERTEX
  8
DATUM_AXIS
  5
3203
 10
4.12740
 20
31.4820
 30
0.000000
  70
    32
  0
VERTEX
  8
DATUM_AXIS
  5
3204
 10
4.12906
 20
31.4819
 30
0.000000
  70
    32
  0
VERTEX
  8
DATUM_AXIS
  5
3205
 10
4.13072
 20
31.4819
 30
0.000000
  70
    32
  0
VERTEX
  8
DATUM_AXIS
  5
3206
 10
4.13237
 20
31.4818
 30
0.000000
  70
    32
  0
VERTEX
  8
DATUM_AXIS
  5
3207
 10
4.13403
 20
31.4818
 30
0.000000
  70
    32
  0
VERTEX
  8
DATUM_AXIS
  5
3208
 10
4.13569
 20
31.4817
 30
0.000000
  70
    32
  0
VERTEX
  8
DATUM_AXIS
  5
3209
 10
4.13735
 20
31.4817
 30
0.000000
  70
    32
  0
VERTEX
  8
DATUM_AXIS
  5
320A
 10
4.13901
 20
31.4816
 30
0.000000
  70
    32
  0
VERTEX
  8
DATUM_AXIS
  5
320B
 10
4.14067
 20
31.4816
 30
0.000000
  70
    32
  0
VERTEX
  8
DATUM_AXIS
  5
320C
 10
4.14233
 20
31.4815
 30
0.000000
  70
    32
  0
VERTEX
  8
DATUM_AXIS
  5
320D
 10
4.14399
 20
31.4815
 30
0.000000
  70
    32
  0
VERTEX
  8
DATUM_AXIS
  5
320E
 10
4.14565
 20
31.4814
 30
0.000000
  70
    32
  0
VERTEX
  8
DATUM_AXIS
  5
320F
 10
4.14731
 20
31.4814
 30
0.000000
  70
    32
  0
VERTEX
  8
DATUM_AXIS
  5
3210
 10
4.14897
 20
31.4813
 30
0.000000
  70
    32
  0
VERTEX
  8
DATUM_AXIS
  5
3211
 10
4.15063
 20
31.4813
 30
0.000000
  70
    32
  0
VERTEX
  8
DATUM_AXIS
  5
3212
 10
4.15229
 20
31.4812
 30
0.000000
  70
    32
  0
VERTEX
  8
DATUM_AXIS
  5
3213
 10
4.15395
 20
31.4812
 30
0.000000
  70
    32
  0
VERTEX
  8
DATUM_AXIS
  5
3214
 10
4.15561
 20
31.4811
 30
0.000000
  70
    32
  0
VERTEX
  8
DATUM_AXIS
  5
3215
 10
4.15727
 20
31.4811
 30
0.000000
  70
    32
  0
VERTEX
  8
DATUM_AXIS
  5
3216
 10
4.15893
 20
31.4810
 30
0.000000
  70
    32
  0
VERTEX
  8
DATUM_AXIS
  5
3217
 10
4.16059
 20
31.4810
 30
0.000000
  70
    32
  0
VERTEX
  8
DATUM_AXIS
  5
3218
 10
4.16225
 20
31.4809
 30
0.000000
  70
    32
  0
VERTEX
  8
DATUM_AXIS
  5
3219
 10
4.16391
 20
31.4809
 30
0.000000
  70
    32
  0
VERTEX
  8
DATUM_AXIS
  5
321A
 10
4.16557
 20
31.4808
 30
0.000000
  70
    32
  0
VERTEX
  8
DATUM_AXIS
  5
321B
 10
4.16723
 20
31.4808
 30
0.000000
  70
    32
  0
VERTEX
  8
DATUM_AXIS
  5
321C
 10
4.16889
 20
31.4807
 30
0.000000
  70
    32
  0
VERTEX
  8
DATUM_AXIS
  5
321D
 10
4.17055
 20
31.4807
 30
0.000000
  70
    32
  0
VERTEX
  8
DATUM_AXIS
  5
321E
 10
4.17221
 20
31.4806
 30
0.000000
  70
    32
  0
VERTEX
  8
DATUM_AXIS
  5
321F
 10
4.17387
 20
31.4806
 30
0.000000
  70
    32
  0
VERTEX
  8
DATUM_AXIS
  5
3220
 10
4.17552
 20
31.4805
 30
0.000000
  70
    32
  0
VERTEX
  8
DATUM_AXIS
  5
3221
 10
4.17718
 20
31.4805
 30
0.000000
  70
    32
  0
VERTEX
  8
DATUM_AXIS
  5
3222
 10
4.17884
 20
31.4804
 30
0.000000
  70
    32
  0
VERTEX
  8
DATUM_AXIS
  5
3223
 10
4.18050
 20
31.4804
 30
0.000000
  70
    32
  0
VERTEX
  8
DATUM_AXIS
  5
3224
 10
4.18216
 20
31.4803
 30
0.000000
  70
    32
  0
VERTEX
  8
DATUM_AXIS
  5
3225
 10
4.18382
 20
31.4803
 30
0.000000
  70
    32
  0
VERTEX
  8
DATUM_AXIS
  5
3226
 10
4.18548
 20
31.4802
 30
0.000000
  70
    32
  0
VERTEX
  8
DATUM_AXIS
  5
3227
 10
4.18714
 20
31.4802
 30
0.000000
  70
    32
  0
VERTEX
  8
DATUM_AXIS
  5
3228
 10
4.18880
 20
31.4801
 30
0.000000
  70
    32
  0
VERTEX
  8
DATUM_AXIS
  5
3229
 10
4.19046
 20
31.4801
 30
0.000000
  70
    32
  0
VERTEX
  8
DATUM_AXIS
  5
322A
 10
4.19212
 20
31.4800
 30
0.000000
  70
    32
  0
VERTEX
  8
DATUM_AXIS
  5
322B
 10
4.19378
 20
31.4800
 30
0.000000
  70
    32
  0
VERTEX
  8
DATUM_AXIS
  5
322C
 10
4.19544
 20
31.4799
 30
0.000000
  70
    32
  0
VERTEX
  8
DATUM_AXIS
  5
322D
 10
4.19710
 20
31.4799
 30
0.000000
  70
    32
  0
VERTEX
  8
DATUM_AXIS
  5
322E
 10
4.19876
 20
31.4798
 30
0.000000
  70
    32
  0
VERTEX
  8
DATUM_AXIS
  5
322F
 10
4.20042
 20
31.4798
 30
0.000000
  70
    32
  0
VERTEX
  8
DATUM_AXIS
  5
3230
 10
4.20208
 20
31.4797
 30
0.000000
  70
    32
  0
VERTEX
  8
DATUM_AXIS
  5
3231
 10
4.20374
 20
31.4796
 30
0.000000
  70
    32
  0
VERTEX
  8
DATUM_AXIS
  5
3232
 10
4.20540
 20
31.4796
 30
0.000000
  70
    32
  0
VERTEX
  8
DATUM_AXIS
  5
3233
 10
4.20706
 20
31.4795
 30
0.000000
  70
    32
  0
VERTEX
  8
DATUM_AXIS
  5
3234
 10
4.20872
 20
31.4795
 30
0.000000
  70
    32
  0
VERTEX
  8
DATUM_AXIS
  5
3235
 10
4.21038
 20
31.4794
 30
0.000000
  70
    32
  0
VERTEX
  8
DATUM_AXIS
  5
3236
 10
4.21204
 20
31.4794
 30
0.000000
  70
    32
  0
VERTEX
  8
DATUM_AXIS
  5
3237
 10
4.21369
 20
31.4793
 30
0.000000
  70
    32
  0
VERTEX
  8
DATUM_AXIS
  5
3238
 10
4.21535
 20
31.4793
 30
0.000000
  70
    32
  0
VERTEX
  8
DATUM_AXIS
  5
3239
 10
4.21701
 20
31.4792
 30
0.000000
  70
    32
  0
VERTEX
  8
DATUM_AXIS
  5
323A
 10
4.21867
 20
31.4792
 30
0.000000
  70
    32
  0
VERTEX
  8
DATUM_AXIS
  5
323B
 10
4.22033
 20
31.4791
 30
0.000000
  70
    32
  0
VERTEX
  8
DATUM_AXIS
  5
323C
 10
4.22199
 20
31.4791
 30
0.000000
  70
    32
  0
VERTEX
  8
DATUM_AXIS
  5
323D
 10
4.22365
 20
31.4790
 30
0.000000
  70
    32
  0
VERTEX
  8
DATUM_AXIS
  5
323E
 10
4.22531
 20
31.4790
 30
0.000000
  70
    32
  0
VERTEX
  8
DATUM_AXIS
  5
323F
 10
4.22697
 20
31.4789
 30
0.000000
  70
    32
  0
VERTEX
  8
DATUM_AXIS
  5
3240
 10
4.22863
 20
31.4789
 30
0.000000
  70
    32
  0
VERTEX
  8
DATUM_AXIS
  5
3241
 10
4.23029
 20
31.4788
 30
0.000000
  70
    32
  0
VERTEX
  8
DATUM_AXIS
  5
3242
 10
4.23195
 20
31.4788
 30
0.000000
  70
    32
  0
VERTEX
  8
DATUM_AXIS
  5
3243
 10
4.23361
 20
31.4787
 30
0.000000
  70
    32
  0
VERTEX
  8
DATUM_AXIS
  5
3244
 10
4.23527
 20
31.4786
 30
0.000000
  70
    32
  0
VERTEX
  8
DATUM_AXIS
  5
3245
 10
4.23693
 20
31.4786
 30
0.000000
  70
    32
  0
VERTEX
  8
DATUM_AXIS
  5
3246
 10
4.23859
 20
31.4785
 30
0.000000
  70
    32
  0
VERTEX
  8
DATUM_AXIS
  5
3247
 10
4.24025
 20
31.4785
 30
0.000000
  70
    32
  0
VERTEX
  8
DATUM_AXIS
  5
3248
 10
4.24191
 20
31.4784
 30
0.000000
  70
    32
  0
VERTEX
  8
DATUM_AXIS
  5
3249
 10
4.24357
 20
31.4784
 30
0.000000
  70
    32
  0
VERTEX
  8
DATUM_AXIS
  5
324A
 10
4.24523
 20
31.4783
 30
0.000000
  70
    32
  0
VERTEX
  8
DATUM_AXIS
  5
324B
 10
4.24689
 20
31.4783
 30
0.000000
  70
    32
  0
VERTEX
  8
DATUM_AXIS
  5
324C
 10
4.24854
 20
31.4782
 30
0.000000
  70
    32
  0
VERTEX
  8
DATUM_AXIS
  5
324D
 10
4.25020
 20
31.4782
 30
0.000000
  70
    32
  0
VERTEX
  8
DATUM_AXIS
  5
324E
 10
4.25186
 20
31.4781
 30
0.000000
  70
    32
  0
VERTEX
  8
DATUM_AXIS
  5
324F
 10
4.25352
 20
31.4780
 30
0.000000
  70
    32
  0
VERTEX
  8
DATUM_AXIS
  5
3250
 10
4.25518
 20
31.4780
 30
0.000000
  70
    32
  0
VERTEX
  8
DATUM_AXIS
  5
3251
 10
4.25684
 20
31.4779
 30
0.000000
  70
    32
  0
VERTEX
  8
DATUM_AXIS
  5
3252
 10
4.25850
 20
31.4779
 30
0.000000
  70
    32
  0
VERTEX
  8
DATUM_AXIS
  5
3253
 10
4.26016
 20
31.4778
 30
0.000000
  70
    32
  0
VERTEX
  8
DATUM_AXIS
  5
3254
 10
4.26182
 20
31.4778
 30
0.000000
  70
    32
  0
VERTEX
  8
DATUM_AXIS
  5
3255
 10
4.26348
 20
31.4777
 30
0.000000
  70
    32
  0
VERTEX
  8
DATUM_AXIS
  5
3256
 10
4.26514
 20
31.4777
 30
0.000000
  70
    32
  0
VERTEX
  8
DATUM_AXIS
  5
3257
 10
4.26680
 20
31.4776
 30
0.000000
  70
    32
  0
VERTEX
  8
DATUM_AXIS
  5
3258
 10
4.26846
 20
31.4776
 30
0.000000
  70
    32
  0
VERTEX
  8
DATUM_AXIS
  5
3259
 10
4.27012
 20
31.4775
 30
0.000000
  70
    32
  0
VERTEX
  8
DATUM_AXIS
  5
325A
 10
4.27178
 20
31.4774
 30
0.000000
  70
    32
  0
VERTEX
  8
DATUM_AXIS
  5
325B
 10
4.27344
 20
31.4774
 30
0.000000
  70
    32
  0
VERTEX
  8
DATUM_AXIS
  5
325C
 10
4.27510
 20
31.4773
 30
0.000000
  70
    32
  0
VERTEX
  8
DATUM_AXIS
  5
325D
 10
4.27676
 20
31.4773
 30
0.000000
  70
    32
  0
VERTEX
  8
DATUM_AXIS
  5
325E
 10
4.27841
 20
31.4772
 30
0.000000
  70
    32
  0
VERTEX
  8
DATUM_AXIS
  5
325F
 10
4.28007
 20
31.4772
 30
0.000000
  70
    32
  0
VERTEX
  8
DATUM_AXIS
  5
3260
 10
4.28173
 20
31.4771
 30
0.000000
  70
    32
  0
VERTEX
  8
DATUM_AXIS
  5
3261
 10
4.28339
 20
31.4771
 30
0.000000
  70
    32
  0
VERTEX
  8
DATUM_AXIS
  5
3262
 10
4.28505
 20
31.4770
 30
0.000000
  70
    32
  0
VERTEX
  8
DATUM_AXIS
  5
3263
 10
4.28671
 20
31.4769
 30
0.000000
  70
    32
  0
VERTEX
  8
DATUM_AXIS
  5
3264
 10
4.28837
 20
31.4769
 30
0.000000
  70
    32
  0
VERTEX
  8
DATUM_AXIS
  5
3265
 10
4.29003
 20
31.4768
 30
0.000000
  70
    32
  0
VERTEX
  8
DATUM_AXIS
  5
3266
 10
4.29169
 20
31.4768
 30
0.000000
  70
    32
  0
VERTEX
  8
DATUM_AXIS
  5
3267
 10
4.29335
 20
31.4767
 30
0.000000
  70
    32
  0
VERTEX
  8
DATUM_AXIS
  5
3268
 10
4.29501
 20
31.4767
 30
0.000000
  70
    32
  0
VERTEX
  8
DATUM_AXIS
  5
3269
 10
4.29667
 20
31.4766
 30
0.000000
  70
    32
  0
VERTEX
  8
DATUM_AXIS
  5
326A
 10
4.29833
 20
31.4765
 30
0.000000
  70
    32
  0
VERTEX
  8
DATUM_AXIS
  5
326B
 10
4.29999
 20
31.4765
 30
0.000000
  70
    32
  0
VERTEX
  8
DATUM_AXIS
  5
326C
 10
4.30165
 20
31.4764
 30
0.000000
  70
    32
  0
VERTEX
  8
DATUM_AXIS
  5
326D
 10
4.30331
 20
31.4764
 30
0.000000
  70
    32
  0
VERTEX
  8
DATUM_AXIS
  5
326E
 10
4.30496
 20
31.4763
 30
0.000000
  70
    32
  0
VERTEX
  8
DATUM_AXIS
  5
326F
 10
4.30662
 20
31.4763
 30
0.000000
  70
    32
  0
VERTEX
  8
DATUM_AXIS
  5
3270
 10
4.30828
 20
31.4762
 30
0.000000
  70
    32
  0
VERTEX
  8
DATUM_AXIS
  5
3271
 10
4.30994
 20
31.4761
 30
0.000000
  70
    32
  0
VERTEX
  8
DATUM_AXIS
  5
3272
 10
4.31160
 20
31.4761
 30
0.000000
  70
    32
  0
VERTEX
  8
DATUM_AXIS
  5
3273
 10
4.31326
 20
31.4760
 30
0.000000
  70
    32
  0
VERTEX
  8
DATUM_AXIS
  5
3274
 10
4.31492
 20
31.4760
 30
0.000000
  70
    32
  0
VERTEX
  8
DATUM_AXIS
  5
3275
 10
4.31658
 20
31.4759
 30
0.000000
  70
    32
  0
VERTEX
  8
DATUM_AXIS
  5
3276
 10
4.31824
 20
31.4759
 30
0.000000
  70
    32
  0
VERTEX
  8
DATUM_AXIS
  5
3277
 10
4.31990
 20
31.4758
 30
0.000000
  70
    32
  0
VERTEX
  8
DATUM_AXIS
  5
3278
 10
4.32156
 20
31.4757
 30
0.000000
  70
    32
  0
VERTEX
  8
DATUM_AXIS
  5
3279
 10
4.32322
 20
31.4757
 30
0.000000
  70
    32
  0
VERTEX
  8
DATUM_AXIS
  5
327A
 10
4.32488
 20
31.4756
 30
0.000000
  70
    32
  0
VERTEX
  8
DATUM_AXIS
  5
327B
 10
4.32654
 20
31.4756
 30
0.000000
  70
    32
  0
VERTEX
  8
DATUM_AXIS
  5
327C
 10
4.32820
 20
31.4755
 30
0.000000
  70
    32
  0
VERTEX
  8
DATUM_AXIS
  5
327D
 10
4.32986
 20
31.4754
 30
0.000000
  70
    32
  0
VERTEX
  8
DATUM_AXIS
  5
327E
 10
4.33151
 20
31.4754
 30
0.000000
  70
    32
  0
VERTEX
  8
DATUM_AXIS
  5
327F
 10
4.33317
 20
31.4753
 30
0.000000
  70
    32
  0
VERTEX
  8
DATUM_AXIS
  5
3280
 10
4.33483
 20
31.4753
 30
0.000000
  70
    32
  0
VERTEX
  8
DATUM_AXIS
  5
3281
 10
4.33649
 20
31.4752
 30
0.000000
  70
    32
  0
VERTEX
  8
DATUM_AXIS
  5
3282
 10
4.33815
 20
31.4752
 30
0.000000
  70
    32
  0
VERTEX
  8
DATUM_AXIS
  5
3283
 10
4.33981
 20
31.4751
 30
0.000000
  70
    32
  0
VERTEX
  8
DATUM_AXIS
  5
3284
 10
4.34147
 20
31.4750
 30
0.000000
  70
    32
  0
VERTEX
  8
DATUM_AXIS
  5
3285
 10
4.34313
 20
31.4750
 30
0.000000
  70
    32
  0
VERTEX
  8
DATUM_AXIS
  5
3286
 10
4.34479
 20
31.4749
 30
0.000000
  70
    32
  0
VERTEX
  8
DATUM_AXIS
  5
3287
 10
4.34645
 20
31.4749
 30
0.000000
  70
    32
  0
VERTEX
  8
DATUM_AXIS
  5
3288
 10
4.34811
 20
31.4748
 30
0.000000
  70
    32
  0
VERTEX
  8
DATUM_AXIS
  5
3289
 10
4.34977
 20
31.4747
 30
0.000000
  70
    32
  0
VERTEX
  8
DATUM_AXIS
  5
328A
 10
4.35143
 20
31.4747
 30
0.000000
  70
    32
  0
VERTEX
  8
DATUM_AXIS
  5
328B
 10
4.35309
 20
31.4746
 30
0.000000
  70
    32
  0
VERTEX
  8
DATUM_AXIS
  5
328C
 10
4.35475
 20
31.4746
 30
0.000000
  70
    32
  0
VERTEX
  8
DATUM_AXIS
  5
328D
 10
4.35640
 20
31.4745
 30
0.000000
  70
    32
  0
VERTEX
  8
DATUM_AXIS
  5
328E
 10
4.35806
 20
31.4744
 30
0.000000
  70
    32
  0
VERTEX
  8
DATUM_AXIS
  5
328F
 10
4.35972
 20
31.4744
 30
0.000000
  70
    32
  0
VERTEX
  8
DATUM_AXIS
  5
3290
 10
4.36138
 20
31.4743
 30
0.000000
  70
    32
  0
VERTEX
  8
DATUM_AXIS
  5
3291
 10
4.36304
 20
31.4743
 30
0.000000
  70
    32
  0
VERTEX
  8
DATUM_AXIS
  5
3292
 10
4.36470
 20
31.4742
 30
0.000000
  70
    32
  0
VERTEX
  8
DATUM_AXIS
  5
3293
 10
4.36636
 20
31.4741
 30
0.000000
  70
    32
  0
VERTEX
  8
DATUM_AXIS
  5
3294
 10
4.36802
 20
31.4741
 30
0.000000
  70
    32
  0
VERTEX
  8
DATUM_AXIS
  5
3295
 10
4.36968
 20
31.4740
 30
0.000000
  70
    32
  0
VERTEX
  8
DATUM_AXIS
  5
3296
 10
4.37134
 20
31.4740
 30
0.000000
  70
    32
  0
VERTEX
  8
DATUM_AXIS
  5
3297
 10
4.37300
 20
31.4739
 30
0.000000
  70
    32
  0
VERTEX
  8
DATUM_AXIS
  5
3298
 10
4.37466
 20
31.4738
 30
0.000000
  70
    32
  0
VERTEX
  8
DATUM_AXIS
  5
3299
 10
4.37632
 20
31.4738
 30
0.000000
  70
    32
  0
VERTEX
  8
DATUM_AXIS
  5
329A
 10
4.37797
 20
31.4737
 30
0.000000
  70
    32
  0
VERTEX
  8
DATUM_AXIS
  5
329B
 10
4.37963
 20
31.4737
 30
0.000000
  70
    32
  0
VERTEX
  8
DATUM_AXIS
  5
329C
 10
4.38129
 20
31.4736
 30
0.000000
  70
    32
  0
VERTEX
  8
DATUM_AXIS
  5
329D
 10
4.38295
 20
31.4735
 30
0.000000
  70
    32
  0
VERTEX
  8
DATUM_AXIS
  5
329E
 10
4.38461
 20
31.4735
 30
0.000000
  70
    32
  0
VERTEX
  8
DATUM_AXIS
  5
329F
 10
4.38627
 20
31.4734
 30
0.000000
  70
    32
  0
VERTEX
  8
DATUM_AXIS
  5
32A0
 10
4.38793
 20
31.4734
 30
0.000000
  70
    32
  0
VERTEX
  8
DATUM_AXIS
  5
32A1
 10
4.38959
 20
31.4733
 30
0.000000
  70
    32
  0
VERTEX
  8
DATUM_AXIS
  5
32A2
 10
4.39125
 20
31.4732
 30
0.000000
  70
    32
  0
VERTEX
  8
DATUM_AXIS
  5
32A3
 10
4.39291
 20
31.4732
 30
0.000000
  70
    32
  0
VERTEX
  8
DATUM_AXIS
  5
32A4
 10
4.39457
 20
31.4731
 30
0.000000
  70
    32
  0
VERTEX
  8
DATUM_AXIS
  5
32A5
 10
4.39623
 20
31.4730
 30
0.000000
  70
    32
  0
VERTEX
  8
DATUM_AXIS
  5
32A6
 10
4.39789
 20
31.4730
 30
0.000000
  70
    32
  0
VERTEX
  8
DATUM_AXIS
  5
32A7
 10
4.39954
 20
31.4729
 30
0.000000
  70
    32
  0
VERTEX
  8
DATUM_AXIS
  5
32A8
 10
4.40120
 20
31.4729
 30
0.000000
  70
    32
  0
VERTEX
  8
DATUM_AXIS
  5
32A9
 10
4.40286
 20
31.4728
 30
0.000000
  70
    32
  0
VERTEX
  8
DATUM_AXIS
  5
32AA
 10
4.40452
 20
31.4727
 30
0.000000
  70
    32
  0
VERTEX
  8
DATUM_AXIS
  5
32AB
 10
4.40618
 20
31.4727
 30
0.000000
  70
    32
  0
VERTEX
  8
DATUM_AXIS
  5
32AC
 10
4.40784
 20
31.4726
 30
0.000000
  70
    32
  0
VERTEX
  8
DATUM_AXIS
  5
32AD
 10
4.40950
 20
31.4725
 30
0.000000
  70
    32
  0
VERTEX
  8
DATUM_AXIS
  5
32AE
 10
4.41116
 20
31.4725
 30
0.000000
  70
    32
  0
VERTEX
  8
DATUM_AXIS
  5
32AF
 10
4.41282
 20
31.4724
 30
0.000000
  70
    32
  0
VERTEX
  8
DATUM_AXIS
  5
32B0
 10
4.41448
 20
31.4724
 30
0.000000
  70
    32
  0
VERTEX
  8
DATUM_AXIS
  5
32B1
 10
4.41614
 20
31.4723
 30
0.000000
  70
    32
  0
VERTEX
  8
DATUM_AXIS
  5
32B2
 10
4.41780
 20
31.4722
 30
0.000000
  70
    32
  0
VERTEX
  8
DATUM_AXIS
  5
32B3
 10
4.41945
 20
31.4722
 30
0.000000
  70
    32
  0
VERTEX
  8
DATUM_AXIS
  5
32B4
 10
4.42111
 20
31.4721
 30
0.000000
  70
    32
  0
VERTEX
  8
DATUM_AXIS
  5
32B5
 10
4.42277
 20
31.4720
 30
0.000000
  70
    32
  0
VERTEX
  8
DATUM_AXIS
  5
32B6
 10
4.42443
 20
31.4720
 30
0.000000
  70
    32
  0
VERTEX
  8
DATUM_AXIS
  5
32B7
 10
4.42609
 20
31.4719
 30
0.000000
  70
    32
  0
VERTEX
  8
DATUM_AXIS
  5
32B8
 10
4.42775
 20
31.4719
 30
0.000000
  70
    32
  0
VERTEX
  8
DATUM_AXIS
  5
32B9
 10
4.42941
 20
31.4718
 30
0.000000
  70
    32
  0
VERTEX
  8
DATUM_AXIS
  5
32BA
 10
4.43107
 20
31.4717
 30
0.000000
  70
    32
  0
VERTEX
  8
DATUM_AXIS
  5
32BB
 10
4.43273
 20
31.4717
 30
0.000000
  70
    32
  0
VERTEX
  8
DATUM_AXIS
  5
32BC
 10
4.43439
 20
31.4716
 30
0.000000
  70
    32
  0
VERTEX
  8
DATUM_AXIS
  5
32BD
 10
4.43605
 20
31.4715
 30
0.000000
  70
    32
  0
VERTEX
  8
DATUM_AXIS
  5
32BE
 10
4.43771
 20
31.4715
 30
0.000000
  70
    32
  0
VERTEX
  8
DATUM_AXIS
  5
32BF
 10
4.43936
 20
31.4714
 30
0.000000
  70
    32
  0
VERTEX
  8
DATUM_AXIS
  5
32C0
 10
4.44102
 20
31.4713
 30
0.000000
  70
    32
  0
VERTEX
  8
DATUM_AXIS
  5
32C1
 10
4.44268
 20
31.4713
 30
0.000000
  70
    32
  0
VERTEX
  8
DATUM_AXIS
  5
32C2
 10
4.44434
 20
31.4712
 30
0.000000
  70
    32
  0
VERTEX
  8
DATUM_AXIS
  5
32C3
 10
4.44600
 20
31.4711
 30
0.000000
  70
    32
  0
VERTEX
  8
DATUM_AXIS
  5
32C4
 10
4.44766
 20
31.4711
 30
0.000000
  70
    32
  0
VERTEX
  8
DATUM_AXIS
  5
32C5
 10
4.44932
 20
31.4710
 30
0.000000
  70
    32
  0
VERTEX
  8
DATUM_AXIS
  5
32C6
 10
4.45098
 20
31.4710
 30
0.000000
  70
    32
  0
VERTEX
  8
DATUM_AXIS
  5
32C7
 10
4.45264
 20
31.4709
 30
0.000000
  70
    32
  0
VERTEX
  8
DATUM_AXIS
  5
32C8
 10
4.45430
 20
31.4708
 30
0.000000
  70
    32
  0
VERTEX
  8
DATUM_AXIS
  5
32C9
 10
4.45596
 20
31.4708
 30
0.000000
  70
    32
  0
VERTEX
  8
DATUM_AXIS
  5
32CA
 10
4.45761
 20
31.4707
 30
0.000000
  70
    32
  0
VERTEX
  8
DATUM_AXIS
  5
32CB
 10
4.45927
 20
31.4706
 30
0.000000
  70
    32
  0
VERTEX
  8
DATUM_AXIS
  5
32CC
 10
4.46093
 20
31.4706
 30
0.000000
  70
    32
  0
VERTEX
  8
DATUM_AXIS
  5
32CD
 10
4.46259
 20
31.4705
 30
0.000000
  70
    32
  0
VERTEX
  8
DATUM_AXIS
  5
32CE
 10
4.46425
 20
31.4704
 30
0.000000
  70
    32
  0
VERTEX
  8
DATUM_AXIS
  5
32CF
 10
4.46591
 20
31.4704
 30
0.000000
  70
    32
  0
VERTEX
  8
DATUM_AXIS
  5
32D0
 10
4.46757
 20
31.4703
 30
0.000000
  70
    32
  0
VERTEX
  8
DATUM_AXIS
  5
32D1
 10
4.46923
 20
31.4702
 30
0.000000
  70
    32
  0
VERTEX
  8
DATUM_AXIS
  5
32D2
 10
4.47089
 20
31.4702
 30
0.000000
  70
    32
  0
VERTEX
  8
DATUM_AXIS
  5
32D3
 10
4.47255
 20
31.4701
 30
0.000000
  70
    32
  0
VERTEX
  8
DATUM_AXIS
  5
32D4
 10
4.47421
 20
31.4700
 30
0.000000
  70
    32
  0
VERTEX
  8
DATUM_AXIS
  5
32D5
 10
4.47586
 20
31.4700
 30
0.000000
  70
    32
  0
VERTEX
  8
DATUM_AXIS
  5
32D6
 10
4.47752
 20
31.4699
 30
0.000000
  70
    32
  0
VERTEX
  8
DATUM_AXIS
  5
32D7
 10
4.47918
 20
31.4698
 30
0.000000
  70
    32
  0
VERTEX
  8
DATUM_AXIS
  5
32D8
 10
4.48084
 20
31.4698
 30
0.000000
  70
    32
  0
VERTEX
  8
DATUM_AXIS
  5
32D9
 10
4.48250
 20
31.4697
 30
0.000000
  70
    32
  0
VERTEX
  8
DATUM_AXIS
  5
32DA
 10
4.48416
 20
31.4696
 30
0.000000
  70
    32
  0
VERTEX
  8
DATUM_AXIS
  5
32DB
 10
4.48582
 20
31.4696
 30
0.000000
  70
    32
  0
VERTEX
  8
DATUM_AXIS
  5
32DC
 10
4.48748
 20
31.4695
 30
0.000000
  70
    32
  0
VERTEX
  8
DATUM_AXIS
  5
32DD
 10
4.48914
 20
31.4694
 30
0.000000
  70
    32
  0
VERTEX
  8
DATUM_AXIS
  5
32DE
 10
4.49080
 20
31.4694
 30
0.000000
  70
    32
  0
VERTEX
  8
DATUM_AXIS
  5
32DF
 10
4.49246
 20
31.4693
 30
0.000000
  70
    32
  0
VERTEX
  8
DATUM_AXIS
  5
32E0
 10
4.49411
 20
31.4692
 30
0.000000
  70
    32
  0
VERTEX
  8
DATUM_AXIS
  5
32E1
 10
4.49577
 20
31.4692
 30
0.000000
  70
    32
  0
VERTEX
  8
DATUM_AXIS
  5
32E2
 10
4.49743
 20
31.4691
 30
0.000000
  70
    32
  0
VERTEX
  8
DATUM_AXIS
  5
32E3
 10
4.49909
 20
31.4690
 30
0.000000
  70
    32
  0
VERTEX
  8
DATUM_AXIS
  5
32E4
 10
4.50075
 20
31.4690
 30
0.000000
  70
    32
  0
SEQEND
  8
DATUM_AXIS
  5
32E5
  0
POLYLINE
  8
DATUM_AXIS
  5
32E6
  62
7
  66
     1
 10
0.000000
 20
0.000000
 30
0.000000
  70
     8
  0
VERTEX
  8
DATUM_AXIS
  5
32E7
 10
2.95491
 20
31.4939
 30
0.000000
  70
    32
  0
VERTEX
  8
DATUM_AXIS
  5
32E8
 10
2.95683
 20
31.4939
 30
0.000000
  70
    32
  0
VERTEX
  8
DATUM_AXIS
  5
32E9
 10
2.95875
 20
31.4939
 30
0.000000
  70
    32
  0
VERTEX
  8
DATUM_AXIS
  5
32EA
 10
2.96066
 20
31.4939
 30
0.000000
  70
    32
  0
VERTEX
  8
DATUM_AXIS
  5
32EB
 10
2.96258
 20
31.4939
 30
0.000000
  70
    32
  0
VERTEX
  8
DATUM_AXIS
  5
32EC
 10
2.96450
 20
31.4940
 30
0.000000
  70
    32
  0
VERTEX
  8
DATUM_AXIS
  5
32ED
 10
2.96642
 20
31.4940
 30
0.000000
  70
    32
  0
VERTEX
  8
DATUM_AXIS
  5
32EE
 10
2.96833
 20
31.4940
 30
0.000000
  70
    32
  0
VERTEX
  8
DATUM_AXIS
  5
32EF
 10
2.97025
 20
31.4940
 30
0.000000
  70
    32
  0
VERTEX
  8
DATUM_AXIS
  5
32F0
 10
2.97217
 20
31.4940
 30
0.000000
  70
    32
  0
VERTEX
  8
DATUM_AXIS
  5
32F1
 10
2.97409
 20
31.4941
 30
0.000000
  70
    32
  0
VERTEX
  8
DATUM_AXIS
  5
32F2
 10
2.97600
 20
31.4941
 30
0.000000
  70
    32
  0
VERTEX
  8
DATUM_AXIS
  5
32F3
 10
2.97792
 20
31.4941
 30
0.000000
  70
    32
  0
VERTEX
  8
DATUM_AXIS
  5
32F4
 10
2.97984
 20
31.4941
 30
0.000000
  70
    32
  0
VERTEX
  8
DATUM_AXIS
  5
32F5
 10
2.98176
 20
31.4941
 30
0.000000
  70
    32
  0
VERTEX
  8
DATUM_AXIS
  5
32F6
 10
2.98367
 20
31.4941
 30
0.000000
  70
    32
  0
VERTEX
  8
DATUM_AXIS
  5
32F7
 10
2.98559
 20
31.4942
 30
0.000000
  70
    32
  0
VERTEX
  8
DATUM_AXIS
  5
32F8
 10
2.98751
 20
31.4942
 30
0.000000
  70
    32
  0
VERTEX
  8
DATUM_AXIS
  5
32F9
 10
2.98943
 20
31.4942
 30
0.000000
  70
    32
  0
VERTEX
  8
DATUM_AXIS
  5
32FA
 10
2.99134
 20
31.4942
 30
0.000000
  70
    32
  0
VERTEX
  8
DATUM_AXIS
  5
32FB
 10
2.99326
 20
31.4942
 30
0.000000
  70
    32
  0
VERTEX
  8
DATUM_AXIS
  5
32FC
 10
2.99518
 20
31.4942
 30
0.000000
  70
    32
  0
VERTEX
  8
DATUM_AXIS
  5
32FD
 10
2.99710
 20
31.4943
 30
0.000000
  70
    32
  0
VERTEX
  8
DATUM_AXIS
  5
32FE
 10
2.99901
 20
31.4943
 30
0.000000
  70
    32
  0
VERTEX
  8
DATUM_AXIS
  5
32FF
 10
3.00093
 20
31.4943
 30
0.000000
  70
    32
  0
VERTEX
  8
DATUM_AXIS
  5
3300
 10
3.00285
 20
31.4943
 30
0.000000
  70
    32
  0
VERTEX
  8
DATUM_AXIS
  5
3301
 10
3.00477
 20
31.4943
 30
0.000000
  70
    32
  0
VERTEX
  8
DATUM_AXIS
  5
3302
 10
3.00668
 20
31.4943
 30
0.000000
  70
    32
  0
VERTEX
  8
DATUM_AXIS
  5
3303
 10
3.00860
 20
31.4943
 30
0.000000
  70
    32
  0
VERTEX
  8
DATUM_AXIS
  5
3304
 10
3.01052
 20
31.4944
 30
0.000000
  70
    32
  0
VERTEX
  8
DATUM_AXIS
  5
3305
 10
3.01244
 20
31.4944
 30
0.000000
  70
    32
  0
VERTEX
  8
DATUM_AXIS
  5
3306
 10
3.01435
 20
31.4944
 30
0.000000
  70
    32
  0
VERTEX
  8
DATUM_AXIS
  5
3307
 10
3.01627
 20
31.4944
 30
0.000000
  70
    32
  0
VERTEX
  8
DATUM_AXIS
  5
3308
 10
3.01819
 20
31.4944
 30
0.000000
  70
    32
  0
VERTEX
  8
DATUM_AXIS
  5
3309
 10
3.02011
 20
31.4944
 30
0.000000
  70
    32
  0
VERTEX
  8
DATUM_AXIS
  5
330A
 10
3.02202
 20
31.4945
 30
0.000000
  70
    32
  0
VERTEX
  8
DATUM_AXIS
  5
330B
 10
3.02394
 20
31.4945
 30
0.000000
  70
    32
  0
VERTEX
  8
DATUM_AXIS
  5
330C
 10
3.02586
 20
31.4945
 30
0.000000
  70
    32
  0
VERTEX
  8
DATUM_AXIS
  5
330D
 10
3.02778
 20
31.4945
 30
0.000000
  70
    32
  0
VERTEX
  8
DATUM_AXIS
  5
330E
 10
3.02969
 20
31.4945
 30
0.000000
  70
    32
  0
VERTEX
  8
DATUM_AXIS
  5
330F
 10
3.03161
 20
31.4945
 30
0.000000
  70
    32
  0
VERTEX
  8
DATUM_AXIS
  5
3310
 10
3.03353
 20
31.4945
 30
0.000000
  70
    32
  0
VERTEX
  8
DATUM_AXIS
  5
3311
 10
3.03545
 20
31.4945
 30
0.000000
  70
    32
  0
VERTEX
  8
DATUM_AXIS
  5
3312
 10
3.03736
 20
31.4946
 30
0.000000
  70
    32
  0
VERTEX
  8
DATUM_AXIS
  5
3313
 10
3.03928
 20
31.4946
 30
0.000000
  70
    32
  0
VERTEX
  8
DATUM_AXIS
  5
3314
 10
3.04120
 20
31.4946
 30
0.000000
  70
    32
  0
VERTEX
  8
DATUM_AXIS
  5
3315
 10
3.04312
 20
31.4946
 30
0.000000
  70
    32
  0
VERTEX
  8
DATUM_AXIS
  5
3316
 10
3.04503
 20
31.4946
 30
0.000000
  70
    32
  0
VERTEX
  8
DATUM_AXIS
  5
3317
 10
3.04695
 20
31.4946
 30
0.000000
  70
    32
  0
VERTEX
  8
DATUM_AXIS
  5
3318
 10
3.04887
 20
31.4946
 30
0.000000
  70
    32
  0
VERTEX
  8
DATUM_AXIS
  5
3319
 10
3.05079
 20
31.4947
 30
0.000000
  70
    32
  0
VERTEX
  8
DATUM_AXIS
  5
331A
 10
3.05270
 20
31.4947
 30
0.000000
  70
    32
  0
VERTEX
  8
DATUM_AXIS
  5
331B
 10
3.05462
 20
31.4947
 30
0.000000
  70
    32
  0
VERTEX
  8
DATUM_AXIS
  5
331C
 10
3.05654
 20
31.4947
 30
0.000000
  70
    32
  0
VERTEX
  8
DATUM_AXIS
  5
331D
 10
3.05846
 20
31.4947
 30
0.000000
  70
    32
  0
VERTEX
  8
DATUM_AXIS
  5
331E
 10
3.06037
 20
31.4947
 30
0.000000
  70
    32
  0
VERTEX
  8
DATUM_AXIS
  5
331F
 10
3.06229
 20
31.4947
 30
0.000000
  70
    32
  0
VERTEX
  8
DATUM_AXIS
  5
3320
 10
3.06421
 20
31.4947
 30
0.000000
  70
    32
  0
VERTEX
  8
DATUM_AXIS
  5
3321
 10
3.06613
 20
31.4947
 30
0.000000
  70
    32
  0
VERTEX
  8
DATUM_AXIS
  5
3322
 10
3.06804
 20
31.4948
 30
0.000000
  70
    32
  0
VERTEX
  8
DATUM_AXIS
  5
3323
 10
3.06996
 20
31.4948
 30
0.000000
  70
    32
  0
VERTEX
  8
DATUM_AXIS
  5
3324
 10
3.07188
 20
31.4948
 30
0.000000
  70
    32
  0
VERTEX
  8
DATUM_AXIS
  5
3325
 10
3.07380
 20
31.4948
 30
0.000000
  70
    32
  0
VERTEX
  8
DATUM_AXIS
  5
3326
 10
3.07571
 20
31.4948
 30
0.000000
  70
    32
  0
VERTEX
  8
DATUM_AXIS
  5
3327
 10
3.07763
 20
31.4948
 30
0.000000
  70
    32
  0
VERTEX
  8
DATUM_AXIS
  5
3328
 10
3.07955
 20
31.4948
 30
0.000000
  70
    32
  0
VERTEX
  8
DATUM_AXIS
  5
3329
 10
3.08147
 20
31.4948
 30
0.000000
  70
    32
  0
VERTEX
  8
DATUM_AXIS
  5
332A
 10
3.08338
 20
31.4948
 30
0.000000
  70
    32
  0
VERTEX
  8
DATUM_AXIS
  5
332B
 10
3.08530
 20
31.4949
 30
0.000000
  70
    32
  0
VERTEX
  8
DATUM_AXIS
  5
332C
 10
3.08722
 20
31.4949
 30
0.000000
  70
    32
  0
VERTEX
  8
DATUM_AXIS
  5
332D
 10
3.08914
 20
31.4949
 30
0.000000
  70
    32
  0
VERTEX
  8
DATUM_AXIS
  5
332E
 10
3.09105
 20
31.4949
 30
0.000000
  70
    32
  0
VERTEX
  8
DATUM_AXIS
  5
332F
 10
3.09297
 20
31.4949
 30
0.000000
  70
    32
  0
VERTEX
  8
DATUM_AXIS
  5
3330
 10
3.09489
 20
31.4949
 30
0.000000
  70
    32
  0
VERTEX
  8
DATUM_AXIS
  5
3331
 10
3.09681
 20
31.4949
 30
0.000000
  70
    32
  0
VERTEX
  8
DATUM_AXIS
  5
3332
 10
3.09872
 20
31.4949
 30
0.000000
  70
    32
  0
VERTEX
  8
DATUM_AXIS
  5
3333
 10
3.10064
 20
31.4949
 30
0.000000
  70
    32
  0
VERTEX
  8
DATUM_AXIS
  5
3334
 10
3.10256
 20
31.4949
 30
0.000000
  70
    32
  0
VERTEX
  8
DATUM_AXIS
  5
3335
 10
3.10448
 20
31.4949
 30
0.000000
  70
    32
  0
VERTEX
  8
DATUM_AXIS
  5
3336
 10
3.10639
 20
31.4950
 30
0.000000
  70
    32
  0
VERTEX
  8
DATUM_AXIS
  5
3337
 10
3.10831
 20
31.4950
 30
0.000000
  70
    32
  0
VERTEX
  8
DATUM_AXIS
  5
3338
 10
3.11023
 20
31.4950
 30
0.000000
  70
    32
  0
VERTEX
  8
DATUM_AXIS
  5
3339
 10
3.11215
 20
31.4950
 30
0.000000
  70
    32
  0
VERTEX
  8
DATUM_AXIS
  5
333A
 10
3.11406
 20
31.4950
 30
0.000000
  70
    32
  0
VERTEX
  8
DATUM_AXIS
  5
333B
 10
3.11598
 20
31.4950
 30
0.000000
  70
    32
  0
VERTEX
  8
DATUM_AXIS
  5
333C
 10
3.11790
 20
31.4950
 30
0.000000
  70
    32
  0
VERTEX
  8
DATUM_AXIS
  5
333D
 10
3.11982
 20
31.4950
 30
0.000000
  70
    32
  0
VERTEX
  8
DATUM_AXIS
  5
333E
 10
3.12173
 20
31.4950
 30
0.000000
  70
    32
  0
VERTEX
  8
DATUM_AXIS
  5
333F
 10
3.12365
 20
31.4950
 30
0.000000
  70
    32
  0
VERTEX
  8
DATUM_AXIS
  5
3340
 10
3.12557
 20
31.4950
 30
0.000000
  70
    32
  0
VERTEX
  8
DATUM_AXIS
  5
3341
 10
3.12749
 20
31.4950
 30
0.000000
  70
    32
  0
VERTEX
  8
DATUM_AXIS
  5
3342
 10
3.12940
 20
31.4950
 30
0.000000
  70
    32
  0
VERTEX
  8
DATUM_AXIS
  5
3343
 10
3.13132
 20
31.4951
 30
0.000000
  70
    32
  0
VERTEX
  8
DATUM_AXIS
  5
3344
 10
3.13324
 20
31.4951
 30
0.000000
  70
    32
  0
VERTEX
  8
DATUM_AXIS
  5
3345
 10
3.13516
 20
31.4951
 30
0.000000
  70
    32
  0
VERTEX
  8
DATUM_AXIS
  5
3346
 10
3.13707
 20
31.4951
 30
0.000000
  70
    32
  0
VERTEX
  8
DATUM_AXIS
  5
3347
 10
3.13899
 20
31.4951
 30
0.000000
  70
    32
  0
VERTEX
  8
DATUM_AXIS
  5
3348
 10
3.14091
 20
31.4951
 30
0.000000
  70
    32
  0
VERTEX
  8
DATUM_AXIS
  5
3349
 10
3.14283
 20
31.4951
 30
0.000000
  70
    32
  0
VERTEX
  8
DATUM_AXIS
  5
334A
 10
3.14475
 20
31.4951
 30
0.000000
  70
    32
  0
VERTEX
  8
DATUM_AXIS
  5
334B
 10
3.14666
 20
31.4951
 30
0.000000
  70
    32
  0
VERTEX
  8
DATUM_AXIS
  5
334C
 10
3.14858
 20
31.4951
 30
0.000000
  70
    32
  0
VERTEX
  8
DATUM_AXIS
  5
334D
 10
3.15050
 20
31.4951
 30
0.000000
  70
    32
  0
VERTEX
  8
DATUM_AXIS
  5
334E
 10
3.15242
 20
31.4951
 30
0.000000
  70
    32
  0
VERTEX
  8
DATUM_AXIS
  5
334F
 10
3.15433
 20
31.4951
 30
0.000000
  70
    32
  0
VERTEX
  8
DATUM_AXIS
  5
3350
 10
3.15625
 20
31.4951
 30
0.000000
  70
    32
  0
VERTEX
  8
DATUM_AXIS
  5
3351
 10
3.15817
 20
31.4951
 30
0.000000
  70
    32
  0
VERTEX
  8
DATUM_AXIS
  5
3352
 10
3.16009
 20
31.4951
 30
0.000000
  70
    32
  0
VERTEX
  8
DATUM_AXIS
  5
3353
 10
3.16200
 20
31.4951
 30
0.000000
  70
    32
  0
VERTEX
  8
DATUM_AXIS
  5
3354
 10
3.16392
 20
31.4951
 30
0.000000
  70
    32
  0
VERTEX
  8
DATUM_AXIS
  5
3355
 10
3.16584
 20
31.4952
 30
0.000000
  70
    32
  0
VERTEX
  8
DATUM_AXIS
  5
3356
 10
3.16776
 20
31.4952
 30
0.000000
  70
    32
  0
VERTEX
  8
DATUM_AXIS
  5
3357
 10
3.16967
 20
31.4952
 30
0.000000
  70
    32
  0
VERTEX
  8
DATUM_AXIS
  5
3358
 10
3.17159
 20
31.4952
 30
0.000000
  70
    32
  0
VERTEX
  8
DATUM_AXIS
  5
3359
 10
3.17351
 20
31.4952
 30
0.000000
  70
    32
  0
VERTEX
  8
DATUM_AXIS
  5
335A
 10
3.17543
 20
31.4952
 30
0.000000
  70
    32
  0
VERTEX
  8
DATUM_AXIS
  5
335B
 10
3.17734
 20
31.4952
 30
0.000000
  70
    32
  0
VERTEX
  8
DATUM_AXIS
  5
335C
 10
3.17926
 20
31.4952
 30
0.000000
  70
    32
  0
VERTEX
  8
DATUM_AXIS
  5
335D
 10
3.18118
 20
31.4952
 30
0.000000
  70
    32
  0
VERTEX
  8
DATUM_AXIS
  5
335E
 10
3.18310
 20
31.4952
 30
0.000000
  70
    32
  0
VERTEX
  8
DATUM_AXIS
  5
335F
 10
3.18501
 20
31.4952
 30
0.000000
  70
    32
  0
VERTEX
  8
DATUM_AXIS
  5
3360
 10
3.18693
 20
31.4952
 30
0.000000
  70
    32
  0
VERTEX
  8
DATUM_AXIS
  5
3361
 10
3.18885
 20
31.4952
 30
0.000000
  70
    32
  0
VERTEX
  8
DATUM_AXIS
  5
3362
 10
3.19077
 20
31.4952
 30
0.000000
  70
    32
  0
VERTEX
  8
DATUM_AXIS
  5
3363
 10
3.19268
 20
31.4952
 30
0.000000
  70
    32
  0
VERTEX
  8
DATUM_AXIS
  5
3364
 10
3.19460
 20
31.4952
 30
0.000000
  70
    32
  0
VERTEX
  8
DATUM_AXIS
  5
3365
 10
3.19652
 20
31.4952
 30
0.000000
  70
    32
  0
VERTEX
  8
DATUM_AXIS
  5
3366
 10
3.19844
 20
31.4952
 30
0.000000
  70
    32
  0
VERTEX
  8
DATUM_AXIS
  5
3367
 10
3.20035
 20
31.4952
 30
0.000000
  70
    32
  0
VERTEX
  8
DATUM_AXIS
  5
3368
 10
3.20227
 20
31.4952
 30
0.000000
  70
    32
  0
VERTEX
  8
DATUM_AXIS
  5
3369
 10
3.20419
 20
31.4952
 30
0.000000
  70
    32
  0
VERTEX
  8
DATUM_AXIS
  5
336A
 10
3.20611
 20
31.4952
 30
0.000000
  70
    32
  0
VERTEX
  8
DATUM_AXIS
  5
336B
 10
3.20802
 20
31.4952
 30
0.000000
  70
    32
  0
VERTEX
  8
DATUM_AXIS
  5
336C
 10
3.20994
 20
31.4952
 30
0.000000
  70
    32
  0
VERTEX
  8
DATUM_AXIS
  5
336D
 10
3.21186
 20
31.4952
 30
0.000000
  70
    32
  0
VERTEX
  8
DATUM_AXIS
  5
336E
 10
3.21378
 20
31.4952
 30
0.000000
  70
    32
  0
VERTEX
  8
DATUM_AXIS
  5
336F
 10
3.21569
 20
31.4952
 30
0.000000
  70
    32
  0
VERTEX
  8
DATUM_AXIS
  5
3370
 10
3.21761
 20
31.4952
 30
0.000000
  70
    32
  0
VERTEX
  8
DATUM_AXIS
  5
3371
 10
3.21953
 20
31.4952
 30
0.000000
  70
    32
  0
VERTEX
  8
DATUM_AXIS
  5
3372
 10
3.22145
 20
31.4952
 30
0.000000
  70
    32
  0
VERTEX
  8
DATUM_AXIS
  5
3373
 10
3.22336
 20
31.4952
 30
0.000000
  70
    32
  0
VERTEX
  8
DATUM_AXIS
  5
3374
 10
3.22528
 20
31.4952
 30
0.000000
  70
    32
  0
VERTEX
  8
DATUM_AXIS
  5
3375
 10
3.22720
 20
31.4952
 30
0.000000
  70
    32
  0
VERTEX
  8
DATUM_AXIS
  5
3376
 10
3.22912
 20
31.4952
 30
0.000000
  70
    32
  0
VERTEX
  8
DATUM_AXIS
  5
3377
 10
3.23104
 20
31.4952
 30
0.000000
  70
    32
  0
VERTEX
  8
DATUM_AXIS
  5
3378
 10
3.23295
 20
31.4952
 30
0.000000
  70
    32
  0
VERTEX
  8
DATUM_AXIS
  5
3379
 10
3.23487
 20
31.4952
 30
0.000000
  70
    32
  0
VERTEX
  8
DATUM_AXIS
  5
337A
 10
3.23679
 20
31.4952
 30
0.000000
  70
    32
  0
VERTEX
  8
DATUM_AXIS
  5
337B
 10
3.23871
 20
31.4952
 30
0.000000
  70
    32
  0
VERTEX
  8
DATUM_AXIS
  5
337C
 10
3.24062
 20
31.4952
 30
0.000000
  70
    32
  0
VERTEX
  8
DATUM_AXIS
  5
337D
 10
3.24254
 20
31.4952
 30
0.000000
  70
    32
  0
VERTEX
  8
DATUM_AXIS
  5
337E
 10
3.24446
 20
31.4952
 30
0.000000
  70
    32
  0
VERTEX
  8
DATUM_AXIS
  5
337F
 10
3.24638
 20
31.4952
 30
0.000000
  70
    32
  0
VERTEX
  8
DATUM_AXIS
  5
3380
 10
3.24829
 20
31.4952
 30
0.000000
  70
    32
  0
VERTEX
  8
DATUM_AXIS
  5
3381
 10
3.25021
 20
31.4952
 30
0.000000
  70
    32
  0
VERTEX
  8
DATUM_AXIS
  5
3382
 10
3.25213
 20
31.4952
 30
0.000000
  70
    32
  0
VERTEX
  8
DATUM_AXIS
  5
3383
 10
3.25405
 20
31.4952
 30
0.000000
  70
    32
  0
VERTEX
  8
DATUM_AXIS
  5
3384
 10
3.25596
 20
31.4952
 30
0.000000
  70
    32
  0
VERTEX
  8
DATUM_AXIS
  5
3385
 10
3.25788
 20
31.4952
 30
0.000000
  70
    32
  0
VERTEX
  8
DATUM_AXIS
  5
3386
 10
3.25980
 20
31.4952
 30
0.000000
  70
    32
  0
VERTEX
  8
DATUM_AXIS
  5
3387
 10
3.26172
 20
31.4952
 30
0.000000
  70
    32
  0
VERTEX
  8
DATUM_AXIS
  5
3388
 10
3.26363
 20
31.4952
 30
0.000000
  70
    32
  0
VERTEX
  8
DATUM_AXIS
  5
3389
 10
3.26555
 20
31.4952
 30
0.000000
  70
    32
  0
VERTEX
  8
DATUM_AXIS
  5
338A
 10
3.26747
 20
31.4952
 30
0.000000
  70
    32
  0
VERTEX
  8
DATUM_AXIS
  5
338B
 10
3.26939
 20
31.4952
 30
0.000000
  70
    32
  0
VERTEX
  8
DATUM_AXIS
  5
338C
 10
3.27130
 20
31.4952
 30
0.000000
  70
    32
  0
VERTEX
  8
DATUM_AXIS
  5
338D
 10
3.27322
 20
31.4952
 30
0.000000
  70
    32
  0
VERTEX
  8
DATUM_AXIS
  5
338E
 10
3.27514
 20
31.4952
 30
0.000000
  70
    32
  0
VERTEX
  8
DATUM_AXIS
  5
338F
 10
3.27706
 20
31.4952
 30
0.000000
  70
    32
  0
VERTEX
  8
DATUM_AXIS
  5
3390
 10
3.27897
 20
31.4952
 30
0.000000
  70
    32
  0
VERTEX
  8
DATUM_AXIS
  5
3391
 10
3.28089
 20
31.4952
 30
0.000000
  70
    32
  0
VERTEX
  8
DATUM_AXIS
  5
3392
 10
3.28281
 20
31.4952
 30
0.000000
  70
    32
  0
VERTEX
  8
DATUM_AXIS
  5
3393
 10
3.28473
 20
31.4952
 30
0.000000
  70
    32
  0
VERTEX
  8
DATUM_AXIS
  5
3394
 10
3.28664
 20
31.4952
 30
0.000000
  70
    32
  0
VERTEX
  8
DATUM_AXIS
  5
3395
 10
3.28856
 20
31.4952
 30
0.000000
  70
    32
  0
VERTEX
  8
DATUM_AXIS
  5
3396
 10
3.29048
 20
31.4952
 30
0.000000
  70
    32
  0
VERTEX
  8
DATUM_AXIS
  5
3397
 10
3.29240
 20
31.4952
 30
0.000000
  70
    32
  0
VERTEX
  8
DATUM_AXIS
  5
3398
 10
3.29431
 20
31.4952
 30
0.000000
  70
    32
  0
VERTEX
  8
DATUM_AXIS
  5
3399
 10
3.29623
 20
31.4952
 30
0.000000
  70
    32
  0
VERTEX
  8
DATUM_AXIS
  5
339A
 10
3.29815
 20
31.4952
 30
0.000000
  70
    32
  0
VERTEX
  8
DATUM_AXIS
  5
339B
 10
3.30007
 20
31.4951
 30
0.000000
  70
    32
  0
VERTEX
  8
DATUM_AXIS
  5
339C
 10
3.30198
 20
31.4951
 30
0.000000
  70
    32
  0
VERTEX
  8
DATUM_AXIS
  5
339D
 10
3.30390
 20
31.4951
 30
0.000000
  70
    32
  0
VERTEX
  8
DATUM_AXIS
  5
339E
 10
3.30582
 20
31.4951
 30
0.000000
  70
    32
  0
VERTEX
  8
DATUM_AXIS
  5
339F
 10
3.30774
 20
31.4951
 30
0.000000
  70
    32
  0
VERTEX
  8
DATUM_AXIS
  5
33A0
 10
3.30966
 20
31.4951
 30
0.000000
  70
    32
  0
VERTEX
  8
DATUM_AXIS
  5
33A1
 10
3.31157
 20
31.4951
 30
0.000000
  70
    32
  0
VERTEX
  8
DATUM_AXIS
  5
33A2
 10
3.31349
 20
31.4951
 30
0.000000
  70
    32
  0
VERTEX
  8
DATUM_AXIS
  5
33A3
 10
3.31541
 20
31.4951
 30
0.000000
  70
    32
  0
VERTEX
  8
DATUM_AXIS
  5
33A4
 10
3.31733
 20
31.4951
 30
0.000000
  70
    32
  0
VERTEX
  8
DATUM_AXIS
  5
33A5
 10
3.31924
 20
31.4951
 30
0.000000
  70
    32
  0
VERTEX
  8
DATUM_AXIS
  5
33A6
 10
3.32116
 20
31.4951
 30
0.000000
  70
    32
  0
VERTEX
  8
DATUM_AXIS
  5
33A7
 10
3.32308
 20
31.4951
 30
0.000000
  70
    32
  0
VERTEX
  8
DATUM_AXIS
  5
33A8
 10
3.32500
 20
31.4951
 30
0.000000
  70
    32
  0
VERTEX
  8
DATUM_AXIS
  5
33A9
 10
3.32691
 20
31.4951
 30
0.000000
  70
    32
  0
VERTEX
  8
DATUM_AXIS
  5
33AA
 10
3.32883
 20
31.4951
 30
0.000000
  70
    32
  0
VERTEX
  8
DATUM_AXIS
  5
33AB
 10
3.33075
 20
31.4951
 30
0.000000
  70
    32
  0
VERTEX
  8
DATUM_AXIS
  5
33AC
 10
3.33267
 20
31.4951
 30
0.000000
  70
    32
  0
VERTEX
  8
DATUM_AXIS
  5
33AD
 10
3.33458
 20
31.4950
 30
0.000000
  70
    32
  0
VERTEX
  8
DATUM_AXIS
  5
33AE
 10
3.33650
 20
31.4950
 30
0.000000
  70
    32
  0
VERTEX
  8
DATUM_AXIS
  5
33AF
 10
3.33842
 20
31.4950
 30
0.000000
  70
    32
  0
VERTEX
  8
DATUM_AXIS
  5
33B0
 10
3.34034
 20
31.4950
 30
0.000000
  70
    32
  0
VERTEX
  8
DATUM_AXIS
  5
33B1
 10
3.34225
 20
31.4950
 30
0.000000
  70
    32
  0
VERTEX
  8
DATUM_AXIS
  5
33B2
 10
3.34417
 20
31.4950
 30
0.000000
  70
    32
  0
VERTEX
  8
DATUM_AXIS
  5
33B3
 10
3.34609
 20
31.4950
 30
0.000000
  70
    32
  0
VERTEX
  8
DATUM_AXIS
  5
33B4
 10
3.34801
 20
31.4950
 30
0.000000
  70
    32
  0
VERTEX
  8
DATUM_AXIS
  5
33B5
 10
3.34992
 20
31.4950
 30
0.000000
  70
    32
  0
VERTEX
  8
DATUM_AXIS
  5
33B6
 10
3.35184
 20
31.4950
 30
0.000000
  70
    32
  0
VERTEX
  8
DATUM_AXIS
  5
33B7
 10
3.35376
 20
31.4950
 30
0.000000
  70
    32
  0
VERTEX
  8
DATUM_AXIS
  5
33B8
 10
3.35568
 20
31.4950
 30
0.000000
  70
    32
  0
VERTEX
  8
DATUM_AXIS
  5
33B9
 10
3.35759
 20
31.4950
 30
0.000000
  70
    32
  0
VERTEX
  8
DATUM_AXIS
  5
33BA
 10
3.35951
 20
31.4949
 30
0.000000
  70
    32
  0
VERTEX
  8
DATUM_AXIS
  5
33BB
 10
3.36143
 20
31.4949
 30
0.000000
  70
    32
  0
VERTEX
  8
DATUM_AXIS
  5
33BC
 10
3.36335
 20
31.4949
 30
0.000000
  70
    32
  0
VERTEX
  8
DATUM_AXIS
  5
33BD
 10
3.36526
 20
31.4949
 30
0.000000
  70
    32
  0
VERTEX
  8
DATUM_AXIS
  5
33BE
 10
3.36718
 20
31.4949
 30
0.000000
  70
    32
  0
VERTEX
  8
DATUM_AXIS
  5
33BF
 10
3.36910
 20
31.4949
 30
0.000000
  70
    32
  0
VERTEX
  8
DATUM_AXIS
  5
33C0
 10
3.37102
 20
31.4949
 30
0.000000
  70
    32
  0
VERTEX
  8
DATUM_AXIS
  5
33C1
 10
3.37293
 20
31.4949
 30
0.000000
  70
    32
  0
VERTEX
  8
DATUM_AXIS
  5
33C2
 10
3.37485
 20
31.4949
 30
0.000000
  70
    32
  0
VERTEX
  8
DATUM_AXIS
  5
33C3
 10
3.37677
 20
31.4949
 30
0.000000
  70
    32
  0
VERTEX
  8
DATUM_AXIS
  5
33C4
 10
3.37869
 20
31.4949
 30
0.000000
  70
    32
  0
VERTEX
  8
DATUM_AXIS
  5
33C5
 10
3.38060
 20
31.4948
 30
0.000000
  70
    32
  0
VERTEX
  8
DATUM_AXIS
  5
33C6
 10
3.38252
 20
31.4948
 30
0.000000
  70
    32
  0
VERTEX
  8
DATUM_AXIS
  5
33C7
 10
3.38444
 20
31.4948
 30
0.000000
  70
    32
  0
VERTEX
  8
DATUM_AXIS
  5
33C8
 10
3.38636
 20
31.4948
 30
0.000000
  70
    32
  0
VERTEX
  8
DATUM_AXIS
  5
33C9
 10
3.38827
 20
31.4948
 30
0.000000
  70
    32
  0
VERTEX
  8
DATUM_AXIS
  5
33CA
 10
3.39019
 20
31.4948
 30
0.000000
  70
    32
  0
VERTEX
  8
DATUM_AXIS
  5
33CB
 10
3.39211
 20
31.4948
 30
0.000000
  70
    32
  0
VERTEX
  8
DATUM_AXIS
  5
33CC
 10
3.39403
 20
31.4948
 30
0.000000
  70
    32
  0
VERTEX
  8
DATUM_AXIS
  5
33CD
 10
3.39594
 20
31.4948
 30
0.000000
  70
    32
  0
VERTEX
  8
DATUM_AXIS
  5
33CE
 10
3.39786
 20
31.4948
 30
0.000000
  70
    32
  0
VERTEX
  8
DATUM_AXIS
  5
33CF
 10
3.39978
 20
31.4947
 30
0.000000
  70
    32
  0
VERTEX
  8
DATUM_AXIS
  5
33D0
 10
3.40170
 20
31.4947
 30
0.000000
  70
    32
  0
VERTEX
  8
DATUM_AXIS
  5
33D1
 10
3.40361
 20
31.4947
 30
0.000000
  70
    32
  0
VERTEX
  8
DATUM_AXIS
  5
33D2
 10
3.40553
 20
31.4947
 30
0.000000
  70
    32
  0
VERTEX
  8
DATUM_AXIS
  5
33D3
 10
3.40745
 20
31.4947
 30
0.000000
  70
    32
  0
VERTEX
  8
DATUM_AXIS
  5
33D4
 10
3.40937
 20
31.4947
 30
0.000000
  70
    32
  0
VERTEX
  8
DATUM_AXIS
  5
33D5
 10
3.41128
 20
31.4947
 30
0.000000
  70
    32
  0
VERTEX
  8
DATUM_AXIS
  5
33D6
 10
3.41320
 20
31.4947
 30
0.000000
  70
    32
  0
VERTEX
  8
DATUM_AXIS
  5
33D7
 10
3.41512
 20
31.4946
 30
0.000000
  70
    32
  0
VERTEX
  8
DATUM_AXIS
  5
33D8
 10
3.41704
 20
31.4946
 30
0.000000
  70
    32
  0
VERTEX
  8
DATUM_AXIS
  5
33D9
 10
3.41895
 20
31.4946
 30
0.000000
  70
    32
  0
VERTEX
  8
DATUM_AXIS
  5
33DA
 10
3.42087
 20
31.4946
 30
0.000000
  70
    32
  0
VERTEX
  8
DATUM_AXIS
  5
33DB
 10
3.42279
 20
31.4946
 30
0.000000
  70
    32
  0
VERTEX
  8
DATUM_AXIS
  5
33DC
 10
3.42471
 20
31.4946
 30
0.000000
  70
    32
  0
VERTEX
  8
DATUM_AXIS
  5
33DD
 10
3.42662
 20
31.4946
 30
0.000000
  70
    32
  0
VERTEX
  8
DATUM_AXIS
  5
33DE
 10
3.42854
 20
31.4946
 30
0.000000
  70
    32
  0
VERTEX
  8
DATUM_AXIS
  5
33DF
 10
3.43046
 20
31.4945
 30
0.000000
  70
    32
  0
VERTEX
  8
DATUM_AXIS
  5
33E0
 10
3.43238
 20
31.4945
 30
0.000000
  70
    32
  0
VERTEX
  8
DATUM_AXIS
  5
33E1
 10
3.43429
 20
31.4945
 30
0.000000
  70
    32
  0
VERTEX
  8
DATUM_AXIS
  5
33E2
 10
3.43621
 20
31.4945
 30
0.000000
  70
    32
  0
VERTEX
  8
DATUM_AXIS
  5
33E3
 10
3.43813
 20
31.4945
 30
0.000000
  70
    32
  0
VERTEX
  8
DATUM_AXIS
  5
33E4
 10
3.44005
 20
31.4945
 30
0.000000
  70
    32
  0
VERTEX
  8
DATUM_AXIS
  5
33E5
 10
3.44197
 20
31.4945
 30
0.000000
  70
    32
  0
VERTEX
  8
DATUM_AXIS
  5
33E6
 10
3.44388
 20
31.4945
 30
0.000000
  70
    32
  0
VERTEX
  8
DATUM_AXIS
  5
33E7
 10
3.44580
 20
31.4944
 30
0.000000
  70
    32
  0
VERTEX
  8
DATUM_AXIS
  5
33E8
 10
3.44772
 20
31.4944
 30
0.000000
  70
    32
  0
VERTEX
  8
DATUM_AXIS
  5
33E9
 10
3.44964
 20
31.4944
 30
0.000000
  70
    32
  0
VERTEX
  8
DATUM_AXIS
  5
33EA
 10
3.45155
 20
31.4944
 30
0.000000
  70
    32
  0
VERTEX
  8
DATUM_AXIS
  5
33EB
 10
3.45347
 20
31.4944
 30
0.000000
  70
    32
  0
VERTEX
  8
DATUM_AXIS
  5
33EC
 10
3.45539
 20
31.4944
 30
0.000000
  70
    32
  0
VERTEX
  8
DATUM_AXIS
  5
33ED
 10
3.45731
 20
31.4944
 30
0.000000
  70
    32
  0
VERTEX
  8
DATUM_AXIS
  5
33EE
 10
3.45922
 20
31.4943
 30
0.000000
  70
    32
  0
VERTEX
  8
DATUM_AXIS
  5
33EF
 10
3.46114
 20
31.4943
 30
0.000000
  70
    32
  0
VERTEX
  8
DATUM_AXIS
  5
33F0
 10
3.46306
 20
31.4943
 30
0.000000
  70
    32
  0
VERTEX
  8
DATUM_AXIS
  5
33F1
 10
3.46498
 20
31.4943
 30
0.000000
  70
    32
  0
VERTEX
  8
DATUM_AXIS
  5
33F2
 10
3.46689
 20
31.4943
 30
0.000000
  70
    32
  0
VERTEX
  8
DATUM_AXIS
  5
33F3
 10
3.46881
 20
31.4943
 30
0.000000
  70
    32
  0
VERTEX
  8
DATUM_AXIS
  5
33F4
 10
3.47073
 20
31.4942
 30
0.000000
  70
    32
  0
VERTEX
  8
DATUM_AXIS
  5
33F5
 10
3.47265
 20
31.4942
 30
0.000000
  70
    32
  0
VERTEX
  8
DATUM_AXIS
  5
33F6
 10
3.47456
 20
31.4942
 30
0.000000
  70
    32
  0
VERTEX
  8
DATUM_AXIS
  5
33F7
 10
3.47648
 20
31.4942
 30
0.000000
  70
    32
  0
VERTEX
  8
DATUM_AXIS
  5
33F8
 10
3.47840
 20
31.4942
 30
0.000000
  70
    32
  0
VERTEX
  8
DATUM_AXIS
  5
33F9
 10
3.48032
 20
31.4942
 30
0.000000
  70
    32
  0
VERTEX
  8
DATUM_AXIS
  5
33FA
 10
3.48223
 20
31.4941
 30
0.000000
  70
    32
  0
VERTEX
  8
DATUM_AXIS
  5
33FB
 10
3.48415
 20
31.4941
 30
0.000000
  70
    32
  0
VERTEX
  8
DATUM_AXIS
  5
33FC
 10
3.48607
 20
31.4941
 30
0.000000
  70
    32
  0
VERTEX
  8
DATUM_AXIS
  5
33FD
 10
3.48799
 20
31.4941
 30
0.000000
  70
    32
  0
VERTEX
  8
DATUM_AXIS
  5
33FE
 10
3.48990
 20
31.4941
 30
0.000000
  70
    32
  0
VERTEX
  8
DATUM_AXIS
  5
33FF
 10
3.49182
 20
31.4941
 30
0.000000
  70
    32
  0
VERTEX
  8
DATUM_AXIS
  5
3400
 10
3.49374
 20
31.4940
 30
0.000000
  70
    32
  0
VERTEX
  8
DATUM_AXIS
  5
3401
 10
3.49565
 20
31.4940
 30
0.000000
  70
    32
  0
VERTEX
  8
DATUM_AXIS
  5
3402
 10
3.49757
 20
31.4940
 30
0.000000
  70
    32
  0
VERTEX
  8
DATUM_AXIS
  5
3403
 10
3.49949
 20
31.4940
 30
0.000000
  70
    32
  0
VERTEX
  8
DATUM_AXIS
  5
3404
 10
3.50141
 20
31.4940
 30
0.000000
  70
    32
  0
VERTEX
  8
DATUM_AXIS
  5
3405
 10
3.50332
 20
31.4940
 30
0.000000
  70
    32
  0
VERTEX
  8
DATUM_AXIS
  5
3406
 10
3.50524
 20
31.4939
 30
0.000000
  70
    32
  0
VERTEX
  8
DATUM_AXIS
  5
3407
 10
3.50716
 20
31.4939
 30
0.000000
  70
    32
  0
VERTEX
  8
DATUM_AXIS
  5
3408
 10
3.50908
 20
31.4939
 30
0.000000
  70
    32
  0
VERTEX
  8
DATUM_AXIS
  5
3409
 10
3.51099
 20
31.4939
 30
0.000000
  70
    32
  0
VERTEX
  8
DATUM_AXIS
  5
340A
 10
3.51291
 20
31.4939
 30
0.000000
  70
    32
  0
VERTEX
  8
DATUM_AXIS
  5
340B
 10
3.51483
 20
31.4939
 30
0.000000
  70
    32
  0
VERTEX
  8
DATUM_AXIS
  5
340C
 10
3.51675
 20
31.4938
 30
0.000000
  70
    32
  0
VERTEX
  8
DATUM_AXIS
  5
340D
 10
3.51866
 20
31.4938
 30
0.000000
  70
    32
  0
VERTEX
  8
DATUM_AXIS
  5
340E
 10
3.52058
 20
31.4938
 30
0.000000
  70
    32
  0
VERTEX
  8
DATUM_AXIS
  5
340F
 10
3.52250
 20
31.4938
 30
0.000000
  70
    32
  0
VERTEX
  8
DATUM_AXIS
  5
3410
 10
3.52442
 20
31.4938
 30
0.000000
  70
    32
  0
VERTEX
  8
DATUM_AXIS
  5
3411
 10
3.52633
 20
31.4937
 30
0.000000
  70
    32
  0
VERTEX
  8
DATUM_AXIS
  5
3412
 10
3.52825
 20
31.4937
 30
0.000000
  70
    32
  0
VERTEX
  8
DATUM_AXIS
  5
3413
 10
3.53017
 20
31.4937
 30
0.000000
  70
    32
  0
VERTEX
  8
DATUM_AXIS
  5
3414
 10
3.53209
 20
31.4937
 30
0.000000
  70
    32
  0
VERTEX
  8
DATUM_AXIS
  5
3415
 10
3.53400
 20
31.4937
 30
0.000000
  70
    32
  0
VERTEX
  8
DATUM_AXIS
  5
3416
 10
3.53592
 20
31.4936
 30
0.000000
  70
    32
  0
VERTEX
  8
DATUM_AXIS
  5
3417
 10
3.53784
 20
31.4936
 30
0.000000
  70
    32
  0
VERTEX
  8
DATUM_AXIS
  5
3418
 10
3.53976
 20
31.4936
 30
0.000000
  70
    32
  0
VERTEX
  8
DATUM_AXIS
  5
3419
 10
3.54167
 20
31.4936
 30
0.000000
  70
    32
  0
VERTEX
  8
DATUM_AXIS
  5
341A
 10
3.54359
 20
31.4936
 30
0.000000
  70
    32
  0
VERTEX
  8
DATUM_AXIS
  5
341B
 10
3.54551
 20
31.4935
 30
0.000000
  70
    32
  0
VERTEX
  8
DATUM_AXIS
  5
341C
 10
3.54743
 20
31.4935
 30
0.000000
  70
    32
  0
VERTEX
  8
DATUM_AXIS
  5
341D
 10
3.54934
 20
31.4935
 30
0.000000
  70
    32
  0
VERTEX
  8
DATUM_AXIS
  5
341E
 10
3.55126
 20
31.4935
 30
0.000000
  70
    32
  0
VERTEX
  8
DATUM_AXIS
  5
341F
 10
3.55318
 20
31.4935
 30
0.000000
  70
    32
  0
VERTEX
  8
DATUM_AXIS
  5
3420
 10
3.55510
 20
31.4934
 30
0.000000
  70
    32
  0
VERTEX
  8
DATUM_AXIS
  5
3421
 10
3.55701
 20
31.4934
 30
0.000000
  70
    32
  0
VERTEX
  8
DATUM_AXIS
  5
3422
 10
3.55893
 20
31.4934
 30
0.000000
  70
    32
  0
VERTEX
  8
DATUM_AXIS
  5
3423
 10
3.56085
 20
31.4934
 30
0.000000
  70
    32
  0
VERTEX
  8
DATUM_AXIS
  5
3424
 10
3.56277
 20
31.4934
 30
0.000000
  70
    32
  0
VERTEX
  8
DATUM_AXIS
  5
3425
 10
3.56468
 20
31.4933
 30
0.000000
  70
    32
  0
VERTEX
  8
DATUM_AXIS
  5
3426
 10
3.56660
 20
31.4933
 30
0.000000
  70
    32
  0
VERTEX
  8
DATUM_AXIS
  5
3427
 10
3.56852
 20
31.4933
 30
0.000000
  70
    32
  0
VERTEX
  8
DATUM_AXIS
  5
3428
 10
3.57044
 20
31.4933
 30
0.000000
  70
    32
  0
VERTEX
  8
DATUM_AXIS
  5
3429
 10
3.57235
 20
31.4932
 30
0.000000
  70
    32
  0
VERTEX
  8
DATUM_AXIS
  5
342A
 10
3.57427
 20
31.4932
 30
0.000000
  70
    32
  0
VERTEX
  8
DATUM_AXIS
  5
342B
 10
3.57619
 20
31.4932
 30
0.000000
  70
    32
  0
VERTEX
  8
DATUM_AXIS
  5
342C
 10
3.57811
 20
31.4932
 30
0.000000
  70
    32
  0
VERTEX
  8
DATUM_AXIS
  5
342D
 10
3.58002
 20
31.4932
 30
0.000000
  70
    32
  0
VERTEX
  8
DATUM_AXIS
  5
342E
 10
3.58194
 20
31.4931
 30
0.000000
  70
    32
  0
VERTEX
  8
DATUM_AXIS
  5
342F
 10
3.58386
 20
31.4931
 30
0.000000
  70
    32
  0
VERTEX
  8
DATUM_AXIS
  5
3430
 10
3.58578
 20
31.4931
 30
0.000000
  70
    32
  0
VERTEX
  8
DATUM_AXIS
  5
3431
 10
3.58769
 20
31.4931
 30
0.000000
  70
    32
  0
VERTEX
  8
DATUM_AXIS
  5
3432
 10
3.58961
 20
31.4930
 30
0.000000
  70
    32
  0
VERTEX
  8
DATUM_AXIS
  5
3433
 10
3.59153
 20
31.4930
 30
0.000000
  70
    32
  0
VERTEX
  8
DATUM_AXIS
  5
3434
 10
3.59345
 20
31.4930
 30
0.000000
  70
    32
  0
VERTEX
  8
DATUM_AXIS
  5
3435
 10
3.59536
 20
31.4930
 30
0.000000
  70
    32
  0
VERTEX
  8
DATUM_AXIS
  5
3436
 10
3.59728
 20
31.4930
 30
0.000000
  70
    32
  0
VERTEX
  8
DATUM_AXIS
  5
3437
 10
3.59920
 20
31.4929
 30
0.000000
  70
    32
  0
VERTEX
  8
DATUM_AXIS
  5
3438
 10
3.60111
 20
31.4929
 30
0.000000
  70
    32
  0
VERTEX
  8
DATUM_AXIS
  5
3439
 10
3.60303
 20
31.4929
 30
0.000000
  70
    32
  0
VERTEX
  8
DATUM_AXIS
  5
343A
 10
3.60495
 20
31.4929
 30
0.000000
  70
    32
  0
VERTEX
  8
DATUM_AXIS
  5
343B
 10
3.60687
 20
31.4928
 30
0.000000
  70
    32
  0
VERTEX
  8
DATUM_AXIS
  5
343C
 10
3.60878
 20
31.4928
 30
0.000000
  70
    32
  0
VERTEX
  8
DATUM_AXIS
  5
343D
 10
3.61070
 20
31.4928
 30
0.000000
  70
    32
  0
VERTEX
  8
DATUM_AXIS
  5
343E
 10
3.61262
 20
31.4928
 30
0.000000
  70
    32
  0
VERTEX
  8
DATUM_AXIS
  5
343F
 10
3.61454
 20
31.4927
 30
0.000000
  70
    32
  0
VERTEX
  8
DATUM_AXIS
  5
3440
 10
3.61645
 20
31.4927
 30
0.000000
  70
    32
  0
VERTEX
  8
DATUM_AXIS
  5
3441
 10
3.61837
 20
31.4927
 30
0.000000
  70
    32
  0
VERTEX
  8
DATUM_AXIS
  5
3442
 10
3.62029
 20
31.4927
 30
0.000000
  70
    32
  0
VERTEX
  8
DATUM_AXIS
  5
3443
 10
3.62221
 20
31.4926
 30
0.000000
  70
    32
  0
VERTEX
  8
DATUM_AXIS
  5
3444
 10
3.62412
 20
31.4926
 30
0.000000
  70
    32
  0
VERTEX
  8
DATUM_AXIS
  5
3445
 10
3.62604
 20
31.4926
 30
0.000000
  70
    32
  0
VERTEX
  8
DATUM_AXIS
  5
3446
 10
3.62796
 20
31.4926
 30
0.000000
  70
    32
  0
VERTEX
  8
DATUM_AXIS
  5
3447
 10
3.62988
 20
31.4925
 30
0.000000
  70
    32
  0
VERTEX
  8
DATUM_AXIS
  5
3448
 10
3.63179
 20
31.4925
 30
0.000000
  70
    32
  0
VERTEX
  8
DATUM_AXIS
  5
3449
 10
3.63371
 20
31.4925
 30
0.000000
  70
    32
  0
VERTEX
  8
DATUM_AXIS
  5
344A
 10
3.63563
 20
31.4925
 30
0.000000
  70
    32
  0
VERTEX
  8
DATUM_AXIS
  5
344B
 10
3.63755
 20
31.4924
 30
0.000000
  70
    32
  0
VERTEX
  8
DATUM_AXIS
  5
344C
 10
3.63946
 20
31.4924
 30
0.000000
  70
    32
  0
VERTEX
  8
DATUM_AXIS
  5
344D
 10
3.64138
 20
31.4924
 30
0.000000
  70
    32
  0
VERTEX
  8
DATUM_AXIS
  5
344E
 10
3.64330
 20
31.4923
 30
0.000000
  70
    32
  0
VERTEX
  8
DATUM_AXIS
  5
344F
 10
3.64521
 20
31.4923
 30
0.000000
  70
    32
  0
VERTEX
  8
DATUM_AXIS
  5
3450
 10
3.64713
 20
31.4923
 30
0.000000
  70
    32
  0
VERTEX
  8
DATUM_AXIS
  5
3451
 10
3.64905
 20
31.4923
 30
0.000000
  70
    32
  0
VERTEX
  8
DATUM_AXIS
  5
3452
 10
3.65097
 20
31.4922
 30
0.000000
  70
    32
  0
VERTEX
  8
DATUM_AXIS
  5
3453
 10
3.65288
 20
31.4922
 30
0.000000
  70
    32
  0
VERTEX
  8
DATUM_AXIS
  5
3454
 10
3.65480
 20
31.4922
 30
0.000000
  70
    32
  0
VERTEX
  8
DATUM_AXIS
  5
3455
 10
3.65672
 20
31.4922
 30
0.000000
  70
    32
  0
VERTEX
  8
DATUM_AXIS
  5
3456
 10
3.65864
 20
31.4921
 30
0.000000
  70
    32
  0
VERTEX
  8
DATUM_AXIS
  5
3457
 10
3.66055
 20
31.4921
 30
0.000000
  70
    32
  0
VERTEX
  8
DATUM_AXIS
  5
3458
 10
3.66247
 20
31.4921
 30
0.000000
  70
    32
  0
VERTEX
  8
DATUM_AXIS
  5
3459
 10
3.66439
 20
31.4921
 30
0.000000
  70
    32
  0
VERTEX
  8
DATUM_AXIS
  5
345A
 10
3.66631
 20
31.4920
 30
0.000000
  70
    32
  0
VERTEX
  8
DATUM_AXIS
  5
345B
 10
3.66822
 20
31.4920
 30
0.000000
  70
    32
  0
VERTEX
  8
DATUM_AXIS
  5
345C
 10
3.67014
 20
31.4920
 30
0.000000
  70
    32
  0
VERTEX
  8
DATUM_AXIS
  5
345D
 10
3.67206
 20
31.4919
 30
0.000000
  70
    32
  0
VERTEX
  8
DATUM_AXIS
  5
345E
 10
3.67398
 20
31.4919
 30
0.000000
  70
    32
  0
VERTEX
  8
DATUM_AXIS
  5
345F
 10
3.67589
 20
31.4919
 30
0.000000
  70
    32
  0
VERTEX
  8
DATUM_AXIS
  5
3460
 10
3.67781
 20
31.4919
 30
0.000000
  70
    32
  0
VERTEX
  8
DATUM_AXIS
  5
3461
 10
3.67973
 20
31.4918
 30
0.000000
  70
    32
  0
VERTEX
  8
DATUM_AXIS
  5
3462
 10
3.68164
 20
31.4918
 30
0.000000
  70
    32
  0
VERTEX
  8
DATUM_AXIS
  5
3463
 10
3.68356
 20
31.4918
 30
0.000000
  70
    32
  0
VERTEX
  8
DATUM_AXIS
  5
3464
 10
3.68548
 20
31.4917
 30
0.000000
  70
    32
  0
VERTEX
  8
DATUM_AXIS
  5
3465
 10
3.68740
 20
31.4917
 30
0.000000
  70
    32
  0
VERTEX
  8
DATUM_AXIS
  5
3466
 10
3.68931
 20
31.4917
 30
0.000000
  70
    32
  0
VERTEX
  8
DATUM_AXIS
  5
3467
 10
3.69123
 20
31.4917
 30
0.000000
  70
    32
  0
VERTEX
  8
DATUM_AXIS
  5
3468
 10
3.69315
 20
31.4916
 30
0.000000
  70
    32
  0
VERTEX
  8
DATUM_AXIS
  5
3469
 10
3.69507
 20
31.4916
 30
0.000000
  70
    32
  0
VERTEX
  8
DATUM_AXIS
  5
346A
 10
3.69698
 20
31.4916
 30
0.000000
  70
    32
  0
VERTEX
  8
DATUM_AXIS
  5
346B
 10
3.69890
 20
31.4915
 30
0.000000
  70
    32
  0
VERTEX
  8
DATUM_AXIS
  5
346C
 10
3.70082
 20
31.4915
 30
0.000000
  70
    32
  0
VERTEX
  8
DATUM_AXIS
  5
346D
 10
3.70274
 20
31.4915
 30
0.000000
  70
    32
  0
VERTEX
  8
DATUM_AXIS
  5
346E
 10
3.70465
 20
31.4914
 30
0.000000
  70
    32
  0
VERTEX
  8
DATUM_AXIS
  5
346F
 10
3.70657
 20
31.4914
 30
0.000000
  70
    32
  0
VERTEX
  8
DATUM_AXIS
  5
3470
 10
3.70849
 20
31.4914
 30
0.000000
  70
    32
  0
VERTEX
  8
DATUM_AXIS
  5
3471
 10
3.71040
 20
31.4914
 30
0.000000
  70
    32
  0
VERTEX
  8
DATUM_AXIS
  5
3472
 10
3.71232
 20
31.4913
 30
0.000000
  70
    32
  0
VERTEX
  8
DATUM_AXIS
  5
3473
 10
3.71424
 20
31.4913
 30
0.000000
  70
    32
  0
VERTEX
  8
DATUM_AXIS
  5
3474
 10
3.71616
 20
31.4913
 30
0.000000
  70
    32
  0
VERTEX
  8
DATUM_AXIS
  5
3475
 10
3.71807
 20
31.4912
 30
0.000000
  70
    32
  0
VERTEX
  8
DATUM_AXIS
  5
3476
 10
3.71999
 20
31.4912
 30
0.000000
  70
    32
  0
VERTEX
  8
DATUM_AXIS
  5
3477
 10
3.72191
 20
31.4912
 30
0.000000
  70
    32
  0
VERTEX
  8
DATUM_AXIS
  5
3478
 10
3.72383
 20
31.4911
 30
0.000000
  70
    32
  0
VERTEX
  8
DATUM_AXIS
  5
3479
 10
3.72574
 20
31.4911
 30
0.000000
  70
    32
  0
VERTEX
  8
DATUM_AXIS
  5
347A
 10
3.72766
 20
31.4911
 30
0.000000
  70
    32
  0
VERTEX
  8
DATUM_AXIS
  5
347B
 10
3.72958
 20
31.4910
 30
0.000000
  70
    32
  0
VERTEX
  8
DATUM_AXIS
  5
347C
 10
3.73150
 20
31.4910
 30
0.000000
  70
    32
  0
VERTEX
  8
DATUM_AXIS
  5
347D
 10
3.73341
 20
31.4910
 30
0.000000
  70
    32
  0
VERTEX
  8
DATUM_AXIS
  5
347E
 10
3.73533
 20
31.4909
 30
0.000000
  70
    32
  0
VERTEX
  8
DATUM_AXIS
  5
347F
 10
3.73725
 20
31.4909
 30
0.000000
  70
    32
  0
VERTEX
  8
DATUM_AXIS
  5
3480
 10
3.73916
 20
31.4909
 30
0.000000
  70
    32
  0
VERTEX
  8
DATUM_AXIS
  5
3481
 10
3.74108
 20
31.4908
 30
0.000000
  70
    32
  0
VERTEX
  8
DATUM_AXIS
  5
3482
 10
3.74300
 20
31.4908
 30
0.000000
  70
    32
  0
VERTEX
  8
DATUM_AXIS
  5
3483
 10
3.74492
 20
31.4908
 30
0.000000
  70
    32
  0
VERTEX
  8
DATUM_AXIS
  5
3484
 10
3.74683
 20
31.4907
 30
0.000000
  70
    32
  0
VERTEX
  8
DATUM_AXIS
  5
3485
 10
3.74875
 20
31.4907
 30
0.000000
  70
    32
  0
VERTEX
  8
DATUM_AXIS
  5
3486
 10
3.75067
 20
31.4907
 30
0.000000
  70
    32
  0
VERTEX
  8
DATUM_AXIS
  5
3487
 10
3.75259
 20
31.4906
 30
0.000000
  70
    32
  0
VERTEX
  8
DATUM_AXIS
  5
3488
 10
3.75450
 20
31.4906
 30
0.000000
  70
    32
  0
VERTEX
  8
DATUM_AXIS
  5
3489
 10
3.75642
 20
31.4906
 30
0.000000
  70
    32
  0
VERTEX
  8
DATUM_AXIS
  5
348A
 10
3.75834
 20
31.4905
 30
0.000000
  70
    32
  0
VERTEX
  8
DATUM_AXIS
  5
348B
 10
3.76025
 20
31.4905
 30
0.000000
  70
    32
  0
VERTEX
  8
DATUM_AXIS
  5
348C
 10
3.76217
 20
31.4905
 30
0.000000
  70
    32
  0
VERTEX
  8
DATUM_AXIS
  5
348D
 10
3.76409
 20
31.4904
 30
0.000000
  70
    32
  0
VERTEX
  8
DATUM_AXIS
  5
348E
 10
3.76601
 20
31.4904
 30
0.000000
  70
    32
  0
VERTEX
  8
DATUM_AXIS
  5
348F
 10
3.76792
 20
31.4904
 30
0.000000
  70
    32
  0
VERTEX
  8
DATUM_AXIS
  5
3490
 10
3.76984
 20
31.4903
 30
0.000000
  70
    32
  0
VERTEX
  8
DATUM_AXIS
  5
3491
 10
3.77176
 20
31.4903
 30
0.000000
  70
    32
  0
VERTEX
  8
DATUM_AXIS
  5
3492
 10
3.77368
 20
31.4903
 30
0.000000
  70
    32
  0
VERTEX
  8
DATUM_AXIS
  5
3493
 10
3.77559
 20
31.4902
 30
0.000000
  70
    32
  0
VERTEX
  8
DATUM_AXIS
  5
3494
 10
3.77751
 20
31.4902
 30
0.000000
  70
    32
  0
VERTEX
  8
DATUM_AXIS
  5
3495
 10
3.77943
 20
31.4902
 30
0.000000
  70
    32
  0
VERTEX
  8
DATUM_AXIS
  5
3496
 10
3.78134
 20
31.4901
 30
0.000000
  70
    32
  0
VERTEX
  8
DATUM_AXIS
  5
3497
 10
3.78326
 20
31.4901
 30
0.000000
  70
    32
  0
VERTEX
  8
DATUM_AXIS
  5
3498
 10
3.78518
 20
31.4901
 30
0.000000
  70
    32
  0
VERTEX
  8
DATUM_AXIS
  5
3499
 10
3.78710
 20
31.4900
 30
0.000000
  70
    32
  0
VERTEX
  8
DATUM_AXIS
  5
349A
 10
3.78901
 20
31.4900
 30
0.000000
  70
    32
  0
VERTEX
  8
DATUM_AXIS
  5
349B
 10
3.79093
 20
31.4900
 30
0.000000
  70
    32
  0
VERTEX
  8
DATUM_AXIS
  5
349C
 10
3.79285
 20
31.4899
 30
0.000000
  70
    32
  0
VERTEX
  8
DATUM_AXIS
  5
349D
 10
3.79476
 20
31.4899
 30
0.000000
  70
    32
  0
VERTEX
  8
DATUM_AXIS
  5
349E
 10
3.79668
 20
31.4899
 30
0.000000
  70
    32
  0
VERTEX
  8
DATUM_AXIS
  5
349F
 10
3.79860
 20
31.4898
 30
0.000000
  70
    32
  0
VERTEX
  8
DATUM_AXIS
  5
34A0
 10
3.80052
 20
31.4898
 30
0.000000
  70
    32
  0
VERTEX
  8
DATUM_AXIS
  5
34A1
 10
3.80243
 20
31.4897
 30
0.000000
  70
    32
  0
VERTEX
  8
DATUM_AXIS
  5
34A2
 10
3.80435
 20
31.4897
 30
0.000000
  70
    32
  0
VERTEX
  8
DATUM_AXIS
  5
34A3
 10
3.80627
 20
31.4897
 30
0.000000
  70
    32
  0
VERTEX
  8
DATUM_AXIS
  5
34A4
 10
3.80819
 20
31.4896
 30
0.000000
  70
    32
  0
VERTEX
  8
DATUM_AXIS
  5
34A5
 10
3.81010
 20
31.4896
 30
0.000000
  70
    32
  0
VERTEX
  8
DATUM_AXIS
  5
34A6
 10
3.81202
 20
31.4896
 30
0.000000
  70
    32
  0
SEQEND
  8
DATUM_AXIS
  5
34A7
  0
LINE
  5
FBC
  8
DATUM_AXIS
  6
CONTINUOUS
 62
     7
 10
2.944782838560307
 20
31.493763491410611
 30
0.0
 11
2.9549109579681661
 21
31.493866396078872
 31
0.0
  0
LINE
  5
FBD
  8
0
  6
CONTINUOUS
 62
     7
 10
0.0
 20
29.39186885757713
 30
0.0
 11
0.0
 21
31.059171045282419
 31
0.0
  0
ARC
  5
FBE
  8
0
  6
CONTINUOUS
 62
     7
 10
6.4527678033910041
 20
29.212614395296399
 30
0.0
 40
0.0610647069307945
 50
359.47437105419999
 51
89.999382960500085
  0
ARC
  5
FBF
  8
0
  6
CONTINUOUS
 62
     7
 10
0.0610640009439845
 20
29.212614395296399
 30
0.0
 40
0.0610647069307945
 50
89.999338902799948
 51
179.99999816030001
  0
ARC
  5
FC0
  8
0
  6
CONTINUOUS
 62
     7
 10
0.1181897553499294
 20
29.39186885757713
 30
0.0
 40
0.1181897553499247
 50
180.00000000049999
 51
269.9999999993999
  0
ARC
  5
FC1
  8
0
  6
CONTINUOUS
 62
     7
 10
6.517523194628466
 20
29.39186885757713
 30
0.0
 40
0.1181897553499247
 50
270.00000868299998
 51
357.5299317354
  0
ARC
  5
FC2
  8
0
  6
CONTINUOUS
 62
     7
 10
0.1969829255832103
 20
16.790855597583761
 30
0.0
 40
0.1969829255832079
 50
180.00000162480001
 51
257.99999875509991
  0
ARC
  5
FC3
  8
0
  6
CONTINUOUS
 62
     7
 10
6.2028833891478738
 20
16.790855597583761
 30
0.0
 40
0.1969829255832079
 50
305.78976514179999
 51
359.47436550869998
  0
ARC
  5
FC4
  8
0
  6
CONTINUOUS
 62
     7
 10
0.1969829255832103
 20
31.080437059547119
 30
0.0
 40
0.1969829255832079
 50
97.926615120300085
 51
180.0000000576
  0
ARC
  5
FC6
  8
0
  6
CONTINUOUS
 62
     7
 10
26.959302145779269
 20
15.27780958261291
 30
0.0
 40
0.232656998679997
 50
354.57562468280003
 51
89.999999984999988
  0
ARC
  5
FC7
  8
0
  6
CONTINUOUS
 62
     7
 10
7.0005931745935932
 20
15.89822824602221
 30
0.0
 40
0.3877619676890452
 50
195.9779041924001
 51
270.0000448399
  0
POLYLINE
  5
FC9
  8
0
  6
CONTINUOUS
 62
     7
 66
     1
 10
0.0
 20
0.0
 30
0.0
  0
VERTEX
  5
26FB
  8
0
  6
CONTINUOUS
 62
     7
 10
0.1698180606289839
 20
31.275537918859229
 30
0.0
  0
VERTEX
  5
26FC
  8
0
  6
CONTINUOUS
 62
     7
 10
0.5043981683445864
 20
31.319678766824691
 30
0.0
  0
VERTEX
  5
26FD
  8
0
  6
CONTINUOUS
 62
     7
 10
0.8597233323393709
 20
31.361203594077988
 30
0.0
  0
VERTEX
  5
26FE
  8
0
  6
CONTINUOUS
 62
     7
 10
1.2155028543925459
 20
31.397257087018779
 30
0.0
  0
VERTEX
  5
26FF
  8
0
  6
CONTINUOUS
 62
     7
 10
1.5718209112176991
 20
31.42782463621143
 30
0.0
  0
VERTEX
  5
2700
  8
0
  6
CONTINUOUS
 62
     7
 10
1.928593245732201
 20
31.452875842462909
 30
0.0
  0
VERTEX
  5
2701
  8
0
  6
CONTINUOUS
 62
     7
 10
2.1724972985391409
 20
31.466802729920769
 30
0.0
  0
SEQEND
  5
2702
  8
0
  6
CONTINUOUS
 62
     7
  0
LINE
  5
FCA
  8
0
  6
CONTINUOUS
 62
     7
 10
4.5007501207154901
 20
31.46897791821015
 30
0.0
 11
4.7853955382220121
 21
31.453003342025291
 31
0.0
  0
LINE
  5
FCC
  8
0
  6
CONTINUOUS
 62
     7
 10
5.1416598234360711
 20
31.428023570055899
 30
0.0
 11
5.4973579344159367
 21
31.39755368499776
 31
0.0
  0
LINE
  5
FCF
  8
0
  6
CONTINUOUS
 62
     7
 10
0.0610647057488869
 20
29.273679102227199
 30
0.0
 11
6.5175232123569371
 21
29.273679102227199
 31
0.0
  0
LINE
  5
FD3
  8
0
  6
CONTINUOUS
 62
     7
 10
6.5386467618724531
 20
31.276590741774879
 30
0.0
 11
6.5471956553770907
 21
31.275211102123599
 31
0.0
  0
POLYLINE
  5
FD4
  8
0
  6
CONTINUOUS
 62
     7
 66
     1
 10
0.0
 20
0.0
 30
0.0
  0
VERTEX
  5
2703
  8
0
  6
CONTINUOUS
 62
     7
 10
6.547195655377088
 20
31.275211102123599
 30
0.0
  0
VERTEX
  5
2704
  8
0
  6
CONTINUOUS
 62
     7
 10
6.5601836414486376
 20
31.27236476385329
 30
0.0
  0
VERTEX
  5
2705
  8
0
  6
CONTINUOUS
 62
     7
 10
6.5729520865039026
 20
31.268648051798689
 30
0.0
  0
VERTEX
  5
2706
  8
0
  6
CONTINUOUS
 62
     7
 10
6.585442843941073
 20
31.264077415216011
 30
0.0
  0
VERTEX
  5
2707
  8
0
  6
CONTINUOUS
 62
     7
 10
6.5975986366408668
 20
31.258673324964811
 30
0.0
  0
VERTEX
  5
2708
  8
0
  6
CONTINUOUS
 62
     7
 10
6.6093633701695254
 20
31.25246029911591
 30
0.0
  0
VERTEX
  5
2709
  8
0
  6
CONTINUOUS
 62
     7
 10
6.6206832008202383
 20
31.245466404584441
 30
0.0
  0
VERTEX
  5
270A
  8
0
  6
CONTINUOUS
 62
     7
 10
6.6315063272051091
 20
31.237723263433431
 30
0.0
  0
VERTEX
  5
270B
  8
0
  6
CONTINUOUS
 62
     7
 10
6.6417828062732118
 20
31.229266260887702
 30
0.0
  0
VERTEX
  5
270C
  8
0
  6
CONTINUOUS
 62
     7
 10
6.6514655528018523
 20
31.22013384959018
 30
0.0
  0
VERTEX
  5
270D
  8
0
  6
CONTINUOUS
 62
     7
 10
6.6605102294801659
 20
31.210367531479491
 30
0.0
  0
VERTEX
  5
270E
  8
0
  6
CONTINUOUS
 62
     7
 10
6.6688751480237149
 20
31.200012031528921
 30
0.0
  0
VERTEX
  5
270F
  8
0
  6
CONTINUOUS
 62
     7
 10
6.676521988162051
 20
31.189114531088752
 30
0.0
  0
VERTEX
  5
2710
  8
0
  6
CONTINUOUS
 62
     7
 10
6.6834156833887732
 20
31.177724722253728
 30
0.0
  0
VERTEX
  5
2711
  8
0
  6
CONTINUOUS
 62
     7
 10
6.6895244359320643
 20
31.165894909112129
 30
0.0
  0
VERTEX
  5
2712
  8
0
  6
CONTINUOUS
 62
     7
 10
6.6948202675190842
 20
31.15367909689682
 30
0.0
  0
VERTEX
  5
2713
  8
0
  6
CONTINUOUS
 62
     7
 10
6.6992789098534038
 20
31.14113306329299
 30
0.0
  0
VERTEX
  5
2714
  8
0
  6
CONTINUOUS
 62
     7
 10
6.702879822343462
 20
31.12831448726504
 30
0.0
  0
VERTEX
  5
2715
  8
0
  6
CONTINUOUS
 62
     7
 10
6.70560655258135
 20
31.11528193538247
 30
0.0
  0
VERTEX
  5
2716
  8
0
  6
CONTINUOUS
 62
     7
 10
6.7074466425789501
 20
31.102094950856049
 30
0.0
  0
VERTEX
  5
2717
  8
0
  6
CONTINUOUS
 62
     7
 10
6.7083916705282292
 20
31.088814180001009
 30
0.0
  0
SEQEND
  5
2718
  8
0
  6
CONTINUOUS
 62
     7
  0
LINE
  5
FD6
  8
0
  6
CONTINUOUS
 62
     7
 10
0.0
 20
31.059170861300359
 30
0.0
 11
0.0
 21
31.078639305513871
 31
0.0
  0
LINE
  5
FD7
  8
0
  6
CONTINUOUS
 62
     7
 10
0.0
 20
0.0
 30
0.0
 11
0.0
 21
16.59387267200055
 31
0.0
  0
POLYLINE
  5
FD9
  8
0
  6
CONTINUOUS
 62
     7
 66
     1
 10
0.0
 20
0.0
 30
0.0
  0
VERTEX
  5
2719
  8
0
  6
CONTINUOUS
 62
     7
 10
6.7083916705282292
 20
31.088814180001009
 30
0.0
  0
VERTEX
  5
271A
  8
0
  6
CONTINUOUS
 62
     7
 10
6.70843739814456
 20
31.075500303013591
 30
0.0
  0
VERTEX
  5
271B
  8
0
  6
CONTINUOUS
 62
     7
 10
6.7083451608896629
 20
31.072990914280609
 30
0.0
  0
SEQEND
  5
271C
  8
0
  6
CONTINUOUS
 62
     7
  0
LINE
  5
FDA
  8
0
  6
CONTINUOUS
 62
     7
 10
6.5138305980115661
 20
29.212054192402618
 30
0.0
 11
6.3998580686318522
 21
16.789048490801189
 31
0.0
  0
LINE
  5
FDB
  8
_SURFACE
  6
CONTINUOUS
 62
     7
 10
6.7083452223483242
 20
31.072990906795251
 30
0.0
 11
6.6356031623327461
 21
29.38677515607954
 31
0.0
  0
LINE
  5
FDC
  8
0
  6
CONTINUOUS
 62
     7
 10
6.708342446858917
 20
31.07299166754331
 30
0.0
 11
6.635603154059484
 21
29.386775177353702
 31
0.0
  0
LINE
  5
FDD
  8
0
  6
CONTINUOUS
 62
     7
 10
6.398067465078797
 20
16.59387267200055
 30
0.0
 11
6.62781182930902
 21
15.79149047953157
 31
0.0
  0
LINE
  5
FDF
  8
0
  6
CONTINUOUS
 62
     7
 10
6.398067465078797
 20
16.59387267200055
 30
0.0
 11
0.0
 21
16.59387267200055
 31
0.0
  0
LINE
  5
FE6
  8
0
  6
CONTINUOUS
 62
     7
 10
7.0001084556644102
 20
15.51046658129291
 30
0.0
 11
26.959338844092269
 21
15.51046658129291
 31
0.0
  0
LINE
  5
FE8
  8
0
  6
CONTINUOUS
 62
     7
 10
3.877616156805562
 20
6.7858295982335033
 30
0.0
 11
0.1937985362470424
 21
6.7858291952064391
 31
0.0
  0
LINE
  5
FE9
  8
06___PRT_ALL_SURFS
  6
CONTINUOUS
 62
     7
 10
4.5364853975891641
 20
6.7858295513515641
 30
0.0
 11
3.877616156805562
 21
6.7858295982335033
 31
0.0
  0
POLYLINE
  5
FEA
  8
06___PRT_ALL_SURFS
  6
CONTINUOUS
 62
     7
 66
     1
 10
0.0
 20
0.0
 30
0.0
  0
VERTEX
  5
271D
  8
06___PRT_ALL_SURFS
  6
CONTINUOUS
 62
     7
 10
22.496563930524001
 20
3.5534857789747321
 30
0.0
  0
VERTEX
  5
271E
  8
06___PRT_ALL_SURFS
  6
CONTINUOUS
 62
     7
 10
22.492781473054201
 20
3.1880841555262212
 30
0.0
  0
VERTEX
  5
271F
  8
06___PRT_ALL_SURFS
  6
CONTINUOUS
 62
     7
 10
22.491645990193479
 20
3.0095264021549961
 30
0.0
  0
VERTEX
  5
2720
  8
06___PRT_ALL_SURFS
  6
CONTINUOUS
 62
     7
 10
22.491227465693061
 20
2.833611030932937
 30
0.0
  0
VERTEX
  5
2721
  8
06___PRT_ALL_SURFS
  6
CONTINUOUS
 62
     7
 10
22.49167445028657
 20
2.6601633845852759
 30
0.0
  0
VERTEX
  5
2722
  8
06___PRT_ALL_SURFS
  6
CONTINUOUS
 62
     7
 10
22.493122113657581
 20
2.4891377756801858
 30
0.0
  0
VERTEX
  5
2723
  8
06___PRT_ALL_SURFS
  6
CONTINUOUS
 62
     7
 10
22.49580663163642
 20
2.320501316342376
 30
0.0
  0
VERTEX
  5
2724
  8
06___PRT_ALL_SURFS
  6
CONTINUOUS
 62
     7
 10
22.500242971957871
 20
2.1541667565306581
 30
0.0
  0
VERTEX
  5
2725
  8
06___PRT_ALL_SURFS
  6
CONTINUOUS
 62
     7
 10
22.506944916125502
 20
1.9902580796621829
 30
0.0
  0
VERTEX
  5
2726
  8
06___PRT_ALL_SURFS
  6
CONTINUOUS
 62
     7
 10
22.51638211358825
 20
1.828779556326777
 30
0.0
  0
VERTEX
  5
2727
  8
06___PRT_ALL_SURFS
  6
CONTINUOUS
 62
     7
 10
22.529005884533841
 20
1.669470777066653
 30
0.0
  0
VERTEX
  5
2728
  8
06___PRT_ALL_SURFS
  6
CONTINUOUS
 62
     7
 10
22.545145932679642
 20
1.512305063302301
 30
0.0
  0
VERTEX
  5
2729
  8
06___PRT_ALL_SURFS
  6
CONTINUOUS
 62
     7
 10
22.564769110920839
 20
1.35743811585362
 30
0.0
  0
VERTEX
  5
272A
  8
06___PRT_ALL_SURFS
  6
CONTINUOUS
 62
     7
 10
22.58777579750663
 20
1.2048765407400059
 30
0.0
  0
VERTEX
  5
272B
  8
06___PRT_ALL_SURFS
  6
CONTINUOUS
 62
     7
 10
22.614080014117569
 20
1.0545785775812311
 30
0.0
  0
VERTEX
  5
272C
  8
06___PRT_ALL_SURFS
  6
CONTINUOUS
 62
     7
 10
22.643560638316519
 20
0.906709999722123
 30
0.0
  0
VERTEX
  5
272D
  8
06___PRT_ALL_SURFS
  6
CONTINUOUS
 62
     7
 10
22.67597723510832
 20
0.7615604547961077
 30
0.0
  0
VERTEX
  5
272E
  8
06___PRT_ALL_SURFS
  6
CONTINUOUS
 62
     7
 10
22.709598556622961
 20
0.6188312217422372
 30
0.0
  0
VERTEX
  5
272F
  8
06___PRT_ALL_SURFS
  6
CONTINUOUS
 62
     7
 10
22.741417064794881
 20
0.4778650095102872
 30
0.0
  0
VERTEX
  5
2730
  8
06___PRT_ALL_SURFS
  6
CONTINUOUS
 62
     7
 10
22.76859577449703
 20
0.3382482776618119
 30
0.0
  0
VERTEX
  5
2731
  8
06___PRT_ALL_SURFS
  6
CONTINUOUS
 62
     7
 10
22.78860889265238
 20
0.199512875787935
 30
0.0
  0
VERTEX
  5
2732
  8
06___PRT_ALL_SURFS
  6
CONTINUOUS
 62
     7
 10
22.799219094283512
 20
0.0611309570162586
 30
0.0
  0
VERTEX
  5
2733
  8
06___PRT_ALL_SURFS
  6
CONTINUOUS
 62
     7
 10
22.800385874579352
 20
0.0
 30
0.0
  0
SEQEND
  5
2734
  8
06___PRT_ALL_SURFS
  6
CONTINUOUS
 62
     7
  0
LINE
  5
FEB
  8
06___PRT_ALL_SURFS
  6
CONTINUOUS
 62
     7
 10
22.501707832332229
 20
3.93006888487393
 30
0.0
 11
22.496563930524001
 21
3.5534857789747329
 31
0.0
  0
LINE
  5
FEC
  8
06___PRT_ALL_SURFS
  6
CONTINUOUS
 62
     7
 10
22.507770013778291
 20
4.3179880315427521
 30
0.0
 11
22.501707832332229
 21
3.93006888487393
 31
0.0
  0
POLYLINE
  5
FED
  8
06___PRT_ALL_SURFS
  6
CONTINUOUS
 62
     7
 66
     1
 10
0.0
 20
0.0
 30
0.0
  0
VERTEX
  5
2735
  8
06___PRT_ALL_SURFS
  6
CONTINUOUS
 62
     7
 10
22.802247130786281
 20
6.7858291294141386
 30
0.0
  0
VERTEX
  5
2736
  8
06___PRT_ALL_SURFS
  6
CONTINUOUS
 62
     7
 10
22.754610767226971
 20
6.6472761175767534
 30
0.0
  0
VERTEX
  5
2737
  8
06___PRT_ALL_SURFS
  6
CONTINUOUS
 62
     7
 10
22.693500700643941
 20
6.4262600581118781
 30
0.0
  0
VERTEX
  5
2738
  8
06___PRT_ALL_SURFS
  6
CONTINUOUS
 62
     7
 10
22.646685366252111
 20
6.2045218608176826
 30
0.0
  0
VERTEX
  5
2739
  8
06___PRT_ALL_SURFS
  6
CONTINUOUS
 62
     7
 10
22.610823324168418
 20
5.983983586196568
 30
0.0
  0
VERTEX
  5
273A
  8
06___PRT_ALL_SURFS
  6
CONTINUOUS
 62
     7
 10
22.582851694762279
 20
5.7660518897141042
 30
0.0
  0
VERTEX
  5
273B
  8
06___PRT_ALL_SURFS
  6
CONTINUOUS
 62
     7
 10
22.561017748387741
 20
5.550834075455195
 30
0.0
  0
VERTEX
  5
273C
  8
06___PRT_ALL_SURFS
  6
CONTINUOUS
 62
     7
 10
22.544321243569421
 20
5.3381832363117079
 30
0.0
  0
VERTEX
  5
273D
  8
06___PRT_ALL_SURFS
  6
CONTINUOUS
 62
     7
 10
22.53185023839815
 20
5.12833338366561
 30
0.0
  0
VERTEX
  5
273E
  8
06___PRT_ALL_SURFS
  6
CONTINUOUS
 62
     7
 10
22.522727153060249
 20
4.92144914678489
 30
0.0
  0
VERTEX
  5
273F
  8
06___PRT_ALL_SURFS
  6
CONTINUOUS
 62
     7
 10
22.51615051248935
 20
4.7174406344812851
 30
0.0
  0
VERTEX
  5
2740
  8
06___PRT_ALL_SURFS
  6
CONTINUOUS
 62
     7
 10
22.511392249670049
 20
4.5162400235636886
 30
0.0
  0
VERTEX
  5
2741
  8
06___PRT_ALL_SURFS
  6
CONTINUOUS
 62
     7
 10
22.507770013778291
 20
4.3179880315427521
 30
0.0
  0
SEQEND
  5
2742
  8
06___PRT_ALL_SURFS
  6
CONTINUOUS
 62
     7
  0
POLYLINE
  5
FEE
  8
06___PRT_ALL_SURFS
  6
CONTINUOUS
 62
     7
 66
     1
 10
0.0
 20
0.0
 30
0.0
  0
VERTEX
  5
2743
  8
06___PRT_ALL_SURFS
  6
CONTINUOUS
 62
     7
 10
23.384139706174519
 20
7.8470964730052772
 30
0.0
  0
VERTEX
  5
2744
  8
06___PRT_ALL_SURFS
  6
CONTINUOUS
 62
     7
 10
23.259956744525791
 20
7.6522056278272128
 30
0.0
  0
VERTEX
  5
2745
  8
06___PRT_ALL_SURFS
  6
CONTINUOUS
 62
     7
 10
23.14141391540419
 20
7.4605211308539143
 30
0.0
  0
VERTEX
  5
2746
  8
06___PRT_ALL_SURFS
  6
CONTINUOUS
 62
     7
 10
23.031908964292231
 20
7.2721443321643839
 30
0.0
  0
VERTEX
  5
2747
  8
06___PRT_ALL_SURFS
  6
CONTINUOUS
 62
     7
 10
22.933905561367752
 20
7.0866259487683427
 30
0.0
  0
VERTEX
  5
2748
  8
06___PRT_ALL_SURFS
  6
CONTINUOUS
 62
     7
 10
22.849050059981391
 20
6.9029382529808831
 30
0.0
  0
VERTEX
  5
2749
  8
06___PRT_ALL_SURFS
  6
CONTINUOUS
 62
     7
 10
22.802247130786281
 20
6.7858291294141386
 30
0.0
  0
SEQEND
  5
274A
  8
06___PRT_ALL_SURFS
  6
CONTINUOUS
 62
     7
  0
POLYLINE
  5
FF1
  8
06___PRT_ALL_SURFS
  6
CONTINUOUS
 62
     7
 66
     1
 10
0.0
 20
0.0
 30
0.0
  0
VERTEX
  5
274B
  8
06___PRT_ALL_SURFS
  6
CONTINUOUS
 62
     7
 10
27.190925675510019
 20
15.2558152870154
 30
0.0
  0
VERTEX
  5
274C
  8
06___PRT_ALL_SURFS
  6
CONTINUOUS
 62
     7
 10
27.183767559071249
 20
15.18849929424205
 30
0.0
  0
VERTEX
  5
274D
  8
06___PRT_ALL_SURFS
  6
CONTINUOUS
 62
     7
 10
27.15344093693712
 20
14.98544840536996
 30
0.0
  0
VERTEX
  5
274E
  8
06___PRT_ALL_SURFS
  6
CONTINUOUS
 62
     7
 10
27.110843103109708
 20
14.780067423199601
 30
0.0
  0
VERTEX
  5
274F
  8
06___PRT_ALL_SURFS
  6
CONTINUOUS
 62
     7
 10
27.057520451954002
 20
14.572831683289049
 30
0.0
  0
VERTEX
  5
2750
  8
06___PRT_ALL_SURFS
  6
CONTINUOUS
 62
     7
 10
26.99519875876037
 20
14.364333677579291
 30
0.0
  0
VERTEX
  5
2751
  8
06___PRT_ALL_SURFS
  6
CONTINUOUS
 62
     7
 10
26.925547841091571
 20
14.155021144714491
 30
0.0
  0
VERTEX
  5
2752
  8
06___PRT_ALL_SURFS
  6
CONTINUOUS
 62
     7
 10
26.84928590617961
 20
13.944823621144391
 30
0.0
  0
VERTEX
  5
2753
  8
06___PRT_ALL_SURFS
  6
CONTINUOUS
 62
     7
 10
26.766837054323648
 20
13.73355319382525
 30
0.0
  0
VERTEX
  5
2754
  8
06___PRT_ALL_SURFS
  6
CONTINUOUS
 62
     7
 10
26.678605517730919
 20
13.520863019555319
 30
0.0
  0
VERTEX
  5
2755
  8
06___PRT_ALL_SURFS
  6
CONTINUOUS
 62
     7
 10
26.585139228834869
 20
13.306643055399091
 30
0.0
  0
VERTEX
  5
2756
  8
06___PRT_ALL_SURFS
  6
CONTINUOUS
 62
     7
 10
26.487148256320928
 20
13.09103964509352
 30
0.0
  0
VERTEX
  5
2757
  8
06___PRT_ALL_SURFS
  6
CONTINUOUS
 62
     7
 10
26.384970093399311
 20
12.87402976291048
 30
0.0
  0
VERTEX
  5
2758
  8
06___PRT_ALL_SURFS
  6
CONTINUOUS
 62
     7
 10
26.278650906564302
 20
12.655654052730981
 30
0.0
  0
VERTEX
  5
2759
  8
06___PRT_ALL_SURFS
  6
CONTINUOUS
 62
     7
 10
26.16837422126201
 20
12.436245860092731
 30
0.0
  0
VERTEX
  5
275A
  8
06___PRT_ALL_SURFS
  6
CONTINUOUS
 62
     7
 10
26.054265846547331
 20
12.21599334190434
 30
0.0
  0
VERTEX
  5
275B
  8
06___PRT_ALL_SURFS
  6
CONTINUOUS
 62
     7
 10
25.936379572547722
 20
11.994930692825839
 30
0.0
  0
VERTEX
  5
275C
  8
06___PRT_ALL_SURFS
  6
CONTINUOUS
 62
     7
 10
25.81487038267133
 20
11.77312866597237
 30
0.0
  0
VERTEX
  5
275D
  8
06___PRT_ALL_SURFS
  6
CONTINUOUS
 62
     7
 10
25.689975331686281
 20
11.55060724880742
 30
0.0
  0
VERTEX
  5
275E
  8
06___PRT_ALL_SURFS
  6
CONTINUOUS
 62
     7
 10
25.561968687981089
 20
11.32741808040493
 30
0.0
  0
VERTEX
  5
275F
  8
06___PRT_ALL_SURFS
  6
CONTINUOUS
 62
     7
 10
25.431153343533179
 20
11.103636859333379
 30
0.0
  0
VERTEX
  5
2760
  8
06___PRT_ALL_SURFS
  6
CONTINUOUS
 62
     7
 10
25.29766585478588
 20
10.87904040866567
 30
0.0
  0
VERTEX
  5
2761
  8
06___PRT_ALL_SURFS
  6
CONTINUOUS
 62
     7
 10
25.1618878552773
 20
10.653904232661169
 30
0.0
  0
VERTEX
  5
2762
  8
06___PRT_ALL_SURFS
  6
CONTINUOUS
 62
     7
 10
25.02448055916965
 20
10.42902897984594
 30
0.0
  0
VERTEX
  5
2763
  8
06___PRT_ALL_SURFS
  6
CONTINUOUS
 62
     7
 10
24.885547817831089
 20
10.20427407414306
 30
0.0
  0
VERTEX
  5
2764
  8
06___PRT_ALL_SURFS
  6
CONTINUOUS
 62
     7
 10
24.745348467613791
 20
9.9797436383631997
 30
0.0
  0
VERTEX
  5
2765
  8
06___PRT_ALL_SURFS
  6
CONTINUOUS
 62
     7
 10
24.604803234683502
 20
9.7565735796682862
 30
0.0
  0
VERTEX
  5
2766
  8
06___PRT_ALL_SURFS
  6
CONTINUOUS
 62
     7
 10
24.464082951694479
 20
9.5346533713327464
 30
0.0
  0
VERTEX
  5
2767
  8
06___PRT_ALL_SURFS
  6
CONTINUOUS
 62
     7
 10
24.323412809133298
 20
9.3139451378736116
 30
0.0
  0
VERTEX
  5
2768
  8
06___PRT_ALL_SURFS
  6
CONTINUOUS
 62
     7
 10
23.384139706174519
 20
7.8470964730052772
 30
0.0
  0
SEQEND
  5
2769
  8
06___PRT_ALL_SURFS
  6
CONTINUOUS
 62
     7
  0
LINE
  5
FF2
  8
0
  6
CONTINUOUS
 62
     7
 10
0.0
 20
0.0
 30
0.0
 11
22.800386240573619
 21
0.0
 31
0.0
  0
ATTDEF
  5
2190
  8
0
  6
CONTINUOUS
 10
0.0
 20
0.0
 30
0.0
 40
0.001
  1
K-3654
  3

  2
MODELNUMBER
 70
     8
  0
ATTDEF
  5
2191
  8
0
  6
CONTINUOUS
 10
0.0
 20
-0.0016666666666667
 30
0.0
 40
0.001
  1
PERSUADE
  3

  2
TRADENAME
 70
     8
  0
ATTDEF
  5
2192
  8
0
  6
CONTINUOUS
 10
0.0
 20
-0.0033333333333333
 30
0.0
 40
0.001
  1
TOILETS
  3

  2
PRODUCTS
 70
     8
  0
ATTDEF
  5
2193
  8
0
  6
CONTINUOUS
 10
0.0
 20
-0.005
 30
0.0
 40
0.001
  1
VITREOUS CHINA
  3

  2
MATERIAL
 70
     8
  0
ENDSEC
  0
EOF
