  0
SECTION
  2
HEADER
  9
$ACADVER
  1
AC1009
  9
$INSBASE
 10
153.19356866723149
 20
-6.1014089137430823
 30
0.0
  9
$EXTMIN
 10
143.6146933970515
 20
-35.268608913743101
 30
0.0
  9
$EXTMAX
 10
162.4879970882362
 20
-6.0950199256173478
 30
0.0
  9
$LIMMIN
 10
0.0
 20
0.0
  9
$LIMMAX
 10
11.692913385800001
 20
8.2677165353999982
  9
$ORTHOMODE
 70
     0
  9
$REGENMODE
 70
     1
  9
$FILLMODE
 70
     1
  9
$QTEXTMODE
 70
     0
  9
$MIRRTEXT
 70
     0
  9
$DRAGMODE
 70
     2
  9
$LTSCALE
 40
0.6431102362
  9
$OSMODE
 70
  3071
  9
$ATTMODE
 70
     1
  9
$TEXTSIZE
 40
0.2
  9
$TRACEWID
 40
0.05
  9
$TEXTSTYLE
  7
STANDARD
  9
$CLAYER
  8
0
  9
$CELTYPE
  6
BYLAYER
  9
$CECOLOR
 62
   256
  9
$DIMSCALE
 40
1.0
  9
$DIMASZ
 40
0.1875
  9
$DIMEXO
 40
0.0625
  9
$DIMDLI
 40
0.4443307087
  9
$DIMRND
 40
0.0
  9
$DIMDLE
 40
0.0
  9
$DIMEXE
 40
0.125
  9
$DIMTP
 40
0.0
  9
$DIMTM
 40
0.0
  9
$DIMTXT
 40
0.15625
  9
$DIMCEN
 40
0.1052362205
  9
$DIMTSZ
 40
0.0
  9
$DIMTOL
 70
     0
  9
$DIMLIM
 70
     0
  9
$DIMTIH
 70
     1
  9
$DIMTOH
 70
     1
  9
$DIMSE1
 70
     0
  9
$DIMSE2
 70
     0
  9
$DIMTAD
 70
     0
  9
$DIMZIN
 70
     0
  9
$DIMBLK
  1

  9
$DIMASO
 70
     1
  9
$DIMSHO
 70
     1
  9
$DIMPOST
  1

  9
$DIMAPOST
  1

  9
$DIMALT
 70
     0
  9
$DIMALTD
 70
     2
  9
$DIMALTF
 40
25.399999999999999
  9
$DIMLFAC
 40
1.0
  9
$DIMTOFL
 70
     0
  9
$DIMTVP
 40
0.0
  9
$DIMTIX
 70
     0
  9
$DIMSOXD
 70
     0
  9
$DIMSAH
 70
     0
  9
$DIMBLK1
  1

  9
$DIMBLK2
  1

  9
$DIMSTYLE
  2
STANDARD
  9
$DIMCLRD
 70
     0
  9
$DIMCLRE
 70
     0
  9
$DIMCLRT
 70
     0
  9
$DIMTFAC
 40
1.0
  9
$DIMGAP
 40
0.09
  9
$LUNITS
 70
     2
  9
$LUPREC
 70
     4
  9
$SKETCHINC
 40
0.1
  9
$FILLETRAD
 40
0.0
  9
$AUNITS
 70
     0
  9
$AUPREC
 70
     0
  9
$MENU
  1
.
  9
$ELEVATION
 40
0.0
  9
$PELEVATION
 40
0.0
  9
$THICKNESS
 40
0.0
  9
$LIMCHECK
 70
     0
  9
$BLIPMODE
 70
     0
  9
$CHAMFERA
 40
0.0
  9
$CHAMFERB
 40
0.0
  9
$SKPOLY
 70
     0
  9
$TDCREATE
 40
2457297.447092419
  9
$TDUPDATE
 40
2458232.63451757
  9
$TDINDWG
 40
0.2061399653
  9
$TDUSRTIMER
 40
0.2061399653
  9
$USRTIMER
 70
     1
  9
$ANGBASE
 50
0.0
  9
$ANGDIR
 70
     0
  9
$PDMODE
 70
     0
  9
$PDSIZE
 40
0.3125
  9
$PLINEWID
 40
0.0
  9
$COORDS
 70
     1
  9
$SPLFRAME
 70
     0
  9
$SPLINETYPE
 70
     6
  9
$SPLINESEGS
 70
     8
  9
$ATTDIA
 70
     1
  9
$ATTREQ
 70
     1
  9
$HANDLING
 70
     1
  9
$HANDSEED
  5
13A4
  9
$SURFTAB1
 70
     6
  9
$SURFTAB2
 70
     6
  9
$SURFTYPE
 70
     6
  9
$SURFU
 70
     6
  9
$SURFV
 70
     6
  9
$UCSNAME
  2

  9
$UCSORG
 10
0.0
 20
0.0
 30
0.0
  9
$UCSXDIR
 10
1.0
 20
0.0
 30
0.0
  9
$UCSYDIR
 10
0.0
 20
1.0
 30
0.0
  9
$PUCSNAME
  2

  9
$PUCSORG
 10
0.0
 20
0.0
 30
0.0
  9
$PUCSXDIR
 10
1.0
 20
0.0
 30
0.0
  9
$PUCSYDIR
 10
0.0
 20
1.0
 30
0.0
  9
$USERI1
 70
     0
  9
$USERI2
 70
     0
  9
$USERI3
 70
     0
  9
$USERI4
 70
     0
  9
$USERI5
 70
     0
  9
$USERR1
 40
0.0
  9
$USERR2
 40
0.0
  9
$USERR3
 40
0.0
  9
$USERR4
 40
0.0
  9
$USERR5
 40
0.0
  9
$WORLDVIEW
 70
     1
  9
$SHADEDGE
 70
     3
  9
$SHADEDIF
 70
    70
  9
$TILEMODE
 70
     1
  9
$MAXACTVP
 70
    64
  9
$PLIMCHECK
 70
     0
  9
$PEXTMIN
 10
1.0000000000000000E+020
 20
1.0000000000000000E+020
 30
1.0000000000000000E+020
  9
$PEXTMAX
 10
-1.0000000000000000E+020
 20
-1.0000000000000000E+020
 30
-1.0000000000000000E+020
  9
$PLIMMIN
 10
0.0
 20
0.0
  9
$PLIMMAX
 10
12.0
 20
9.0
  9
$UNITMODE
 70
     0
  9
$VISRETAIN
 70
     1
  9
$PLINEGEN
 70
     0
  9
$PSLTSCALE
 70
     1
  0
ENDSEC
  0
SECTION
  2
TABLES
  0
TABLE
  2
VPORT
 70
     1
  0
VPORT
  2
*ACTIVE
 70
     0
 10
0.0
 20
0.0
 11
1.0
 21
1.0
 12
0.0
 22
0.0
 13
0.0
 23
0.0
 14
1.0
 24
1.0
 15
0.0
 25
0.0
 16
-0.0000000000000284
 26
0.0
 36
97.705864168324155
 17
153.05134524264389
 27
-20.681814419680219
 37
0.0
 40
34.766602865303433
 41
2.0983240223463682
 42
50.0
 43
0.0
 44
0.0
 50
0.0
 51
0.0
 71
     0
 72
   100
 73
     1
 74
     1
 75
     0
 76
     0
 77
     0
 78
     0
  0
ENDTAB
  0
TABLE
  2
LTYPE
 70
     1
  0
LTYPE
  2
CONTINUOUS
 70
     0
  3
Solid line
 72
    65
 73
     0
 40
0.0
  0
ENDTAB
  0
TABLE
  2
LAYER
 70
     2
  0
LAYER
  2
0
 70
     0
 62
     7
  6
CONTINUOUS
  0
LAYER
  2
DEFPOINTS
 70
     0
 62
     7
  6
CONTINUOUS
  0
ENDTAB
  0
TABLE
  2
STYLE
 70
     1
  0
STYLE
  2
STANDARD
 70
     0
 40
0.0
 41
0.8
 50
0.0
 71
     0
 42
0.2
  3
txt
  4

  0
ENDTAB
  0
TABLE
  2
VIEW
 70
     0
  0
ENDTAB
  0
TABLE
  2
UCS
 70
     0
  0
ENDTAB
  0
TABLE
  2
APPID
 70
     7
  0
APPID
  2
ACAD
 70
     0
  0
APPID
  2
ACAD_MLEADERVER
 70
     0
  0
APPID
  2
ACAD_NAV_VCDISPLAY
 70
     0
  0
APPID
  2
ACAD_EXEMPT_FROM_CAD_STANDARDS
 70
     0
  0
APPID
  2
ACDBATTR
 70
     0
  0
APPID
  2
ACAD_DSTYLE_DIMJAG
 70
     0
  0
APPID
  2
ACAD_DSTYLE_DIMTALN
 70
     0
  0
ENDTAB
  0
TABLE
  2
DIMSTYLE
 70
     1
  0
DIMSTYLE
  2
STANDARD
 70
     0
  3

  4

  5

  6

  7

 40
1.0
 41
0.1875
 42
0.0625
 43
0.38
 44
0.125
 45
0.0
 46
0.0
 47
1.5
 48
1.5
140
0.15625
141
0.09
142
0.0
143
25.399999999999999
144
1.0
145
0.0
146
1.0
147
0.09
 71
     0
 72
     0
 73
     1
 74
     1
 75
     0
 76
     0
 77
     0
 78
     4
170
     0
171
     2
172
     0
173
     0
174
     0
175
     0
176
     0
177
     0
178
     0
  0
ENDTAB
  0
ENDSEC
  0
SECTION
  2
BLOCKS
  0
BLOCK
  8
0
  2
$MODEL_SPACE
 70
     0
 10
0.0
 20
0.0
 30
0.0
  3
$MODEL_SPACE
  1

  0
ENDBLK
  5
21
  8
0
  0
BLOCK
 67
     1
  8
0
  2
$PAPER_SPACE
 70
     0
 10
0.0
 20
0.0
 30
0.0
  3
$PAPER_SPACE
  1

  0
ENDBLK
  5
1D
 67
     1
  8
0
  0
ENDSEC
  0
SECTION
  2
ENTITIES
  0
ATTDEF
  5
EA1
  8
DEFPOINTS
 10
153.19042797008049
 20
-6.0960199256173508
 30
0.0
 40
0.001
  1
K-3615
  3

  2
MODELNUMBER
 70
     0
1001
ACDBATTR
1070
     0
1070
     1
  0
ATTDEF
  5
EA2
  8
DEFPOINTS
 10
153.19042797008049
 20
-6.0976263376228088
 30
0.0
 40
0.001
  1
GABRIELLE
  3

  2
TRADENAME
 70
     0
1001
ACDBATTR
1070
     0
1070
     1
  0
ATTDEF
  5
EA3
  8
DEFPOINTS
 10
153.19042797008049
 20
-6.0992327496282668
 30
0.0
 40
0.001
  1
TOILET
  3

  2
PRODUCT
 70
     0
1001
ACDBATTR
1070
     0
1070
     1
  0
ATTDEF
  5
EA4
  8
DEFPOINTS
 10
153.19042797008049
 20
-6.1008391616337176
 30
0.0
 40
0.001
  1
VITREOUS CHINA
  3

  2
MATERIAL
 70
     0
1001
ACDBATTR
1070
     0
1070
     1
  0
LINE
  5
127F
  8
0
 10
145.1253949534314
 20
-6.8514089137430823
 30
0.0
 11
161.2617423810317
 21
-6.8514089137430956
 31
0.0
  0
ARC
  5
1280
  8
0
 10
153.62335840353381
 20
-29.2445189457056
 30
0.0
 40
6.0394022187995411
 50
216.7114533969596
 51
265.91913741429988
  0
ARC
  5
1281
  8
0
 10
159.69201358157301
 20
-24.010924487234892
 30
0.0
 40
14.04442548147418
 50
185.6709180286189
 51
219.02844555681071
  0
ARC
  5
1282
  8
0
 10
166.93259080469619
 20
-26.742077796839549
 30
0.0
 40
21.258753639288681
 50
164.21279413025019
 51
176.3770189457986
  0
ARC
  5
1283
  8
0
 10
140.45171618413951
 20
-19.414525503493419
 30
0.0
 40
6.2186949126155229
 50
345.6261104764111
 51
18.243048350748438
  0
ARC
  5
1284
  8
0
 10
136.75542649198491
 20
-21.11813921359937
 30
0.0
 40
10.272855320895831
 50
20.81434866469688
 51
34.062851633867567
  0
ARC
  5
1285
  8
0
 10
306.68590930146058
 20
59.433116437153913
 30
0.0
 40
177.90765982132771
 50
204.35783237241861
 51
204.86162865081789
  0
ARC
  5
1286
  8
0
 10
152.98661074171321
 20
-10.75259915704447
 30
0.0
 40
8.9592900396033954
 50
183.16888738941429
 51
200.85447433833949
  0
LINE
  5
1287
  8
0
 10
143.71548369739651
 20
-11.2255435369606
 30
0.0
 11
144.09480074628269
 21
-11.251549932800931
 31
0.0
  0
ARC
  5
1288
  8
0
 10
143.75697755616889
 20
-11.088349477624771
 30
0.0
 40
0.1433316093290588
 50
186.93103628038619
 51
253.17224404489329
  0
ARC
  5
1289
  8
0
 10
279.69620096333091
 20
-13.80364503705381
 30
0.0
 40
136.10825067031001
 50
178.13774837732731
 51
178.86418284918241
  0
ARC
  5
128A
  8
0
 10
143.7900832577424
 20
-9.3930745809028586
 30
0.0
 40
0.1308447175351976
 50
105.3213509094013
 51
174.51864178130151
  0
LINE
  5
128B
  8
0
 10
143.75550983512301
 20
-9.2668802127430858
 30
0.0
 11
144.16938908353521
 21
-9.2365696971232261
 31
0.0
  0
LINE
  5
128C
  8
0
 10
144.16938908353521
 20
-9.2365696971232261
 30
0.0
 11
144.32910467283151
 21
-8.3767877474430712
 31
0.0
  0
LINE
  5
128D
  8
0
 10
144.32910467283151
 20
-8.3767877474430712
 30
0.0
 11
144.77618268643349
 21
-7.0903706270239537
 31
0.0
  0
ARC
  5
128E
  8
0
 10
145.1484422033532
 20
-7.2597351471448617
 30
0.0
 40
0.4089761467531295
 50
93.230530899198627
 51
155.53619402351021
  0
ARC
  5
128F
  8
0
 10
145.40939610096311
 20
-14.67986841214082
 30
0.0
 40
0.4325042641002252
 50
219.9652001563226
 51
285.9682087527072
  0
ARC
  5
1290
  8
0
 10
80.885555684069288
 20
427.552445428873
 30
0.0
 40
447.34333730787318
 50
278.30854794907123
 51
278.96457056115332
  0
ARC
  5
1291
  8
0
 10
153.46709915105649
 20
-35.905609531162909
 30
0.0
 40
21.76972604336018
 50
90.7199242955664
 51
97.588501769104241
  0
LINE
  5
1292
  8
0
 10
151.36719455023149
 20
-16.89498208754306
 30
0.0
 11
155.01994278425221
 21
-16.89498208754307
 31
0.0
  0
LINE
  5
1293
  8
0
 10
151.3676753809315
 20
-16.95007983064308
 30
0.0
 11
151.35824166763149
 21
-15.86908336044308
 31
0.0
  0
LINE
  5
1294
  8
0
 10
150.8897775956315
 20
-15.37682699704308
 30
0.0
 11
150.28713099283149
 21
-15.37682699574307
 31
0.0
  0
ARC
  5
1295
  8
0
 10
150.3133732955005
 20
-15.87084000335722
 30
0.0
 40
0.4947095209730154
 50
93.040732309318159
 51
179.796550435494
  0
LINE
  5
1296
  8
0
 10
149.8186668933227
 20
-15.86908336293512
 30
0.0
 11
149.80905321177849
 21
-16.970702160201949
 31
0.0
  0
LINE
  5
1297
  8
0
 10
149.80905321177849
 20
-16.970702160201959
 30
0.0
 11
148.8038472604315
 21
-16.967196355843068
 31
0.0
  0
ARC
  5
1298
  8
0
 10
148.80369472644449
 20
-17.15503620157466
 30
0.0
 40
0.1878399076636238
 50
89.953473387203019
 51
141.6540687757948
  0
LINE
  5
1299
  8
0
 10
149.11023856333151
 20
-17.409983996243081
 30
0.0
 11
149.37213801922721
 21
-17.427880888409469
 31
0.0
  0
LINE
  5
129A
  8
0
 10
149.37213801922721
 20
-17.427880888409469
 30
0.0
 11
157.0149993152358
 21
-17.423055055707909
 31
0.0
  0
ARC
  5
129B
  8
0
 10
153.72472375940211
 20
-29.0547818655577
 30
0.0
 40
5.487634317214142
 50
208.6433329546239
 51
264.4455728091632
  0
ARC
  5
129C
  8
0
 10
159.5915951995882
 20
-24.64604503294435
 30
0.0
 40
12.79360457245137
 50
160.1009057144644
 51
213.3819395618755
  0
ARC
  5
129D
  8
0
 10
157.99589234287859
 20
-24.04140440057321
 30
0.0
 40
11.08740635446115
 50
143.2657838788887
 51
160.23226094927219
  0
LINE
  5
129E
  8
0
 10
144.16938908353569
 20
-9.2365696971231976
 30
0.0
 11
144.5480840259315
 21
-9.2123100354430782
 31
0.0
  0
ARC
  5
129F
  8
0
 10
76.101104635681736
 20
-10.981781932243461
 30
0.0
 40
68.568343118103499
 50
359.87236122687722
 51
1.365827548635923
  0
ARC
  5
12A0
  8
0
 10
144.62888213412259
 20
-11.231532701254251
 30
0.0
 40
0.0309807038874425
 50
312.27215655844338
 51
352.82830140650901
  0
ARC
  5
12A1
  8
0
 10
144.57170888627559
 20
-11.08808839096611
 30
0.0
 40
0.1837512092686509
 50
270.8366974607909
 51
295.1225053692898
  0
LINE
  5
12A2
  8
0
 10
144.57439213288151
 20
-11.27182000799308
 30
0.0
 11
144.09480074628269
 21
-11.251549932800931
 31
0.0
  0
LINE
  5
12A3
  8
0
 10
151.3676753809315
 20
-16.95007983064308
 30
0.0
 11
149.8092322381018
 21
-16.950187775353118
 31
0.0
  0
ARC
  5
12A4
  8
0
 10
150.8616429971575
 20
-15.872640812248591
 30
0.0
 40
0.4966114124543814
 50
0.410439052419301
 51
86.752274994612137
  0
ARC
  5
12A5
  8
0
 10
144.55758491436191
 20
-9.3745551106843799
 30
0.0
 40
0.1625230178190991
 50
64.312868185160966
 51
93.351348907970049
  0
ARC
  5
12A6
  8
0
 10
144.16511345151869
 20
-11.13715980688937
 30
0.0
 40
0.5041710043667315
 50
348.76370248250799
 51
0.2985597646528913
  0
ARC
  5
12A7
  8
0
 10
144.32943680415431
 20
-9.3446603105838584
 30
0.0
 40
0.3205412140125722
 50
359.51176657008398
 51
21.32490294267518
  0
ARC
  5
12A8
  8
0
 10
158.54411642703391
 20
-24.143346554477759
 30
0.0
 40
12.17564274638346
 50
144.30082047968659
 51
165.22426520958319
  0
ARC
  5
12A9
  8
0
 10
159.3008510216174
 20
-24.591720042901251
 30
0.0
 40
13.02392643917225
 50
164.16595309501801
 51
177.47242052756911
  0
ARC
  5
12AA
  8
0
 10
160.129619137378
 20
-24.290549903870129
 30
0.0
 40
13.842719677505009
 50
178.86918382895971
 51
218.63167947831931
  0
ARC
  5
12AB
  8
0
 10
153.83629470277509
 20
-29.13867927269585
 30
0.0
 40
5.9014887261522926
 50
220.0080793452106
 51
247.48296435644281
  0
ARC
  5
12AC
  8
0
 10
153.35495081720151
 20
-30.384645085955839
 30
0.0
 40
4.5662893734815908
 50
247.07511838189791
 51
267.97462637145128
  0
ARC
  5
12AD
  8
0
 10
153.30055705575791
 20
-69.637314212685013
 30
0.0
 40
56.238757315504927
 50
90.108999329103156
 51
97.653447362853228
  0
ARC
  5
12AE
  8
0
 10
145.75127679053159
 20
-13.46785383533609
 30
0.0
 40
0.4357531679723638
 50
199.91712522033001
 51
277.8278032525443
  0
ARC
  5
12AF
  8
0
 10
154.57110007804781
 20
-10.32303026587827
 30
0.0
 40
9.7994648417721475
 50
160.99277559071089
 51
199.637377270131
  0
ARC
  5
12B0
  8
0
 10
145.72492978763549
 20
-7.2992259197157061
 30
0.0
 40
0.4513385232079643
 50
97.161996759336574
 51
158.1801742977467
  0
ARC
  5
12B1
  8
0
 10
152.76377893092919
 20
-29.244518945705671
 30
0.0
 40
6.0394022187994683
 50
274.08086258570012
 51
323.2885466030404
  0
ARC
  5
12B2
  8
0
 10
146.69512375289
 20
-24.010924487234892
 30
0.0
 40
14.04442548147418
 50
320.97155444318918
 51
354.32908197138102
  0
ARC
  5
12B3
  8
0
 10
139.45454652976679
 20
-26.742077796839549
 30
0.0
 40
21.258753639288681
 50
3.6229810542014418
 51
15.78720586974973
  0
ARC
  5
12B4
  8
0
 10
165.93542115032349
 20
-19.414525503493419
 30
0.0
 40
6.2186949126155229
 50
161.7569516492515
 51
194.3738895235889
  0
ARC
  5
12B5
  8
0
 10
169.63171084247799
 20
-21.11813921359937
 30
0.0
 40
10.272855320895831
 50
145.93714836613239
 51
159.18565133530311
  0
ARC
  5
12B6
  8
0
 10
-0.2987719669975206
 20
59.433116437153913
 30
0.0
 40
177.90765982132771
 50
335.13837134918208
 51
335.64216762758139
  0
ARC
  5
12B7
  8
0
 10
154.0789243168756
 20
-10.457846089571531
 30
0.0
 40
8.446101531131708
 50
335.63650320556371
 51
354.63292259429193
  0
LINE
  5
12B8
  8
0
 10
162.0580326616315
 20
-8.3767877474430712
 30
0.0
 11
161.61095464802949
 21
-7.0903706270239537
 31
0.0
  0
ARC
  5
12B9
  8
0
 10
161.23869513110981
 20
-7.2597351471448617
 30
0.0
 40
0.4089761467531295
 50
24.463805976489791
 51
86.769469100801373
  0
ARC
  5
12BA
  8
0
 10
160.9777412334999
 20
-14.67986841214082
 30
0.0
 40
0.4325042641002252
 50
254.0317912472928
 51
320.03479984367738
  0
ARC
  5
12BB
  8
0
 10
225.5015816503938
 20
427.552445428873
 30
0.0
 40
447.34333730787318
 50
261.03542943884668
 51
261.69145205092877
  0
ARC
  5
12BC
  8
0
 10
152.92003818340649
 20
-35.905609531162909
 30
0.0
 40
21.76972604336018
 50
82.411498230895759
 51
89.280075704433614
  0
LINE
  5
12BD
  8
0
 10
155.0194619535315
 20
-16.95007983064308
 30
0.0
 11
155.02889566683149
 21
-15.86908336044308
 31
0.0
  0
LINE
  5
12BE
  8
0
 10
155.49735973883151
 20
-15.37682699704308
 30
0.0
 11
156.1000063416314
 21
-15.37682699574307
 31
0.0
  0
ARC
  5
12BF
  8
0
 10
156.07376403896251
 20
-15.87084000335722
 30
0.0
 40
0.4947095209730154
 50
0.2034495645059998
 51
86.959267690681855
  0
LINE
  5
12C0
  8
0
 10
156.56847044114031
 20
-15.86908336293512
 30
0.0
 11
156.57808412268449
 21
-16.970702160201949
 31
0.0
  0
LINE
  5
12C1
  8
0
 10
156.57808412268449
 20
-16.970702160201959
 30
0.0
 11
157.58329007403151
 21
-16.967196355843068
 31
0.0
  0
ARC
  5
12C2
  8
0
 10
157.58344260801849
 20
-17.15503620157466
 30
0.0
 40
0.1878399076636238
 50
38.345931224205209
 51
90.046526612796967
  0
LINE
  5
12C3
  8
0
 10
157.2768987711315
 20
-17.409983996243081
 30
0.0
 11
157.0149993152358
 21
-17.423055055707909
 31
0.0
  0
ARC
  5
12C4
  8
0
 10
152.6624135750609
 20
-29.0547818655577
 30
0.0
 40
5.487634317214142
 50
275.55442719083669
 51
331.35666704537613
  0
ARC
  5
12C5
  8
0
 10
146.79554213487469
 20
-24.64604503294435
 30
0.0
 40
12.79360457245137
 50
326.61806043812447
 51
19.899094285535611
  0
ARC
  5
12C6
  8
0
 10
148.39124499158439
 20
-24.04140440057321
 30
0.0
 40
11.08740635446115
 50
19.76773905072772
 51
36.734216121111267
  0
LINE
  5
12C7
  8
0
 10
155.0194619535315
 20
-16.95007983064308
 30
0.0
 11
156.57790509636121
 21
-16.950187775353118
 31
0.0
  0
ARC
  5
12C8
  8
0
 10
155.5254943373055
 20
-15.872640812248591
 30
0.0
 40
0.4966114124543814
 50
93.247725005387835
 51
179.58956094758059
  0
ARC
  5
12C9
  8
0
 10
147.84302090742909
 20
-24.143346554477759
 30
0.0
 40
12.17564274638346
 50
14.775734790416781
 51
35.699179520313422
  0
ARC
  5
12CA
  8
0
 10
147.08628631284549
 20
-24.591720042901251
 30
0.0
 40
13.02392643917225
 50
2.5275794724308449
 51
15.83404690498201
  0
ARC
  5
12CB
  8
0
 10
146.25751819708501
 20
-24.290549903870129
 30
0.0
 40
13.842719677505009
 50
321.3683205216808
 51
1.130816171040266
  0
ARC
  5
12CC
  8
0
 10
152.55084263168791
 20
-29.13867927269585
 30
0.0
 40
5.9014887261522926
 50
292.51703564355722
 51
319.99192065478962
  0
ARC
  5
12CD
  8
0
 10
153.03218651726149
 20
-30.384645085955839
 30
0.0
 40
4.5662893734815908
 50
272.02537362854872
 51
292.92488161810212
  0
ARC
  5
12CE
  8
0
 10
153.0865802787051
 20
-69.637314212685013
 30
0.0
 40
56.238757315504927
 50
82.346552637146786
 51
89.891000670896844
  0
ARC
  5
12CF
  8
0
 10
160.63586054393139
 20
-13.46785383533609
 30
0.0
 40
0.4357531679723638
 50
262.17219674745581
 51
340.08287477967002
  0
ARC
  5
12D0
  8
0
 10
151.8160372564152
 20
-10.32303026587827
 30
0.0
 40
9.7994648417721475
 50
340.36262272986909
 51
19.007224409289041
  0
ARC
  5
12D1
  8
0
 10
160.66220754682749
 20
-7.2992259197157061
 30
0.0
 40
0.4513385232079643
 50
21.819825702252651
 51
82.838003240663411
  0
ARC
  5
12D2
  8
0
 10
151.27618519557609
 20
-11.45918072267299
 30
0.0
 40
11.213803156602641
 50
1.079771866393894
 51
15.954558916040339
  0
ENDSEC
  0
EOF
