  0
SECTION
  2
HEADER
  9
$ACADVER
  1
AC1009
  9
$INSBASE
 10
4.8609885273046993
 20
55.763802999399999
 30
0.0
  9
$EXTMIN
 10
-3.9409140938701692
 20
25.37380367816121
 30
-0.0000000000000058
  9
$EXTMAX
 10
13.66366640380712
 20
55.779302280345881
 30
0.0000000000000104
  9
$LIMMIN
 10
0.0
 20
0.0
  9
$LIMMAX
 10
11.692913385800001
 20
8.2677165353999982
  9
$ORTHOMODE
 70
     0
  9
$REGENMODE
 70
     1
  9
$FILLMODE
 70
     1
  9
$QTEXTMODE
 70
     0
  9
$MIRRTEXT
 70
     0
  9
$DRAGMODE
 70
     2
  9
$LTSCALE
 40
0.6431102362
  9
$OSMODE
 70
  3071
  9
$ATTMODE
 70
     1
  9
$TEXTSIZE
 40
0.2
  9
$TRACEWID
 40
0.05
  9
$TEXTSTYLE
  7
STANDARD
  9
$CLAYER
  8
0
  9
$CELTYPE
  6
BYLAYER
  9
$CECOLOR
 62
     1
  9
$DIMSCALE
 40
1.0
  9
$DIMASZ
 40
0.1875
  9
$DIMEXO
 40
0.0625
  9
$DIMDLI
 40
0.4443307087
  9
$DIMRND
 40
0.0
  9
$DIMDLE
 40
0.0
  9
$DIMEXE
 40
0.125
  9
$DIMTP
 40
0.0
  9
$DIMTM
 40
0.0
  9
$DIMTXT
 40
0.15625
  9
$DIMCEN
 40
0.1052362205
  9
$DIMTSZ
 40
0.0
  9
$DIMTOL
 70
     0
  9
$DIMLIM
 70
     0
  9
$DIMTIH
 70
     1
  9
$DIMTOH
 70
     1
  9
$DIMSE1
 70
     0
  9
$DIMSE2
 70
     0
  9
$DIMTAD
 70
     0
  9
$DIMZIN
 70
     0
  9
$DIMBLK
  1

  9
$DIMASO
 70
     1
  9
$DIMSHO
 70
     1
  9
$DIMPOST
  1

  9
$DIMAPOST
  1

  9
$DIMALT
 70
     0
  9
$DIMALTD
 70
     2
  9
$DIMALTF
 40
25.399999999999999
  9
$DIMLFAC
 40
1.0
  9
$DIMTOFL
 70
     0
  9
$DIMTVP
 40
0.0
  9
$DIMTIX
 70
     0
  9
$DIMSOXD
 70
     0
  9
$DIMSAH
 70
     0
  9
$DIMBLK1
  1

  9
$DIMBLK2
  1

  9
$DIMSTYLE
  2
STANDARD
  9
$DIMCLRD
 70
     0
  9
$DIMCLRE
 70
     0
  9
$DIMCLRT
 70
     0
  9
$DIMTFAC
 40
1.0
  9
$DIMGAP
 40
0.09
  9
$LUNITS
 70
     2
  9
$LUPREC
 70
     4
  9
$SKETCHINC
 40
0.1
  9
$FILLETRAD
 40
0.0
  9
$AUNITS
 70
     0
  9
$AUPREC
 70
     0
  9
$MENU
  1
.
  9
$ELEVATION
 40
0.0
  9
$PELEVATION
 40
0.0
  9
$THICKNESS
 40
0.0
  9
$LIMCHECK
 70
     0
  9
$BLIPMODE
 70
     0
  9
$CHAMFERA
 40
0.0
  9
$CHAMFERB
 40
0.0
  9
$SKPOLY
 70
     0
  9
$TDCREATE
 40
2457968.6094989348
  9
$TDUPDATE
 40
2457969.718717732
  9
$TDINDWG
 40
0.1918904861
  9
$TDUSRTIMER
 40
0.1918904861
  9
$USRTIMER
 70
     1
  9
$ANGBASE
 50
0.0
  9
$ANGDIR
 70
     0
  9
$PDMODE
 70
     0
  9
$PDSIZE
 40
0.3125
  9
$PLINEWID
 40
0.0
  9
$COORDS
 70
     1
  9
$SPLFRAME
 70
     0
  9
$SPLINETYPE
 70
     6
  9
$SPLINESEGS
 70
     8
  9
$ATTDIA
 70
     1
  9
$ATTREQ
 70
     1
  9
$HANDLING
 70
     1
  9
$HANDSEED
  5
22EB
  9
$SURFTAB1
 70
     6
  9
$SURFTAB2
 70
     6
  9
$SURFTYPE
 70
     6
  9
$SURFU
 70
     6
  9
$SURFV
 70
     6
  9
$UCSNAME
  2

  9
$UCSORG
 10
0.0
 20
0.0
 30
0.0
  9
$UCSXDIR
 10
1.0
 20
0.0
 30
0.0
  9
$UCSYDIR
 10
0.0
 20
1.0
 30
0.0
  9
$PUCSNAME
  2

  9
$PUCSORG
 10
0.0
 20
0.0
 30
0.0
  9
$PUCSXDIR
 10
1.0
 20
0.0
 30
0.0
  9
$PUCSYDIR
 10
0.0
 20
1.0
 30
0.0
  9
$USERI1
 70
     0
  9
$USERI2
 70
     0
  9
$USERI3
 70
     0
  9
$USERI4
 70
     0
  9
$USERI5
 70
     0
  9
$USERR1
 40
0.0
  9
$USERR2
 40
0.0
  9
$USERR3
 40
0.0
  9
$USERR4
 40
0.0
  9
$USERR5
 40
0.0
  9
$WORLDVIEW
 70
     1
  9
$SHADEDGE
 70
     3
  9
$SHADEDIF
 70
    70
  9
$TILEMODE
 70
     1
  9
$MAXACTVP
 70
    48
  9
$PLIMCHECK
 70
     0
  9
$PEXTMIN
 10
1.0000000000000000E+020
 20
1.0000000000000000E+020
 30
1.0000000000000000E+020
  9
$PEXTMAX
 10
-1.0000000000000000E+020
 20
-1.0000000000000000E+020
 30
-1.0000000000000000E+020
  9
$PLIMMIN
 10
0.0
 20
0.0
  9
$PLIMMAX
 10
12.0
 20
9.0
  9
$UNITMODE
 70
     0
  9
$VISRETAIN
 70
     1
  9
$PLINEGEN
 70
     0
  9
$PSLTSCALE
 70
     1
  0
ENDSEC
  0
SECTION
  2
TABLES
  0
TABLE
  2
VPORT
 70
     1
  0
VPORT
  2
*ACTIVE
 70
     0
 10
0.0
 20
0.0
 11
1.0
 21
1.0
 12
-19.4353222960737
 22
19.326425663732309
 13
0.0
 23
0.0
 14
1.0
 24
1.0
 15
0.0
 25
0.0
 16
-0.0000000000000568
 26
0.0
 36
253.58430292341961
 17
24.296698451042179
 27
21.25012731552124
 37
0.0
 40
30.613755441925669
 41
2.1748571428571419
 42
50.0
 43
0.0
 44
0.0
 50
0.0
 51
0.0
 71
     0
 72
   100
 73
     1
 74
     1
 75
     0
 76
     0
 77
     0
 78
     0
  0
ENDTAB
  0
TABLE
  2
LTYPE
 70
     2
  0
LTYPE
  2
CONTINUOUS
 70
     0
  3
Solid line
 72
    65
 73
     0
 40
0.0
  0
LTYPE
  2
PHANTOM2
 70
     0
  3
___ _ _ ___ _ _ ___ _ _ ___ _ _
 72
    65
 73
     6
 40
1.25
 49
0.625
 49
-0.125
 49
0.125
 49
-0.125
 49
0.125
 49
-0.125
  0
ENDTAB
  0
TABLE
  2
LAYER
 70
     2
  0
LAYER
  2
0
 70
     0
 62
     7
  6
CONTINUOUS
  0
LAYER
  2
DEFPOINTS
 70
     0
 62
     7
  6
CONTINUOUS
  0
ENDTAB
  0
TABLE
  2
STYLE
 70
     1
  0
STYLE
  2
STANDARD
 70
     0
 40
0.0
 41
0.8
 50
0.0
 71
     0
 42
0.2
  3
txt
  4

  0
ENDTAB
  0
TABLE
  2
VIEW
 70
     0
  0
ENDTAB
  0
TABLE
  2
UCS
 70
     0
  0
ENDTAB
  0
TABLE
  2
APPID
 70
     5
  0
APPID
  2
ACAD
 70
     0
  0
APPID
  2
ACAD_MLEADERVER
 70
     0
  0
APPID
  2
ACAD_NAV_VCDISPLAY
 70
     0
  0
APPID
  2
ACAD_EXEMPT_FROM_CAD_STANDARDS
 70
     0
  0
APPID
  2
ACDBATTR
 70
     0
  0
ENDTAB
  0
TABLE
  2
DIMSTYLE
 70
     1
  0
DIMSTYLE
  2
STANDARD
 70
     0
  3

  4

  5

  6

  7

 40
1.0
 41
0.1875
 42
0.0625
 43
0.38
 44
0.125
 45
0.0
 46
0.0
 47
1.5
 48
1.5
140
0.15625
141
0.09
142
0.0
143
25.399999999999999
144
1.0
145
0.0
146
1.0
147
0.09
 71
     0
 72
     0
 73
     1
 74
     1
 75
     0
 76
     0
 77
     0
 78
     4
170
     0
171
     2
172
     0
173
     0
174
     0
175
     0
176
     0
177
     0
178
     0
  0
ENDTAB
  0
ENDSEC
  0
SECTION
  2
BLOCKS
  0
BLOCK
  8
0
  2
$MODEL_SPACE
 70
     0
 10
0.0
 20
0.0
 30
0.0
  3
$MODEL_SPACE
  1

  0
ENDBLK
  5
21
  8
0
  0
BLOCK
 67
     1
  8
0
  2
$PAPER_SPACE
 70
     0
 10
0.0
 20
0.0
 30
0.0
  3
$PAPER_SPACE
  1

  0
ENDBLK
  5
1D
 67
     1
  8
0
  0
ENDSEC
  0
SECTION
  2
ENTITIES
  0
LINE
  5
1081
  8
0
 10
-3.8049137391517291
 20
54.763802999399999
 30
0.0
 11
13.52688762
 21
54.763802999399999
 31
0.0
  0
ARC
  5
1082
  8
0
 10
13.52650077369489
 20
54.637861733328187
 30
0.0
 40
0.1259418601968151
 50
359.08947948124103
 51
89.824008511372114
  0
LINE
  5
1083
  8
0
 10
13.6524267314
 20
54.635860402299997
 30
0.0
 11
13.662785744200001
 21
54.327029697100002
 31
0.0
  0
LINE
  5
1084
  8
0
 10
13.662785744200001
 20
54.327029697100002
 30
0.0
 11
13.6627768855
 21
49.9753703899
 31
0.0
  0
ARC
  5
1085
  8
0
 10
13.477157275894729
 20
49.974693210706171
 30
0.0
 40
0.185620844846889
 50
327.0956638231691
 51
0.2090260707412389
  0
ARC
  5
1086
  8
0
 10
8.6315512228699234
 20
53.316084633369783
 30
0.0
 40
6.0715259587282073
 50
288.76263755138967
 51
325.46246142391152
  0
ARC
  5
1087
  8
0
 10
6.269043502080331
 20
59.958949197560742
 30
0.0
 40
13.121663386473561
 50
275.1747428531865
 51
289.20058444032838
  0
ARC
  5
1088
  8
0
 10
4.5978445152430663
 20
75.724548967544678
 30
0.0
 40
28.974752212363001
 50
270.52035471446021
 51
275.65414263234948
  0
LINE
  5
1089
  8
0
 10
-3.9408121669999989
 20
54.327029697
 30
0.0
 11
13.662785722100001
 21
54.326992473799997
 31
0.0
  0
ARC
  5
108A
  8
0
 10
11.673914728337859
 20
48.042883750018071
 30
0.0
 40
2.289434334088277
 50
200.3122848970614
 51
212.8993111613905
  0
ARC
  5
108B
  8
0
 10
6.687281151724136
 20
44.69215457344972
 30
0.0
 40
3.7189483907336358
 50
27.513530194237362
 51
34.514105814223491
  0
ARC
  5
108C
  8
0
 10
7.3905844060576387
 20
45.202472483653118
 30
0.0
 40
2.8622923115490999
 50
22.429017452014271
 51
24.95634854162628
  0
ARC
  5
108D
  8
0
 10
2.4926626093528661
 20
43.506081308762226
 30
0.0
 40
8.0425619509562551
 50
16.33181136700037
 51
20.28643896516904
  0
ARC
  5
108E
  8
0
 10
-108.211726116563
 20
6.4627750887314326
 30
0.0
 40
124.77477427973611
 50
15.724882838556629
 51
18.36120918560308
  0
ARC
  5
108F
  8
0
 10
-15.86403232677686
 20
32.57707569219896
 30
0.0
 40
28.80602016968745
 50
12.031177901698999
 51
15.5080463588426
  0
ARC
  5
1091
  8
0
 10
1.7207655611941179
 20
36.221550633683393
 30
0.0
 40
10.848286060779071
 50
351.01665453523719
 51
12.564742396191461
  0
ARC
  5
1092
  8
0
 10
-2.353813800132595
 20
36.89541166558471
 30
0.0
 40
14.97813609547047
 50
332.92642883905768
 51
350.90434196624841
  0
ARC
  5
1093
  8
0
 10
-1.2062403173728951
 20
36.338978728235162
 30
0.0
 40
13.70308506453584
 50
318.74270766627291
 51
332.81420709922691
  0
ARC
  5
1094
  8
0
 10
4.8889252508985113
 20
30.92802789615234
 30
0.0
 40
5.5530130941753111
 50
269.71173078232943
 51
319.24116432463308
  0
ARC
  5
10D6
  8
0
 10
72.920244912668878
 20
63.229478836568163
 30
0.0
 40
65.491193102093362
 50
194.14927673692711
 51
198.75526110893969
  0
ARC
  5
10D7
  8
0
 10
-19.047235714729499
 20
32.001307688614261
 30
0.0
 40
31.633552283399389
 50
11.843894461649191
 51
18.75526110893977
  0
ARC
  5
10D8
  8
0
 10
-0.8766195465585752
 20
36.248041013443398
 30
0.0
 40
12.98517451278631
 50
324.04649452886821
 51
9.9600001564022822
  0
ARC
  5
10DA
  8
0
 10
2.950816637068419
 20
33.149832400514008
 30
0.0
 40
8.0720559188790375
 50
308.17496850543949
 51
325.89786704140653
  0
ARC
  5
10DB
  8
0
 10
4.9341430672693152
 20
30.705019685224372
 30
0.0
 40
4.9245328356854268
 50
269.14881262228351
 51
307.6154060722231
  0
LINE
  5
111D
  8
0
 10
2.8897270582999992
 20
43.909229825799997
 30
0.0
 11
6.832246518899999
 21
43.909229825799997
 31
0.0
  0
LINE
  5
111E
  8
0
 10
6.8317656884999991
 20
43.854132120899997
 30
0.0
 11
6.841199403604949
 21
44.935128799718228
 31
0.0
  0
ARC
  5
111F
  8
0
 10
7.338621088343916
 20
44.930787866436198
 30
0.0
 40
0.4974406257537792
 50
93.337285300118666
 51
179.4999999996474
  0
LINE
  5
1120
  8
0
 10
7.3096632354999986
 20
45.4273849052
 30
0.0
 11
7.9123097235999991
 21
45.427384933599988
 31
0.0
  0
ARC
  5
1121
  8
0
 10
7.8848366369186422
 20
44.932200276527993
 30
0.0
 40
0.4959461816481026
 50
0.3383885446775539
 51
86.824457688421646
  0
LINE
  5
1122
  8
0
 10
8.3807741691000004
 20
44.935129314799987
 30
0.0
 11
8.3902078886643743
 21
43.854132120899997
 31
0.0
  0
LINE
  5
1123
  8
0
 10
8.3902078886643743
 20
43.854132120899997
 30
0.0
 11
8.3146752527999972
 21
43.854131988999988
 31
0.0
  0
ARC
  5
1124
  8
0
 10
8.3144532734380157
 20
43.886987434063514
 30
0.0
 40
0.0328561949281867
 50
187.28445917464711
 51
270.38709830415871
  0
ARC
  5
1125
  8
0
 10
8.2636597809595358
 20
43.866042724456648
 30
0.0
 40
0.024755905593282
 50
42.669249151007151
 51
93.728645283978878
  0
LINE
  5
1126
  8
0
 10
8.2620498744000006
 20
43.890746227500003
 30
0.0
 11
6.9599238526000002
 21
43.890746227399987
 31
0.0
  0
ARC
  5
1127
  8
0
 10
6.9589924967543562
 20
43.864441625515973
 30
0.0
 40
0.0263210847798647
 50
87.972199799831358
 51
135.86663130940181
  0
ARC
  5
1128
  8
0
 10
6.9073959515620382
 20
43.887125711369968
 30
0.0
 40
0.0329941508477217
 50
269.8308526649833
 51
352.41364098588491
  0
LINE
  5
1129
  8
0
 10
6.9072985470999999
 20
43.854131704300002
 30
0.0
 11
6.8317656884999991
 21
43.854132120899997
 31
0.0
  0
ARC
  5
112A
  8
0
 10
7.3263269880193986
 20
43.977552544115909
 30
0.0
 40
0.1258167591787425
 50
223.6235168450535
 51
257.83769486732228
  0
ARC
  5
112B
  8
0
 10
7.9003946956924409
 20
43.967574804618167
 30
0.0
 40
0.1148891452446741
 50
280.36439866544998
 51
318.03229426146999
  0
LINE
  5
112C
  8
0
 10
8.3767934982999996
 20
43.854132046899991
 30
0.0
 11
8.3846287947999993
 21
43.739554138099997
 31
0.0
  0
LINE
  5
112D
  8
0
 10
8.3846287947999993
 20
43.739554138099997
 30
0.0
 11
8.3870447619399702
 21
43.401744298033456
 31
0.0
  0
LINE
  5
112E
  8
0
 10
1.460986770399999
 20
43.345802999399993
 30
0.0
 11
8.2609867886000004
 21
43.345802999399993
 31
0.0
  0
ARC
  5
112F
  8
0
 10
8.2609867886000004
 20
43.515802999399988
 30
0.0
 40
0.1700000000000017
 50
269.9999999999996
 51
354.99999999830101
  0
LINE
  5
1130
  8
0
 10
8.4303398872751583
 20
43.500986523127857
 30
0.0
 11
8.4407698491342984
 21
43.620201532652928
 31
0.0
  0
ARC
  5
1131
  8
0
 10
8.5307674928048804
 20
43.612327759085019
 30
0.0
 40
0.0903414200489219
 50
90.372742286855086
 51
174.99999999830041
  0
LINE
  5
1132
  8
0
 10
8.5301797736000005
 20
43.702667267399988
 30
0.0
 11
8.8830161592582666
 21
43.702887591780858
 31
0.0
  0
ARC
  5
1133
  8
0
 10
8.8792929810094368
 20
44.084738147500303
 30
0.0
 40
0.3818687064417849
 50
270.55863645365599
 51
276.06273256628521
  0
ARC
  5
1134
  8
0
 10
8.9197716429952472
 20
43.740131676797937
 30
0.0
 40
0.0351266940285707
 50
269.76067647348628
 51
303.08022949671789
  0
LINE
  5
1135
  8
0
 10
8.9389442445
 20
43.710698770299999
 30
0.0
 11
8.9457452001999993
 21
43.8076829906
 31
0.0
  0
ARC
  5
1136
  8
0
 10
8.9783401467713464
 20
43.804976194071251
 30
0.0
 40
0.0327071443179782
 50
90.864885708538694
 51
175.25285375183151
  0
LINE
  5
1137
  8
0
 10
8.9778464477999993
 20
43.837679612099997
 30
0.0
 11
9.0904626731261775
 21
43.837706902993339
 31
0.0
  0
ARC
  5
1138
  8
0
 10
9.0912812516541255
 20
43.562862813584452
 30
0.0
 40
0.2748453084078571
 50
32.769493673594617
 51
90.170645678698804
  0
ARC
  5
1139
  8
0
 10
-40.288358374324069
 20
11.20357788768114
 30
0.0
 40
59.312723429121561
 50
32.474034126283321
 51
33.235312023691527
  0
ARC
  5
113A
  8
0
 10
9.1510645126593797
 20
42.640869142616651
 30
0.0
 40
0.7250503394809101
 50
2.8673439038206978
 51
34.314683251986608
  0
ARC
  5
113B
  8
0
 10
10.6392502379581
 20
42.655258724451549
 30
0.0
 40
0.7643563560356972
 50
178.35965259936731
 51
199.52473853108671
  0
ARC
  5
113C
  8
0
 10
11.618497128250789
 20
43.052426452269252
 30
0.0
 40
1.8206409205336
 50
201.00562414194471
 51
206.5495516689852
  0
ARC
  5
113D
  8
0
 10
-0.8977228375334128
 20
35.843866850191347
 30
0.0
 40
12.62665559692585
 50
15.56406973269271
 51
30.42773319026989
  0
ARC
  5
113E
  8
0
 10
-1.165000074518729
 20
35.89702886115095
 30
0.0
 40
12.8704549041957
 50
4.554710775599295
 51
15.016822316190639
  0
ARC
  5
113F
  8
0
 10
0.1928680485272435
 20
36.155677054497609
 30
0.0
 40
11.49731402482556
 50
347.40175517344699
 51
3.8071702137853261
  0
ARC
  5
1140
  8
0
 10
-2.5255529147224181
 20
36.765561841865662
 30
0.0
 40
14.28330896630848
 50
330.03329089930742
 51
347.3926213760721
  0
ARC
  5
1141
  8
0
 10
0.077036479944078
 20
35.15560036300279
 30
0.0
 40
11.224874136674041
 50
316.76647325728038
 51
330.516935362271
  0
ARC
  5
1142
  8
0
 10
4.2500418442572547
 20
31.095170494811661
 30
0.0
 40
5.4041926257416142
 50
293.70414186922142
 51
317.82569097546889
  0
ARC
  5
1143
  8
0
 10
4.9725236727387152
 20
30.183496257650951
 30
0.0
 40
4.2891437322881441
 50
268.50988581255922
 51
289.76001676929212
  0
ARC
  5
1144
  8
0
 10
8.986758398568174
 20
43.651832822833477
 30
0.0
 40
0.0758379397161182
 50
129.0853987913184
 51
171.42088600766581
  0
ARC
  5
1145
  8
0
 10
10.983214948915499
 20
43.350641529530677
 30
0.0
 40
2.0948859709888219
 50
171.4208860076659
 51
184.4266877377639
  0
ARC
  5
1146
  8
0
 10
27.223278533794719
 20
45.108853323531548
 30
0.0
 40
18.42897936014387
 50
185.97983495660341
 51
188.93989035140751
  0
ARC
  5
1147
  8
0
 10
29.930237319076198
 20
45.741987944452269
 30
0.0
 40
21.202430752710779
 50
189.4932985926323
 51
195.1259582069091
  0
ARC
  5
1148
  8
0
 10
-27.657732640165541
 20
29.280098460651431
 30
0.0
 40
38.695629219505598
 50
10.99189422153326
 51
16.406029980236561
  0
ARC
  5
1149
  8
0
 10
-0.208552827653663
 20
34.969241969125029
 30
0.0
 40
10.67105309790248
 50
337.9971170111649
 51
9.106762577179726
  0
ARC
  5
114A
  8
0
 10
-0.3853918904896825
 20
34.961636197873922
 30
0.0
 40
10.83241059966727
 50
318.12418337170919
 51
338.38485220746651
  0
ARC
  5
114B
  8
0
 10
4.8291352776431431
 20
30.220436014096929
 30
0.0
 40
3.785193571524454
 50
270.4821524991512
 51
318.8730784236007
  0
LINE
  5
114C
  8
0
 10
9.8730224102290158
 20
42.707763005700002
 30
0.0
 11
9.9374696180999997
 21
42.707762981400002
 31
0.0
  0
ARC
  5
114D
  8
0
 10
9.9312147879275958
 20
42.61399399452079
 30
0.0
 40
0.0939773685566883
 50
30.090187330438141
 51
86.183756860340125
  0
ARC
  5
114E
  8
0
 10
-0.8116070428575607
 20
35.760566220902007
 30
0.0
 40
12.83664299474056
 50
27.709277753542331
 51
32.518108023778382
  0
ARC
  5
114F
  8
0
 10
0.0503561750706754
 20
36.181034788850802
 30
0.0
 40
11.87805371302891
 50
11.03798301904474
 51
27.847002190754498
  0
ARC
  5
1150
  8
0
 10
0.2754227137500067
 20
36.108818405434668
 30
0.0
 40
11.67153380062725
 50
358.0933190979523
 51
11.597480581226851
  0
ARC
  5
1151
  8
0
 10
-1.264934559089343
 20
36.370606801561969
 30
0.0
 40
13.22142249757067
 50
335.67877912721991
 51
357.18153015953868
  0
ARC
  5
1152
  8
0
 10
-1.37409843510318
 20
36.176466317708652
 30
0.0
 40
13.242799778477661
 50
320.17893284875549
 51
336.63875819075361
  0
ARC
  5
1153
  8
0
 10
4.5216576266880057
 20
31.270204811212711
 30
0.0
 40
5.5726489914191086
 50
293.28122031118778
 51
320.1033526214278
  0
ARC
  5
1154
  8
0
 10
4.8290665650407183
 20
30.98179559331528
 30
0.0
 40
5.1889544016121043
 50
270.35246130341829
 51
291.42159328048228
  0
ARC
  5
1196
  8
0
 10
-3.8045271984625688
 20
54.637861733959078
 30
0.0
 40
0.1259418586275631
 50
90.175852453754473
 51
180.91052081715469
  0
LINE
  5
1197
  8
0
 10
-3.9304531545881942
 20
54.635860402299997
 30
0.0
 11
-3.9408121673881951
 21
54.327029697100002
 31
0.0
  0
LINE
  5
1198
  8
0
 10
-3.9408121673881951
 20
54.327029697100002
 30
0.0
 11
-3.9408033086881931
 21
49.9753703899
 31
0.0
  0
ARC
  5
1199
  8
0
 10
-3.755183699082925
 20
49.974693210706171
 30
0.0
 40
0.185620844846889
 50
179.79097392925871
 51
212.90433617683101
  0
ARC
  5
119A
  8
0
 10
1.090422353941882
 20
53.316084633369783
 30
0.0
 40
6.0715259587282073
 50
214.53753857608851
 51
251.2373624486103
  0
ARC
  5
119B
  8
0
 10
3.4529300747314728
 20
59.958949197560742
 30
0.0
 40
13.121663386473561
 50
250.79941555967159
 51
264.8252571468135
  0
ARC
  5
119C
  8
0
 10
5.1241290615687394
 20
75.724548967544678
 30
0.0
 40
28.974752212363001
 50
264.34585736765052
 51
269.4796452855399
  0
ARC
  5
119D
  8
0
 10
-1.951941151526053
 20
48.042883750018071
 30
0.0
 40
2.289434334088277
 50
327.10068883860953
 51
339.68771510293863
  0
ARC
  5
119E
  8
0
 10
3.0346924250876679
 20
44.69215457344972
 30
0.0
 40
3.7189483907336358
 50
145.48589418577649
 51
152.4864698057626
  0
ARC
  5
119F
  8
0
 10
2.3313891707541661
 20
45.202472483653118
 30
0.0
 40
2.8622923115490999
 50
155.04365145837369
 51
157.57098254798569
  0
ARC
  5
11A0
  8
0
 10
7.2293109674589386
 20
43.506081308762226
 30
0.0
 40
8.0425619509562551
 50
159.71356103483089
 51
163.6681886329996
  0
ARC
  5
11A1
  8
0
 10
117.93369969337481
 20
6.4627750887314326
 30
0.0
 40
124.77477427973611
 50
161.63879081439691
 51
164.2751171614434
  0
ARC
  5
11A2
  8
0
 10
25.586005903588671
 20
32.57707569219896
 30
0.0
 40
28.80602016968745
 50
164.49195364115741
 51
167.96882209830099
  0
ARC
  5
11A3
  8
0
 10
8.0012080156176868
 20
36.221550633683393
 30
0.0
 40
10.848286060779071
 50
167.43525760380851
 51
188.98334546476289
  0
ARC
  5
11A4
  8
0
 10
12.075787376944399
 20
36.89541166558471
 30
0.0
 40
14.97813609547047
 50
189.09565803375159
 51
207.07357116094229
  0
ARC
  5
11A5
  8
0
 10
10.928213894184699
 20
36.338978728235162
 30
0.0
 40
13.70308506453584
 50
207.18579290077309
 51
221.25729233372721
  0
ARC
  5
11A6
  8
0
 10
4.8330483259132944
 20
30.92802789615234
 30
0.0
 40
5.5530130941753111
 50
220.75883567536701
 51
270.28826921767057
  0
ARC
  5
11A7
  8
0
 10
-63.198271335857072
 20
63.229478836568163
 30
0.0
 40
65.491193102093362
 50
341.24473889106031
 51
345.85072326307289
  0
ARC
  5
11A8
  8
0
 10
28.769209291541308
 20
32.001307688614261
 30
0.0
 40
31.633552283399389
 50
161.24473889106019
 51
168.1561055383508
  0
ARC
  5
11A9
  8
0
 10
10.59859312337038
 20
36.248041013443398
 30
0.0
 40
12.98517451278631
 50
170.03999984359771
 51
215.9535054711319
  0
ARC
  5
11AA
  8
0
 10
6.7711569397433857
 20
33.149832400514008
 30
0.0
 40
8.0720559188790375
 50
214.1021329585935
 51
231.82503149456059
  0
ARC
  5
11AB
  8
0
 10
4.7878305095424896
 20
30.705019685224372
 30
0.0
 40
4.9245328356854268
 50
232.38459392777679
 51
270.85118737771649
  0
LINE
  5
11AC
  8
0
 10
2.8902078883118052
 20
43.854132120899997
 30
0.0
 11
2.8807741732068561
 21
44.935128799718228
 31
0.0
  0
ARC
  5
11AD
  8
0
 10
2.3833524884678892
 20
44.930787866436198
 30
0.0
 40
0.4974406257537792
 50
0.5000000003526101
 51
86.66271469988132
  0
LINE
  5
11AE
  8
0
 10
2.4123103413118061
 20
45.4273849052
 30
0.0
 11
1.809663853211805
 21
45.427384933599988
 31
0.0
  0
ARC
  5
11AF
  8
0
 10
1.837136939893163
 20
44.932200276527993
 30
0.0
 40
0.4959461816481026
 50
93.175542311578383
 51
179.6616114553224
  0
LINE
  5
11B0
  8
0
 10
1.341199407711805
 20
44.935129314799987
 30
0.0
 11
1.3317656881474309
 21
43.854132120899997
 31
0.0
  0
LINE
  5
11B1
  8
0
 10
1.3317656881474309
 20
43.854132120899997
 30
0.0
 11
1.407298324011806
 21
43.854131988999988
 31
0.0
  0
ARC
  5
11B2
  8
0
 10
1.4075203033737891
 20
43.886987434063514
 30
0.0
 40
0.0328561949281867
 50
269.61290169584129
 51
352.715540825353
  0
ARC
  5
11B3
  8
0
 10
1.4583137958522689
 20
43.866042724456648
 30
0.0
 40
0.024755905593282
 50
86.271354716021094
 51
137.33075084899281
  0
LINE
  5
11B4
  8
0
 10
1.459923702411805
 20
43.890746227500003
 30
0.0
 11
2.7620497242118049
 21
43.890746227399987
 31
0.0
  0
ARC
  5
11B5
  8
0
 10
2.762981080057449
 20
43.864441625515973
 30
0.0
 40
0.0263210847798647
 50
44.133368690598147
 51
92.027800200168656
  0
ARC
  5
11B6
  8
0
 10
2.814577625249767
 20
43.887125711369968
 30
0.0
 40
0.0329941508477217
 50
187.58635901411509
 51
270.1691473350167
  0
LINE
  5
11B7
  8
0
 10
2.8146750297118039
 20
43.854131704300002
 30
0.0
 11
2.8902078883118052
 21
43.854132120899997
 31
0.0
  0
ARC
  5
11B8
  8
0
 10
2.3956465887924061
 20
43.977552544115909
 30
0.0
 40
0.1258167591787425
 50
282.16230513306499
 51
316.37648315494653
  0
ARC
  5
11B9
  8
0
 10
1.8215788811193629
 20
43.967574804618167
 30
0.0
 40
0.1148891452446741
 50
221.9677057385301
 51
259.63560133405349
  0
LINE
  5
11BA
  8
0
 10
1.3451800785118051
 20
43.854132046899991
 30
0.0
 11
1.3373447820118061
 21
43.739554138099997
 31
0.0
  0
LINE
  5
11BB
  8
0
 10
1.3373447820118061
 20
43.739554138099997
 30
0.0
 11
1.334928814871833
 21
43.401744298033456
 31
0.0
  0
ARC
  5
11BC
  8
0
 10
1.4609867882118051
 20
43.515802999399988
 30
0.0
 40
0.1700000000000017
 50
185.00000000169899
 51
270.0000000000004
  0
LINE
  5
11BD
  8
0
 10
1.2916336895366469
 20
43.500986523127857
 30
0.0
 11
1.281203727677507
 21
43.620201532652928
 31
0.0
  0
ARC
  5
11BE
  8
0
 10
1.191206084006925
 20
43.612327759085019
 30
0.0
 40
0.0903414200489219
 50
5.0000000016995854
 51
89.627257713144886
  0
LINE
  5
11BF
  8
0
 10
1.1917938032118049
 20
43.702667267399988
 30
0.0
 11
0.838957417553539
 21
43.702887591780858
 31
0.0
  0
ARC
  5
11C0
  8
0
 10
0.8426805958023688
 20
44.084738147500303
 30
0.0
 40
0.3818687064417849
 50
263.93726743371491
 51
269.44136354634401
  0
ARC
  5
11C1
  8
0
 10
0.8022019338165584
 20
43.740131676797937
 30
0.0
 40
0.0351266940285707
 50
236.91977050328211
 51
270.2393235265136
  0
LINE
  5
11C2
  8
0
 10
0.7830293323118056
 20
43.710698770299999
 30
0.0
 11
0.7762283766118064
 21
43.8076829906
 31
0.0
  0
ARC
  5
11C3
  8
0
 10
0.7436334300404593
 20
43.804976194071251
 30
0.0
 40
0.0327071443179782
 50
4.7471462481684563
 51
89.135114291461264
  0
LINE
  5
11C4
  8
0
 10
0.7441271290118064
 20
43.837679612099997
 30
0.0
 11
0.6315109036856282
 21
43.837706902993339
 31
0.0
  0
ARC
  5
11C5
  8
0
 10
0.6306923251576801
 20
43.562862813584452
 30
0.0
 40
0.2748453084078571
 50
89.82935432130121
 51
147.23050632640539
  0
ARC
  5
11C6
  8
0
 10
50.010331951135882
 20
11.20357788768114
 30
0.0
 40
59.312723429121561
 50
146.76468797630841
 51
147.5259658737167
  0
ARC
  5
11C7
  8
0
 10
0.570909064152426
 20
42.640869142616651
 30
0.0
 40
0.7250503394809101
 50
145.68531674801329
 51
177.13265609617929
  0
ARC
  5
11C8
  8
0
 10
-0.9172766611462979
 20
42.655258724451549
 30
0.0
 40
0.7643563560356972
 50
340.47526146891317
 51
1.640347400632697
  0
ARC
  5
11C9
  8
0
 10
-1.896523551438988
 20
43.052426452269252
 30
0.0
 40
1.8206409205336
 50
333.45044833101468
 51
338.99437585805532
  0
ARC
  5
11CA
  8
0
 10
10.619696414345221
 20
35.843866850191347
 30
0.0
 40
12.62665559692585
 50
149.57226680973011
 51
164.4359302673073
  0
ARC
  5
11CB
  8
0
 10
10.88697365133053
 20
35.89702886115095
 30
0.0
 40
12.8704549041957
 50
164.98317768380929
 51
175.44528922440071
  0
ARC
  5
11CC
  8
0
 10
9.5291055282845623
 20
36.155677054497609
 30
0.0
 40
11.49731402482556
 50
176.19282978621459
 51
192.5982448265529
  0
ARC
  5
11CD
  8
0
 10
12.24752649153422
 20
36.765561841865662
 30
0.0
 40
14.28330896630848
 50
192.6073786239279
 51
209.96670910069261
  0
ARC
  5
11CE
  8
0
 10
9.6449370968677268
 20
35.15560036300279
 30
0.0
 40
11.224874136674041
 50
209.48306463772889
 51
223.23352674271959
  0
ARC
  5
11CF
  8
0
 10
5.47193173255455
 20
31.095170494811661
 30
0.0
 40
5.4041926257416142
 50
222.17430902453111
 51
246.29585813077861
  0
ARC
  5
11D0
  8
0
 10
4.7494498993241514
 20
30.183496239305779
 30
0.0
 40
4.2891437134176673
 50
250.23998320755999
 51
271.49011392087158
  0
ARC
  5
11D1
  8
0
 10
0.7352151782436316
 20
43.651832822833477
 30
0.0
 40
0.0758379397161182
 50
8.5791139923341948
 51
50.914601208681603
  0
ARC
  5
11D2
  8
0
 10
-1.261241372103693
 20
43.350641529530677
 30
0.0
 40
2.0948859709888219
 50
355.57331226223607
 51
8.5791139923340687
  0
ARC
  5
11D3
  8
0
 10
-17.50130495698291
 20
45.108853323531548
 30
0.0
 40
18.42897936014387
 50
351.06010964859252
 51
354.0201650433965
  0
ARC
  5
11D4
  8
0
 10
-20.2082637422644
 20
45.741987944452269
 30
0.0
 40
21.202430752710779
 50
344.87404179309078
 51
350.50670140736759
  0
ARC
  5
11D5
  8
0
 10
37.379706216977347
 20
29.280098460651431
 30
0.0
 40
38.695629219505598
 50
163.59397001976339
 51
169.0081057784667
  0
ARC
  5
11D6
  8
0
 10
9.9305264044654677
 20
34.969241969125029
 30
0.0
 40
10.67105309790248
 50
170.89323742282019
 51
202.00288298883501
  0
ARC
  5
11D7
  8
0
 10
10.10736546730149
 20
34.961636197873922
 30
0.0
 40
10.83241059966727
 50
201.61514779253349
 51
221.87581662829081
  0
ARC
  5
11D8
  8
0
 10
4.892838235845093
 20
30.22043592937457
 30
0.0
 40
3.7851934681013231
 50
221.12692124085049
 51
269.51788113399692
  0
LINE
  5
11D9
  8
0
 10
-0.1510488334172102
 20
42.707763005700002
 30
0.0
 11
-0.2154960412881941
 21
42.707762981400002
 31
0.0
  0
ARC
  5
11DA
  8
0
 10
-0.2092412111157902
 20
42.61399399452079
 30
0.0
 40
0.0939773685566883
 50
93.816243139659903
 51
149.90981266956189
  0
ARC
  5
11DB
  8
0
 10
10.53358061966936
 20
35.760566220902007
 30
0.0
 40
12.83664299474056
 50
147.48189197622159
 51
152.29072224645759
  0
ARC
  5
11DC
  8
0
 10
9.6716174017411305
 20
36.181034788850802
 30
0.0
 40
11.87805371302891
 50
152.15299780924551
 51
168.96201698095521
  0
ARC
  5
11DD
  8
0
 10
9.4465508630617983
 20
36.108818405434668
 30
0.0
 40
11.67153380062725
 50
168.4025194187731
 51
181.9066809020477
  0
ARC
  5
11DE
  8
0
 10
10.98690813590115
 20
36.370606801561969
 30
0.0
 40
13.22142249757067
 50
182.8184698404612
 51
204.32122087278009
  0
ARC
  5
11DF
  8
0
 10
11.09607201191498
 20
36.176466317708652
 30
0.0
 40
13.242799778477661
 50
203.36124180924639
 51
219.82106715124451
  0
ARC
  5
11E0
  8
0
 10
5.2003159501237981
 20
31.270204811212711
 30
0.0
 40
5.5726489914191086
 50
219.8966473785722
 51
246.71877968881219
  0
ARC
  5
11E1
  8
0
 10
4.8929070117710873
 20
30.98179559331528
 30
0.0
 40
5.1889544016121043
 50
248.5784067195178
 51
269.64753869658171
  0
ARC
  5
11E5
  8
0
 10
1.4789582041257789
 20
44.533137905920967
 30
0.0
 40
0.6785800463602061
 50
265.10253081800408
 51
269.84010018895998
  0
LINE
  5
11E6
  8
0
 10
1.4770644401999999
 20
43.8545605021
 30
0.0
 11
2.7448498770533951
 21
43.854559530997527
 31
0.0
  0
ARC
  5
11E7
  8
0
 10
2.7431125957352771
 20
44.530657602802627
 30
0.0
 40
0.6761003038343958
 50
270.14722519177622
 51
274.91399003500862
  0
ARC
  5
11E8
  8
0
 10
8.2430156033475033
 20
44.533137905920967
 30
0.0
 40
0.6785800463602061
 50
270.15989981104002
 51
274.89746918199592
  0
LINE
  5
11E9
  8
0
 10
8.2449093672732836
 20
43.8545605021
 30
0.0
 11
6.9771239304198867
 21
43.854559530997527
 31
0.0
  0
ARC
  5
11EA
  8
0
 10
6.9788612117380051
 20
44.530657602802627
 30
0.0
 40
0.6761003038343958
 50
265.08600996499138
 51
269.85277480822373
  0
LINE
  5
122C
  8
0
 10
8.4099554531227803
 20
43.433898561240021
 30
0.0
 11
8.4128350664999996
 21
43.749844376800013
 31
0.0
  0
LINE
  5
122D
  8
0
 10
8.4128350664999996
 20
43.749844376800013
 30
0.0
 11
8.4133828666999992
 21
43.767491647900002
 31
0.0
  0
LINE
  5
122E
  8
0
 10
8.4133828666999992
 20
43.767491647900002
 30
0.0
 11
8.4185542081999998
 21
43.840837477799987
 31
0.0
  0
ARC
  5
122F
  8
0
 10
8.4477875310669148
 20
43.768570590699888
 30
0.0
 40
0.0779556934224802
 50
88.725646417403368
 51
112.0242635491911
  0
LINE
  5
1230
  8
0
 10
8.4495212526000003
 20
43.84650700289999
 30
0.0
 11
8.6589416661000005
 21
43.846972811400001
 31
0.0
  0
ARC
  5
1231
  8
0
 10
8.6628840072990485
 20
43.606825748509067
 30
0.0
 40
0.2401791873977165
 50
23.575619471383881
 51
90.937113822555744
  0
LINE
  5
1232
  8
0
 10
1.3120181240772191
 20
43.433898561240021
 30
0.0
 11
1.3091385107
 21
43.749844376800013
 31
0.0
  0
LINE
  5
1233
  8
0
 10
1.3091385107
 20
43.749844376800013
 30
0.0
 11
1.3085907105000001
 21
43.767491647900002
 31
0.0
  0
LINE
  5
1234
  8
0
 10
1.3085907105000001
 20
43.767491647900002
 30
0.0
 11
1.303419369
 21
43.840837477799987
 31
0.0
  0
ARC
  5
1235
  8
0
 10
1.2741860461330849
 20
43.768570590699888
 30
0.0
 40
0.0779556934224802
 50
67.975736450808867
 51
91.274353582596646
  0
LINE
  5
1236
  8
0
 10
1.272452324599999
 20
43.84650700289999
 30
0.0
 11
1.0630319110999991
 21
43.846972811400001
 31
0.0
  0
ARC
  5
1237
  8
0
 10
1.059089569900951
 20
43.606825748509067
 30
0.0
 40
0.2401791873977165
 50
89.062886177444199
 51
156.4243805286161
  0
LINE
  5
1F59
  8
0
 10
-2.5733292330962758
 20
48.474560929411922
 30
0.0
 11
-3.102687455599999
 21
48.723331582299998
 31
0.0
  0
ARC
  5
1F5A
  8
0
 10
-3.0941515866075622
 20
48.74149502877129
 30
0.0
 40
0.0200691765444306
 50
156.54117179086961
 51
244.82893224613491
  0
LINE
  5
1F5B
  8
0
 10
-3.1125619729
 20
48.749484366899999
 30
0.0
 11
-3.055747224951912
 21
48.88040653341502
 31
0.0
  0
ATTDEF
  5
21DE
  8
DEFPOINTS
 10
4.856850724632312
 20
55.775003299137111
 30
0.0
 40
0.001
  1
K-3609
  3

  2
MODELNUMBER
 70
     0
1001
ACDBATTR
1070
     0
1070
     1
  0
ATTDEF
  5
21DF
  8
DEFPOINTS
 10
4.856850724632312
 20
55.773336632470453
 30
0.0
 40
0.001
  1
CIMARRON
  3

  2
TRADENAME
 70
     0
1001
ACDBATTR
1070
     0
1070
     1
  0
ATTDEF
  5
21E0
  8
DEFPOINTS
 10
4.856850724632312
 20
55.771669965803781
 30
0.0
 40
0.001
  1
TOILET
  3

  2
PRODUCT
 70
     0
1001
ACDBATTR
1070
     0
1070
     1
  0
ATTDEF
  5
21E1
  8
DEFPOINTS
 10
4.856850724632312
 20
55.770003299137123
 30
0.0
 40
0.001
  1
VITREOUS CHINA
  3

  2
MATERIAL
 70
     0
1001
ACDBATTR
1070
     0
1070
     1
  0
ENDSEC
  0
EOF
