  0
SECTION
  2
HEADER
  9
$ACADVER
  1
AC1009
  9
$INSBASE
 10
0.0
 20
0.0
 30
0.0
  9
$EXTMIN
 10
0.0
 20
-10.724674
 30
0.0
  9
$EXTMAX
 10
27.231919
 20
10.724674
 30
0.0
  9
$LIMMIN
 10
0.0
 20
0.0
  9
$LIMMAX
 10
12.0
 20
9.0
  9
$ORTHOMODE
 70
     1
  9
$REGENMODE
 70
     1
  9
$FILLMODE
 70
     0
  9
$QTEXTMODE
 70
     0
  9
$MIRRTEXT
 70
     1
  9
$DRAGMODE
 70
     2
  9
$LTSCALE
 40
2.0
  9
$OSMODE
 70
     0
  9
$ATTMODE
 70
     1
  9
$TEXTSIZE
 40
0.001
  9
$TRACEWID
 40
0.05
  9
$TEXTSTYLE
  7
STANDARD
  9
$CLAYER
  8
0
  9
$CELTYPE
  6
BYLAYER
  9
$CECOLOR
 62
   256
  9
$DIMSCALE
 40
1.0
  9
$DIMASZ
 40
0.18
  9
$DIMEXO
 40
0.0625
  9
$DIMDLI
 40
0.38
  9
$DIMRND
 40
0.0
  9
$DIMDLE
 40
0.0
  9
$DIMEXE
 40
0.18
  9
$DIMTP
 40
0.0
  9
$DIMTM
 40
0.0
  9
$DIMTXT
 40
0.18
  9
$DIMCEN
 40
0.09
  9
$DIMTSZ
 40
0.0
  9
$DIMTOL
 70
     0
  9
$DIMLIM
 70
     0
  9
$DIMTIH
 70
     1
  9
$DIMTOH
 70
     1
  9
$DIMSE1
 70
     0
  9
$DIMSE2
 70
     0
  9
$DIMTAD
 70
     0
  9
$DIMZIN
 70
     0
  9
$DIMBLK
  1

  9
$DIMASO
 70
     1
  9
$DIMSHO
 70
     1
  9
$DIMPOST
  1

  9
$DIMAPOST
  1

  9
$DIMALT
 70
     0
  9
$DIMALTD
 70
     2
  9
$DIMALTF
 40
25.4
  9
$DIMLFAC
 40
1.0
  9
$DIMTOFL
 70
     0
  9
$DIMTVP
 40
0.0
  9
$DIMTIX
 70
     0
  9
$DIMSOXD
 70
     0
  9
$DIMSAH
 70
     0
  9
$DIMBLK1
  1

  9
$DIMBLK2
  1

  9
$DIMSTYLE
  2
*UNNAMED
  9
$DIMCLRD
 70
     0
  9
$DIMCLRE
 70
     0
  9
$DIMCLRT
 70
     0
  9
$DIMTFAC
 40
1.0
  9
$DIMGAP
 40
0.09
  9
$LUNITS
 70
     2
  9
$LUPREC
 70
     4
  9
$SKETCHINC
 40
0.1
  9
$FILLETRAD
 40
0.0
  9
$AUNITS
 70
     0
  9
$AUPREC
 70
     0
  9
$MENU
  1
acad
  9
$ELEVATION
 40
0.0
  9
$PELEVATION
 40
0.0
  9
$THICKNESS
 40
0.0
  9
$LIMCHECK
 70
     0
  9
$BLIPMODE
 70
     0
  9
$CHAMFERA
 40
0.0
  9
$CHAMFERB
 40
0.0
  9
$SKPOLY
 70
     0
  9
$TDCREATE
 40
2450906.664245601
  9
$TDUPDATE
 40
2450906.665555208
  9
$TDINDWG
 40
0.0000565972
  9
$TDUSRTIMER
 40
0.0000565972
  9
$USRTIMER
 70
     1
  9
$ANGBASE
 50
0.0
  9
$ANGDIR
 70
     0
  9
$PDMODE
 70
     0
  9
$PDSIZE
 40
0.0
  9
$PLINEWID
 40
0.0
  9
$COORDS
 70
     1
  9
$SPLFRAME
 70
     0
  9
$SPLINETYPE
 70
     6
  9
$SPLINESEGS
 70
     8
  9
$ATTDIA
 70
     0
  9
$ATTREQ
 70
     1
  9
$HANDLING
 70
     0
  9
$HANDSEED
  5
0
  9
$SURFTAB1
 70
     6
  9
$SURFTAB2
 70
     6
  9
$SURFTYPE
 70
     6
  9
$SURFU
 70
     6
  9
$SURFV
 70
     6
  9
$UCSNAME
  2

  9
$UCSORG
 10
0.0
 20
0.0
 30
0.0
  9
$UCSXDIR
 10
1.0
 20
0.0
 30
0.0
  9
$UCSYDIR
 10
0.0
 20
1.0
 30
0.0
  9
$PUCSNAME
  2

  9
$PUCSORG
 10
0.0
 20
0.0
 30
0.0
  9
$PUCSXDIR
 10
1.0
 20
0.0
 30
0.0
  9
$PUCSYDIR
 10
0.0
 20
1.0
 30
0.0
  9
$USERI1
 70
     0
  9
$USERI2
 70
     0
  9
$USERI3
 70
     0
  9
$USERI4
 70
     0
  9
$USERI5
 70
     0
  9
$USERR1
 40
0.0
  9
$USERR2
 40
0.0
  9
$USERR3
 40
0.0
  9
$USERR4
 40
0.0
  9
$USERR5
 40
0.0
  9
$WORLDVIEW
 70
     1
  9
$SHADEDGE
 70
     3
  9
$SHADEDIF
 70
    70
  9
$TILEMODE
 70
     1
  9
$MAXACTVP
 70
    16
  9
$PINSBASE
 10
0.0
 20
0.0
 30
0.0
  9
$PLIMCHECK
 70
     0
  9
$PEXTMIN
 10
1.000000E+20
 20
1.000000E+20
 30
1.000000E+20
  9
$PEXTMAX
 10
-1.000000E+20
 20
-1.000000E+20
 30
-1.000000E+20
  9
$PLIMMIN
 10
0.0
 20
0.0
  9
$PLIMMAX
 10
12.0
 20
9.0
  9
$UNITMODE
 70
     0
  9
$VISRETAIN
 70
     0
  9
$PLINEGEN
 70
     0
  9
$PSLTSCALE
 70
     1
  9
$TREEDEPTH
 70
  3020
  9
$DWGCODEPAGE
  3
iso8859-1
  0
ENDSEC
  0
SECTION
  2
TABLES
  0
TABLE
  2
VPORT
 70
     2
  0
VPORT
  2
*ACTIVE
 70
     0
 10
0.0
 20
0.0
 11
1.0
 21
1.0
 12
16.750614
 22
0.0
 13
0.0
 23
0.0
 14
1.0
 24
1.0
 15
0.0
 25
0.0
 16
0.0
 26
0.0
 36
1.0
 17
0.0
 27
0.0
 37
0.0
 40
23.466027
 41
1.573846
 42
50.0
 43
0.0
 44
0.0
 50
0.0
 51
0.0
 71
     0
 72
  1000
 73
     1
 74
     1
 75
     0
 76
     0
 77
     0
 78
     0
  0
ENDTAB
  0
TABLE
  2
LTYPE
 70
     2
  0
LTYPE
  2
CONTINUOUS
 70
    64
  3
Solid line
 72
    65
 73
     0
 40
0.0
  0
LTYPE
  2
HIDDEN
 70
    64
  3
__ __ __ __ __ __ __ __ __ __ __ __ __ __ __ __
 72
    65
 73
     2
 40
0.375
 49
0.25
 49
-0.125
  0
ENDTAB
  0
TABLE
  2
LAYER
 70
     1
  0
LAYER
  2
0
 70
    64
 62
     7
  6
CONTINUOUS
  0
ENDTAB
  0
TABLE
  2
STYLE
 70
     1
  0
STYLE
  2
STANDARD
 70
    64
 40
0.0
 41
1.0
 50
0.0
 71
     0
 42
0.001
  3
txt
  4

  0
ENDTAB
  0
TABLE
  2
VIEW
 70
     0
  0
ENDTAB
  0
TABLE
  2
UCS
 70
     0
  0
ENDTAB
  0
TABLE
  2
APPID
 70
     1
  0
APPID
  2
ACAD
 70
    64
  0
ENDTAB
  0
TABLE
  2
DIMSTYLE
 70
     0
  0
ENDTAB
  0
ENDSEC
  0
SECTION
  2
BLOCKS
  0
ENDSEC
  0
SECTION
  2
ENTITIES
  0
ARC
  8
0
  6
HIDDEN
 10
17.637986
 20
-0.472337
 30
0.0
 40
5.912566
 50
70.945039
 51
131.020022
  0
ARC
  8
0
  6
HIDDEN
 10
17.637986
 20
0.472337
 30
0.0
 40
5.912566
 50
228.979978
 51
289.054961
  0
ARC
  8
0
 10
4.250693
 20
39.688776
 30
0.0
 40
49.613713
 50
280.220505
 51
290.273438
  0
ARC
  8
0
 10
7.651702
 20
34.076467
 30
0.0
 40
42.85995
 50
277.033251
 51
288.622035
  0
ARC
  8
0
 10
17.232431
 20
3.902197
 30
0.0
 40
11.114898
 50
245.197751
 51
297.775583
  0
ARC
  8
0
 10
17.232431
 20
-3.902197
 30
0.0
 40
11.114898
 50
62.224417
 51
114.802249
  0
ARC
  8
0
 10
7.651702
 20
-34.076467
 30
0.0
 40
42.85995
 50
71.377965
 51
82.966749
  0
ARC
  8
0
 10
4.250693
 20
-39.688776
 30
0.0
 40
49.613713
 50
69.726562
 51
79.779495
  0
LINE
  8
0
 10
0.875
 20
9.721138
 30
0.0
 11
0.875
 21
-9.721138
 31
0.0
  0
LINE
  8
0
 10
9.819694
 20
-0.0625
 30
0.0
 11
9.819694
 21
3.297508
 31
0.0
  0
ARC
  8
0
 10
37.646256
 20
0.314962
 30
0.0
 40
30.046258
 50
164.69421
 51
180.719809
  0
ARC
  8
0
 10
38.384905
 20
0.102098
 30
0.0
 40
31.209355
 50
164.777441
 51
180.30218
  0
ARC
  8
0
  6
HIDDEN
 10
17.083592
 20
0.015169
 30
0.0
 40
5.181824
 50
129.932849
 51
179.47665
  0
ARC
  8
0
  6
HIDDEN
 10
12.215317
 20
-6.995176
 30
0.0
 40
8.630949
 50
69.008834
 51
90.356241
  0
ARC
  8
0
 10
-0.743966
 20
43.180526
 30
0.0
 40
52.733443
 50
272.210397
 51
279.50167
  0
ARC
  8
0
 10
-1.62968
 20
54.016075
 30
0.0
 40
64.179808
 50
272.544864
 51
278.936775
  0
ARC
  8
0
 10
-5.022283
 20
89.671154
 30
0.0
 40
100.448677
 50
273.773843
 51
280.367162
  0
ARC
  8
0
 10
1.542667
 20
-9.953664
 30
0.0
 40
0.607823
 50
177.712301
 51
274.379769
  0
ARC
  8
0
 10
1.229266
 20
-9.189044
 30
0.0
 40
0.330254
 50
239.863715
 51
280.582372
  0
ARC
  8
0
 10
1.251964
 20
-9.724811
 30
0.0
 40
0.376982
 50
179.441765
 51
265.137642
  0
ARC
  8
0
 10
1.249231
 20
-9.154652
 30
0.0
 40
0.37002
 50
176.375487
 51
239.863715
  0
ARC
  8
0
 10
12.364542
 20
-3.995232
 30
0.0
 40
4.497755
 50
199.175689
 51
274.283636
  0
ARC
  8
0
 10
38.362338
 20
-0.106648
 30
0.0
 40
31.186385
 50
179.918891
 51
195.22538
  0
ARC
  8
0
 10
37.578458
 20
-0.328582
 30
0.0
 40
29.97727
 50
179.491429
 51
195.314887
  0
ARC
  8
0
 10
11.668493
 20
0.977875
 30
0.0
 40
9.51881
 50
251.72067
 51
277.431744
  0
ARC
  8
0
 10
7.837948
 20
-8.401641
 30
0.0
 40
0.445182
 50
286.05642
 51
13.632933
  0
ARC
  8
0
 10
-1.137489
 20
-7.64457
 30
0.0
 40
9.821654
 50
351.313886
 51
356.487602
  0
ARC
  8
0
 10
8.26059
 20
-9.080347
 30
0.0
 40
0.314533
 50
284.679782
 51
351.313886
  0
LINE
  8
0
 10
10.045581
 20
-5.034194
 30
0.0
 11
12.569868
 21
-6.187474
 31
0.0
  0
LINE
  8
0
 10
9.819694
 20
-0.0625
 30
0.0
 11
9.819694
 21
-3.297508
 31
0.0
  0
ARC
  8
0
 10
10.500263
 20
-4.110812
 30
0.0
 40
1.029256
 50
180.803593
 51
243.783946
  0
LINE
  8
0
 10
10.202913
 20
-3.312181
 30
0.0
 11
10.202913
 21
-3.933487
 31
0.0
  0
LINE
  8
0
 10
9.471107
 20
-3.878839
 30
0.0
 11
9.471107
 21
-3.365592
 31
0.0
  0
ARC
  8
0
 10
9.558672
 20
-3.847199
 30
0.0
 40
0.093105
 50
199.866581
 51
247.936908
  0
LINE
  8
0
 10
9.471107
 20
-3.878839
 30
0.0
 11
9.471107
 21
-4.125248
 31
0.0
  0
LINE
  8
0
 10
10.202913
 20
-3.933487
 30
0.0
 11
9.523699
 21
-3.933487
 31
0.0
  0
ARC
  8
0
 10
9.542043
 20
-3.382101
 30
0.0
 40
0.072832
 50
103.069814
 51
166.898123
  0
LINE
  8
0
 10
9.523699
 20
-3.312181
 30
0.0
 11
10.202913
 21
-3.312181
 31
0.0
  0
ARC
  8
0
  6
HIDDEN
 10
17.083592
 20
-0.015169
 30
0.0
 40
5.181824
 50
180.52335
 51
230.067151
  0
ARC
  8
0
  6
HIDDEN
 10
12.215317
 20
6.995176
 30
0.0
 40
8.630949
 50
269.643759
 51
290.991166
  0
ARC
  8
0
  6
HIDDEN
 10
14.844624
 20
0.006522
 30
0.0
 40
1.165229
 50
293.38593
 51
356.423915
  0
ARC
  8
0
  6
HIDDEN
 10
14.844624
 20
-0.006522
 30
0.0
 40
1.165229
 50
3.576085
 51
66.61407
  0
ARC
  8
0
 10
-1.62968
 20
-54.016075
 30
0.0
 40
64.179808
 50
81.063225
 51
87.455136
  0
ARC
  8
0
 10
-0.743966
 20
-43.180526
 30
0.0
 40
52.733443
 50
80.49833
 51
87.789603
  0
ARC
  8
0
 10
-5.022283
 20
-89.671154
 30
0.0
 40
100.448677
 50
79.632838
 51
86.226157
  0
ARC
  8
0
 10
1.249231
 20
9.154652
 30
0.0
 40
0.37002
 50
120.136285
 51
183.624513
  0
ARC
  8
0
 10
1.229266
 20
9.189044
 30
0.0
 40
0.330254
 50
79.417628
 51
120.136285
  0
ARC
  8
0
 10
1.251964
 20
9.724811
 30
0.0
 40
0.376982
 50
94.862358
 51
180.558235
  0
ARC
  8
0
 10
1.542667
 20
9.953664
 30
0.0
 40
0.607823
 50
85.620231
 51
182.287699
  0
ARC
  8
0
 10
8.26059
 20
9.080347
 30
0.0
 40
0.314533
 50
8.686114
 51
75.320218
  0
ARC
  8
0
 10
12.364542
 20
3.995232
 30
0.0
 40
4.497755
 50
85.716364
 51
160.824311
  0
ARC
  8
0
 10
11.668493
 20
-0.977875
 30
0.0
 40
9.51881
 50
82.568256
 51
108.27933
  0
LINE
  8
0
 10
10.045581
 20
5.034194
 30
0.0
 11
12.569868
 21
6.187474
 31
0.0
  0
ARC
  8
0
 10
10.500263
 20
4.110812
 30
0.0
 40
1.029256
 50
116.216054
 51
179.196407
  0
LINE
  8
0
 10
10.202913
 20
3.312181
 30
0.0
 11
10.202913
 21
3.933487
 31
0.0
  0
LINE
  8
0
 10
9.471107
 20
3.878839
 30
0.0
 11
9.471107
 21
4.125248
 31
0.0
  0
ARC
  8
0
 10
9.558672
 20
3.847199
 30
0.0
 40
0.093105
 50
112.063092
 51
160.133419
  0
LINE
  8
0
 10
9.471107
 20
3.878839
 30
0.0
 11
9.471107
 21
3.365592
 31
0.0
  0
ARC
  8
0
 10
9.542043
 20
3.382101
 30
0.0
 40
0.072832
 50
193.101877
 51
256.930186
  0
LINE
  8
0
 10
9.523699
 20
3.312181
 30
0.0
 11
10.202913
 21
3.312181
 31
0.0
  0
LINE
  8
0
 10
10.202913
 20
3.933487
 30
0.0
 11
9.523699
 21
3.933487
 31
0.0
  0
ARC
  8
0
 10
7.837948
 20
8.401641
 30
0.0
 40
0.445182
 50
346.367067
 51
73.94358
  0
ARC
  8
0
 10
-1.137489
 20
7.64457
 30
0.0
 40
9.821654
 50
3.512398
 51
8.686114
  0
ARC
  8
0
  6
HIDDEN
 10
19.27741
 20
0.162276
 30
0.0
 40
4.62518
 50
358.763899
 51
37.374332
  0
ARC
  8
0
 10
19.009718
 20
0.028063
 30
0.0
 40
6.814176
 50
359.88519
 51
60.045869
  0
ARC
  8
0
 10
18.880886
 20
-0.111459
 30
0.0
 40
7.090364
 50
1.330705
 51
69.724833
  0
ARC
  8
0
 10
18.885247
 20
0.045183
 30
0.0
 40
7.27051
 50
359.643927
 51
69.412043
  0
ARC
  8
0
 10
18.885247
 20
-0.045183
 30
0.0
 40
7.27051
 50
290.587957
 51
0.356073
  0
ARC
  8
0
 10
18.880886
 20
0.111459
 30
0.0
 40
7.090364
 50
290.275167
 51
358.669295
  0
ARC
  8
0
 10
19.009718
 20
-0.028063
 30
0.0
 40
6.814176
 50
299.954131
 51
0.11481
  0
ARC
  8
0
  6
HIDDEN
 10
19.27741
 20
-0.162276
 30
0.0
 40
4.62518
 50
322.625668
 51
1.236101
  0
ARC
  8
0
  6
HIDDEN
 10
18.350784
 20
0.545525
 30
0.0
 40
5.791207
 50
282.13605
 51
322.625668
  0
LINE
  8
0
 10
25.969337
 20
-0.053201
 30
0.0
 11
25.969337
 21
0.053201
 31
0.0
  0
LINE
  8
0
 10
25.82388
 20
0.014409
 30
0.0
 11
25.82388
 21
-0.014409
 31
0.0
  0
ARC
  8
0
  6
HIDDEN
 10
18.350784
 20
-0.545525
 30
0.0
 40
5.791207
 50
37.374332
 51
77.86395
  0
ATTDEF
  8
0
 10
0.0
 20
0.0
 30
0.0
 40
0.001
  1
K-3386
  3

  2
MODELNUMBER
 70
     8
  0
ATTDEF
  8
0
 10
0.0
 20
-0.001667
 30
0.0
 40
0.001
  1
RIALTO
  3

  2
TRADENAME
 70
     8
  0
ATTDEF
  8
0
 10
0.0
 20
-0.003333
 30
0.0
 40
0.001
  1
TOILETS
  3

  2
PRODUCT
 70
     8
  0
ATTDEF
  8
0
 10
0.0
 20
-0.005
 30
0.0
 40
0.001
  1
VITREOUS CHINA
  3

  2
MATERIAL
 70
     8
  0
ENDSEC
  0
EOF
