  0
SECTION
  2
HEADER
  9
$ACADVER
  1
AC1009
  9
$INSBASE
 10
3096.511547352577054
 20
131.7291299336170027
 30
0.0
  9
$EXTMIN
 10
3078.4270837107069383
 20
120.443016659536795
 30
-0.0000000349181948
  9
$EXTMAX
 10
3114.5671705492318324
 20
142.3216500147748889
 30
0.0000000814935746
  9
$LIMMIN
 10
0.0
 20
0.0
  9
$LIMMAX
 10
11.6929133858000007
 20
8.2677165353999982
  9
$ORTHOMODE
 70
     0
  9
$REGENMODE
 70
     1
  9
$FILLMODE
 70
     1
  9
$QTEXTMODE
 70
     0
  9
$MIRRTEXT
 70
     0
  9
$DRAGMODE
 70
     2
  9
$LTSCALE
 40
0.6431102362
  9
$OSMODE
 70
   575
  9
$ATTMODE
 70
     1
  9
$TEXTSIZE
 40
0.2
  9
$TRACEWID
 40
0.05
  9
$TEXTSTYLE
  7
STANDARD
  9
$CLAYER
  8
0
  9
$CELTYPE
  6
BYLAYER
  9
$CECOLOR
 62
   256
  9
$DIMSCALE
 40
1.0
  9
$DIMASZ
 40
0.1875
  9
$DIMEXO
 40
0.0625
  9
$DIMDLI
 40
0.4443307087
  9
$DIMRND
 40
0.0
  9
$DIMDLE
 40
0.0
  9
$DIMEXE
 40
0.125
  9
$DIMTP
 40
0.01
  9
$DIMTM
 40
0.01
  9
$DIMTXT
 40
2.0
  9
$DIMCEN
 40
0.1052362205
  9
$DIMTSZ
 40
0.0
  9
$DIMTOL
 70
     1
  9
$DIMLIM
 70
     0
  9
$DIMTIH
 70
     1
  9
$DIMTOH
 70
     1
  9
$DIMSE1
 70
     0
  9
$DIMSE2
 70
     0
  9
$DIMTAD
 70
     0
  9
$DIMZIN
 70
     0
  9
$DIMBLK
  1

  9
$DIMASO
 70
     1
  9
$DIMSHO
 70
     1
  9
$DIMPOST
  1
\X
  9
$DIMAPOST
  1

  9
$DIMALT
 70
     1
  9
$DIMALTD
 70
     2
  9
$DIMALTF
 40
25.3999999999999986
  9
$DIMLFAC
 40
1.0
  9
$DIMTOFL
 70
     0
  9
$DIMTVP
 40
0.0
  9
$DIMTIX
 70
     0
  9
$DIMSOXD
 70
     0
  9
$DIMSAH
 70
     0
  9
$DIMBLK1
  1

  9
$DIMBLK2
  1

  9
$DIMSTYLE
  2
STANDARD
  9
$DIMCLRD
 70
     0
  9
$DIMCLRE
 70
     0
  9
$DIMCLRT
 70
     0
  9
$DIMTFAC
 40
1.0
  9
$DIMGAP
 40
0.09
  9
$LUNITS
 70
     2
  9
$LUPREC
 70
     4
  9
$SKETCHINC
 40
0.1
  9
$FILLETRAD
 40
0.0
  9
$AUNITS
 70
     0
  9
$AUPREC
 70
     0
  9
$MENU
  1
.
  9
$ELEVATION
 40
0.0
  9
$PELEVATION
 40
0.0
  9
$THICKNESS
 40
0.0
  9
$LIMCHECK
 70
     0
  9
$BLIPMODE
 70
     0
  9
$CHAMFERA
 40
0.0
  9
$CHAMFERB
 40
0.0
  9
$SKPOLY
 70
     0
  9
$TDCREATE
 40
2458060.468368056230247
  9
$TDUPDATE
 40
2459641.4601736110635102
  9
$TDINDWG
 40
0.284034838
  9
$TDUSRTIMER
 40
0.284034838
  9
$USRTIMER
 70
     1
  9
$ANGBASE
 50
0.0
  9
$ANGDIR
 70
     0
  9
$PDMODE
 70
     0
  9
$PDSIZE
 40
0.3125
  9
$PLINEWID
 40
0.0
  9
$COORDS
 70
     1
  9
$SPLFRAME
 70
     0
  9
$SPLINETYPE
 70
     6
  9
$SPLINESEGS
 70
     8
  9
$ATTDIA
 70
     1
  9
$ATTREQ
 70
     1
  9
$HANDLING
 70
     1
  9
$HANDSEED
  5
6551
  9
$SURFTAB1
 70
     6
  9
$SURFTAB2
 70
     6
  9
$SURFTYPE
 70
     6
  9
$SURFU
 70
     6
  9
$SURFV
 70
     6
  9
$UCSNAME
  2

  9
$UCSORG
 10
0.0
 20
0.0
 30
0.0
  9
$UCSXDIR
 10
1.0
 20
0.0
 30
0.0
  9
$UCSYDIR
 10
0.0
 20
1.0
 30
0.0
  9
$PUCSNAME
  2

  9
$PUCSORG
 10
0.0
 20
0.0
 30
0.0
  9
$PUCSXDIR
 10
1.0
 20
0.0
 30
0.0
  9
$PUCSYDIR
 10
0.0
 20
1.0
 30
0.0
  9
$USERI1
 70
     0
  9
$USERI2
 70
     0
  9
$USERI3
 70
     0
  9
$USERI4
 70
     0
  9
$USERI5
 70
     0
  9
$USERR1
 40
0.0
  9
$USERR2
 40
0.0
  9
$USERR3
 40
0.0
  9
$USERR4
 40
0.0
  9
$USERR5
 40
0.0
  9
$WORLDVIEW
 70
     1
  9
$SHADEDGE
 70
     3
  9
$SHADEDIF
 70
    70
  9
$TILEMODE
 70
     1
  9
$MAXACTVP
 70
    64
  9
$PLIMCHECK
 70
     0
  9
$PEXTMIN
 10
1.0000000000000000E+20
 20
1.0000000000000000E+20
 30
1.0000000000000000E+20
  9
$PEXTMAX
 10
-1.0000000000000000E+20
 20
-1.0000000000000000E+20
 30
-1.0000000000000000E+20
  9
$PLIMMIN
 10
0.0
 20
0.0
  9
$PLIMMAX
 10
12.0
 20
9.0
  9
$UNITMODE
 70
     0
  9
$VISRETAIN
 70
     1
  9
$PLINEGEN
 70
     0
  9
$PSLTSCALE
 70
     1
  0
ENDSEC
  0
SECTION
  2
TABLES
  0
TABLE
  2
VPORT
 70
     1
  0
VPORT
  2
*ACTIVE
 70
     0
 10
0.0
 20
0.0
 11
1.0
 21
1.0
 12
80.3194676003431454
 22
25.0080656421667697
 13
0.0
 23
0.0
 14
1.0
 24
1.0
 15
0.0
 25
0.0
 16
0.0
 26
0.0
 36
106.320558520324596
 17
3016.9793701171879547
 27
103.3362045288085938
 37
0.0
 40
28.6928159077079883
 41
2.2661764705882348
 42
50.0
 43
0.0
 44
0.0
 50
0.0
 51
0.0
 71
     0
 72
   100
 73
     1
 74
     1
 75
     0
 76
     0
 77
     0
 78
     0
  0
ENDTAB
  0
TABLE
  2
LTYPE
 70
     2
  0
LTYPE
  2
CONTINUOUS
 70
     0
  3
Solid line
 72
    65
 73
     0
 40
0.0
  0
LTYPE
  2
PHANTOM2
 70
     0
  3
___ _ _ ___ _ _ ___ _ _ ___ _ _
 72
    65
 73
     6
 40
1.25
 49
0.625
 49
-0.125
 49
0.125
 49
-0.125
 49
0.125
 49
-0.125
  0
ENDTAB
  0
TABLE
  2
LAYER
 70
     2
  0
LAYER
  2
0
 70
     0
 62
   255
  6
CONTINUOUS
  0
LAYER
  2
DEFPOINTS
 70
     0
 62
     7
  6
CONTINUOUS
  0
ENDTAB
  0
TABLE
  2
STYLE
 70
     1
  0
STYLE
  2
STANDARD
 70
     0
 40
0.0
 41
0.8
 50
0.0
 71
     0
 42
0.2
  3
txt
  4

  0
ENDTAB
  0
TABLE
  2
VIEW
 70
     0
  0
ENDTAB
  0
TABLE
  2
UCS
 70
     0
  0
ENDTAB
  0
TABLE
  2
APPID
 70
     9
  0
APPID
  2
ACAD
 70
     0
  0
APPID
  2
ACAD_MLEADERVER
 70
     0
  0
APPID
  2
ACAD_EXEMPT_FROM_CAD_STANDARDS
 70
     0
  0
APPID
  2
ACAD_NAV_VCDISPLAY
 70
     0
  0
APPID
  2
ACAECLAYERSTANDARD
 70
     0
  0
APPID
  2
ACCMTRANSPARENCY
 70
     0
  0
APPID
  2
ACAD_DSTYLE_DIMJAG
 70
     0
  0
APPID
  2
ACAD_DSTYLE_DIMTALN
 70
     0
  0
APPID
  2
ACDBATTR
 70
     0
  0
ENDTAB
  0
TABLE
  2
DIMSTYLE
 70
     1
  0
DIMSTYLE
  2
STANDARD
 70
     0
  3

  4

  5

  6

  7

 40
1.0
 41
0.1875
 42
0.0625
 43
0.38
 44
0.125
 45
0.0
 46
0.0
 47
0.01
 48
0.01
140
0.15625
141
0.09
142
0.0
143
25.3999999999999986
144
1.0
145
0.0
146
1.0
147
0.09
 71
     1
 72
     0
 73
     1
 74
     1
 75
     0
 76
     0
 77
     0
 78
     4
170
     0
171
     2
172
     0
173
     0
174
     0
175
     0
176
     0
177
     0
178
     0
  0
ENDTAB
  0
ENDSEC
  0
SECTION
  2
BLOCKS
  0
BLOCK
  8
0
  2
$MODEL_SPACE
 70
     0
 10
0.0
 20
0.0
 30
0.0
  3
$MODEL_SPACE
  1

  0
ENDBLK
  5
21
  8
0
  0
BLOCK
 67
     1
  8
0
  2
$PAPER_SPACE
 70
     0
 10
0.0
 20
0.0
 30
0.0
  3
$PAPER_SPACE
  1

  0
ENDBLK
  5
1D
 67
     1
  8
0
  0
ENDSEC
  0
SECTION
  2
ENTITIES
  0
ATTDEF
  5
3930
  8
DEFPOINTS
 10
3096.511535330217157
 20
131.73259081477579
 30
0.0
 40
0.001
  1
K-29825
  3

  2
MODELNUMBER
 70
     0
1001
ACDBATTR
1070
     0
1070
     1
  0
ATTDEF
  5
3931
  8
DEFPOINTS
 10
3096.511535330217157
 20
131.7309241481090964
 30
0.0
 40
0.001
  1
CAIRN
  3

  2
TRADENAME
 70
     0
1001
ACDBATTR
1070
     0
1070
     1
  0
ATTDEF
  5
3932
  8
DEFPOINTS
 10
3096.511535330217157
 20
131.7292574814424029
 30
0.0
 40
0.001
  1
KITCHEN SINK
  3

  2
PRODUCT
 70
     0
1001
ACDBATTR
1070
     0
1070
     1
  0
LINE
  5
6458
  8
0
 10
3079.511547352577054
 20
123.0764016871670066
 30
0.0
 11
3079.511547352577054
 21
139.7636300052668901
 31
0.0
  0
LINE
  5
6459
  8
0
 10
3113.8343844629757768
 20
121.1416300052670039
 30
0.0
 11
3079.1887102421760574
 21
121.1416300052670039
 31
0.0
  0
LINE
  5
645A
  8
0
 10
3079.4517756718769306
 20
123.0166300046669932
 30
0.0
 11
3078.6615473438769186
 21
123.0166300052670039
 31
0.0
  0
LINE
  5
645B
  8
0
 10
3082.8410838962768139
 20
140.830259937466991
 30
0.0
 11
3110.1820108088759298
 21
140.830259937466991
 31
0.0
  0
LINE
  5
645C
  8
0
 10
3082.0645473525760281
 20
142.316630005267001
 30
0.0
 11
3110.9585473525758061
 21
142.316630005267001
 31
0.0
  0
ARC
  5
645D
  8
0
 10
3082.1886152438110003
 20
139.6395621140322021
 30
0.0
 40
2.679941293371126
 50
92.6534567092325858
 51
177.3465432907538002
  0
ARC
  5
645E
  8
0
 10
3079.2110835954631511
 20
121.4353266339812052
 30
0.0
 40
0.2945475796122201
 50
207.7421670345445932
 51
265.64371019567659
  0
ARC
  5
645F
  8
0
 10
3084.5541884993172062
 20
123.1236360358817024
 30
0.0
 40
5.893612650775748
 50
181.0403348840814033
 51
198.0428651959196884
  0
ARC
  5
6460
  8
0
 10
3078.7325212869300231
 20
122.9472674190669039
 30
0.0
 40
0.0697037361068345
 50
95.6709987363757079
 51
175.3354862095035003
  0
ARC
  5
6461
  8
0
 10
3079.4518693165759942
 20
123.0763080412674952
 30
0.0
 40
0.0596781094743292
 50
269.9100923762406978
 51
0.0899076243666743
  0
ARC
  5
6462
  8
0
 10
3082.9849305055017794
 20
139.1082859759507073
 30
0.0
 40
1.727971692802198
 50
94.7751664989449978
 51
175.2261317782181038
  0
LINE
  5
6463
  8
0
 10
3081.2629532849769021
 20
139.2520935665669981
 30
0.0
 11
3081.2629532849769021
 21
124.8059219545183964
 31
0.0
  0
ARC
  5
6464
  8
0
 10
3082.9064653783971153
 20
124.8715682309037049
 30
0.0
 40
1.644822615002574
 50
182.2873310442670913
 51
267.7253607458167721
  0
LINE
  5
6465
  8
0
 10
3082.8411831637768046
 20
123.2280416362669939
 30
0.0
 11
3110.1819115413759391
 21
123.2280416362669939
 31
0.0
  0
ARC
  5
6466
  8
0
 10
3083.2611230430579781
 20
125.4560714698904036
 30
0.0
 40
1.0791004918738309
 50
184.2296515331404976
 51
265.8636588854450906
  0
LINE
  5
6467
  8
0
 10
3082.1849615443170478
 20
125.3764831529701951
 30
0.0
 11
3082.1849615443170478
 21
138.9095862788265947
 31
0.0
  0
ARC
  5
6468
  8
0
 10
3083.2499336763880819
 20
138.8425399956165904
 30
0.0
 40
1.0670805246927031
 50
93.5310818032514248
 51
176.3976466351462875
  0
LINE
  5
6469
  8
0
 10
3083.1842121884769767
 20
139.9075947041669963
 30
0.0
 11
3109.8388825166762217
 21
139.9075947041669963
 31
0.0
  0
LINE
  5
646A
  8
0
 10
3083.1832874395768158
 20
124.3797817828669992
 30
0.0
 11
3109.8398072655768374
 21
124.3797817828669992
 31
0.0
  0
LINE
  5
646B
  8
0
 10
3113.5115473525761445
 20
123.0764016871670066
 30
0.0
 11
3113.5115473525761445
 21
139.7636300052668901
 31
0.0
  0
LINE
  5
646C
  8
0
 10
3113.5713190332758131
 20
123.0166300046669932
 30
0.0
 11
3114.3615473612758251
 21
123.0166300052670039
 31
0.0
  0
ARC
  5
646D
  8
0
 10
3110.8344794613421982
 20
139.6395621140322021
 30
0.0
 40
2.679941293371126
 50
2.6534567092453738
 51
87.3465432907674284
  0
ARC
  5
646E
  8
0
 10
3113.8120111096900473
 20
121.4353266339812052
 30
0.0
 40
0.2945475796122201
 50
274.3562898043232963
 51
332.2578329654547247
  0
ARC
  5
646F
  8
0
 10
3108.4689062058359923
 20
123.1236360358817024
 30
0.0
 40
5.893612650775748
 50
341.9571348040794874
 51
358.9596651159168914
  0
ARC
  5
6470
  8
0
 10
3114.2905734182240849
 20
122.9472674190669039
 30
0.0
 40
0.0697037361068345
 50
4.6645137904964447
 51
84.3290012636242778
  0
ARC
  5
6471
  8
0
 10
3113.5712253885772043
 20
123.0763080412674952
 30
0.0
 40
0.0596781094743292
 50
179.9100923756340933
 51
270.0899076237593022
  0
ARC
  5
6472
  8
0
 10
3110.0381641996509643
 20
139.1082859759507073
 30
0.0
 40
1.727971692802198
 50
4.7738682217818686
 51
85.2248335010550164
  0
LINE
  5
6473
  8
0
 10
3111.7601414201772059
 20
139.2520935665669981
 30
0.0
 11
3111.7601414201772059
 21
124.8059219545183964
 31
0.0
  0
ARC
  5
6474
  8
0
 10
3110.1166293267560832
 20
124.8715682309037049
 30
0.0
 40
1.644822615002574
 50
272.2746392541832279
 51
357.712668955732795
  0
ARC
  5
6475
  8
0
 10
3109.7619716620952204
 20
125.4560714698904036
 30
0.0
 40
1.0791004918738309
 50
274.1363411145549094
 51
355.7703484668587066
  0
LINE
  5
6476
  8
0
 10
3110.8381331608361506
 20
125.3764831529701951
 30
0.0
 11
3110.8381331608361506
 21
138.9095862788265947
 31
0.0
  0
ARC
  5
6477
  8
0
 10
3109.773161028766026
 20
138.8425399956165904
 30
0.0
 40
1.0670805246927031
 50
3.6023533648536961
 51
86.4689181967486036
  0
CIRCLE
  5
6478
  8
0
 10
3106.1315473525769448
 20
132.1521300052669972
 30
0.0
 40
0.31
  0
CIRCLE
  5
6479
  8
0
 10
3106.1315473525769448
 20
132.1521300052669972
 30
0.0
 40
0.2760925586
  0
CIRCLE
  5
647A
  8
0
 10
3106.1315473525769448
 20
132.1521300052669972
 30
0.0
 40
2.25
  0
CIRCLE
  5
647B
  8
0
 10
3106.1315473525769448
 20
132.1521300052669972
 30
0.0
 40
1.6780895467000001
  0
LINE
  5
647C
  8
0
 10
3109.9915473525761627
 20
121.1416300052670039
 30
0.0
 11
3109.9915473525761627
 21
120.6804368530669933
 31
0.0
  0
LINE
  5
647D
  8
0
 10
3111.2415473525770722
 20
121.1416300052670039
 30
0.0
 11
3111.2415473525770722
 21
120.6804368530669933
 31
0.0
  0
ARC
  5
647E
  8
0
 10
3110.1113017391830908
 20
120.6875063502291994
 30
0.0
 40
0.1199628730130721
 50
183.3784382939757052
 51
229.0855821079032069
  0
ARC
  5
647F
  8
0
 10
3110.3579365216901351
 20
120.9901561787286965
 30
0.0
 40
0.5103379512014853
 50
230.4144916050099994
 51
256.4752657334029209
  0
ARC
  5
6480
  8
0
 10
3110.6013767494719104
 20
121.8524352576399963
 30
0.0
 40
1.4060738747560899
 50
255.0475904535892937
 51
270.0686560075712919
  0
ARC
  5
6481
  8
0
 10
3110.6283006462899721
 20
121.8703305347237063
 30
0.0
 40
1.424191798692054
 50
268.9845707827029742
 51
285.0219887939512091
  0
ARC
  5
6482
  8
0
 10
3110.8874612238519148
 20
120.9661751869682007
 30
0.0
 40
0.4840259905952855
 50
283.1328389585070795
 51
310.3130414972447966
  0
ARC
  5
6483
  8
0
 10
3111.124263408889874
 20
120.6863231191597947
 30
0.0
 40
0.1174315612402343
 50
310.5508356260543792
 51
357.1268406146231769
  0
ARC
  5
6484
  8
0
 10
3110.118837589731811
 20
120.7457502492560053
 30
0.0
 40
0.1276579518278143
 50
184.3498419441127965
 51
233.4753521936052891
  0
ARC
  5
6485
  8
0
 10
3110.3238853631651182
 20
120.9976549720761057
 30
0.0
 40
0.4523706313787001
 50
231.5940593346417131
 51
250.0759543498463984
  0
ARC
  5
6486
  8
0
 10
3110.5433043143962095
 20
121.6057679766852999
 30
0.0
 40
1.098857859447832
 50
250.1251501741357117
 51
263.3989384341168147
  0
ARC
  5
6487
  8
0
 10
3110.6131494245378235
 20
122.066136533851207
 30
0.0
 40
1.564290152219834
 50
262.7960355768852878
 51
283.3768094218833085
  0
ARC
  5
6488
  8
0
 10
3110.8748503865331259
 20
121.0407202750188986
 30
0.0
 40
0.5064460913575758
 50
281.4116879874302981
 51
310.2488432224346866
  0
ARC
  5
6489
  8
0
 10
3111.1233293131958817
 20
120.7425976947506996
 30
0.0
 40
0.118398240100153
 50
311.6858268195143182
 51
356.8384623058150282
  0
LINE
  5
648A
  8
0
 10
3109.9915473525761627
 20
120.736067884367003
 30
0.0
 11
3111.2415473525770722
 21
120.7360678843667046
 31
0.0
  0
ENDSEC
  0
EOF
