  0
SECTION
  2
HEADER
  9
$ACADVER
  1
AC1009
  9
$INSBASE
 10
8.2898354426999994
 20
2.6796680923
 30
0.0
  9
$EXTMIN
 10
7.2543354426999986
 20
1.260113505199999
 30
0.0
  9
$EXTMAX
 10
11.25277442163314
 20
4.5548649427000001
 30
0.0
  9
$LIMMIN
 10
0.0
 20
0.0
  9
$LIMMAX
 10
11.692913385800001
 20
8.2677165353999982
  9
$ORTHOMODE
 70
     0
  9
$REGENMODE
 70
     1
  9
$FILLMODE
 70
     1
  9
$QTEXTMODE
 70
     0
  9
$MIRRTEXT
 70
     0
  9
$DRAGMODE
 70
     2
  9
$LTSCALE
 40
0.6431102362
  9
$OSMODE
 70
  3071
  9
$ATTMODE
 70
     1
  9
$TEXTSIZE
 40
0.2
  9
$TRACEWID
 40
0.05
  9
$TEXTSTYLE
  7
STANDARD
  9
$CLAYER
  8
0
  9
$CELTYPE
  6
BYLAYER
  9
$CECOLOR
 62
   256
  9
$DIMSCALE
 40
1.0
  9
$DIMASZ
 40
0.1875
  9
$DIMEXO
 40
0.0625
  9
$DIMDLI
 40
0.4443307087
  9
$DIMRND
 40
0.0
  9
$DIMDLE
 40
0.0
  9
$DIMEXE
 40
0.125
  9
$DIMTP
 40
0.0
  9
$DIMTM
 40
0.0
  9
$DIMTXT
 40
0.5
  9
$DIMCEN
 40
0.1052362205
  9
$DIMTSZ
 40
0.0
  9
$DIMTOL
 70
     0
  9
$DIMLIM
 70
     0
  9
$DIMTIH
 70
     1
  9
$DIMTOH
 70
     1
  9
$DIMSE1
 70
     0
  9
$DIMSE2
 70
     0
  9
$DIMTAD
 70
     0
  9
$DIMZIN
 70
     0
  9
$DIMBLK
  1

  9
$DIMASO
 70
     1
  9
$DIMSHO
 70
     1
  9
$DIMPOST
  1
\X
  9
$DIMAPOST
  1

  9
$DIMALT
 70
     1
  9
$DIMALTD
 70
     2
  9
$DIMALTF
 40
25.399999999999999
  9
$DIMLFAC
 40
1.0
  9
$DIMTOFL
 70
     0
  9
$DIMTVP
 40
0.0
  9
$DIMTIX
 70
     0
  9
$DIMSOXD
 70
     0
  9
$DIMSAH
 70
     0
  9
$DIMBLK1
  1

  9
$DIMBLK2
  1

  9
$DIMSTYLE
  2
STANDARD
  9
$DIMCLRD
 70
     0
  9
$DIMCLRE
 70
     0
  9
$DIMCLRT
 70
     0
  9
$DIMTFAC
 40
1.0
  9
$DIMGAP
 40
0.09
  9
$LUNITS
 70
     2
  9
$LUPREC
 70
     4
  9
$SKETCHINC
 40
0.1
  9
$FILLETRAD
 40
0.0
  9
$AUNITS
 70
     0
  9
$AUPREC
 70
     0
  9
$MENU
  1
.
  9
$ELEVATION
 40
0.0
  9
$PELEVATION
 40
0.0
  9
$THICKNESS
 40
0.0
  9
$LIMCHECK
 70
     0
  9
$BLIPMODE
 70
     0
  9
$CHAMFERA
 40
0.0
  9
$CHAMFERB
 40
0.0
  9
$SKPOLY
 70
     0
  9
$TDCREATE
 40
2457856.6057882868
  9
$TDUPDATE
 40
2457856.738698368
  9
$TDINDWG
 40
0.132467338
  9
$TDUSRTIMER
 40
0.132467338
  9
$USRTIMER
 70
     1
  9
$ANGBASE
 50
0.0
  9
$ANGDIR
 70
     0
  9
$PDMODE
 70
     0
  9
$PDSIZE
 40
0.3125
  9
$PLINEWID
 40
0.0
  9
$COORDS
 70
     1
  9
$SPLFRAME
 70
     0
  9
$SPLINETYPE
 70
     6
  9
$SPLINESEGS
 70
     8
  9
$ATTDIA
 70
     1
  9
$ATTREQ
 70
     1
  9
$HANDLING
 70
     1
  9
$HANDSEED
  5
1EC2
  9
$SURFTAB1
 70
     6
  9
$SURFTAB2
 70
     6
  9
$SURFTYPE
 70
     6
  9
$SURFU
 70
     6
  9
$SURFV
 70
     6
  9
$UCSNAME
  2

  9
$UCSORG
 10
0.0
 20
0.0
 30
0.0
  9
$UCSXDIR
 10
1.0
 20
0.0
 30
0.0
  9
$UCSYDIR
 10
0.0
 20
1.0
 30
0.0
  9
$PUCSNAME
  2

  9
$PUCSORG
 10
0.0
 20
0.0
 30
0.0
  9
$PUCSXDIR
 10
1.0
 20
0.0
 30
0.0
  9
$PUCSYDIR
 10
0.0
 20
1.0
 30
0.0
  9
$USERI1
 70
     0
  9
$USERI2
 70
     0
  9
$USERI3
 70
     0
  9
$USERI4
 70
     0
  9
$USERI5
 70
     0
  9
$USERR1
 40
0.0
  9
$USERR2
 40
0.0
  9
$USERR3
 40
0.0
  9
$USERR4
 40
0.0
  9
$USERR5
 40
0.0
  9
$WORLDVIEW
 70
     1
  9
$SHADEDGE
 70
     3
  9
$SHADEDIF
 70
    70
  9
$TILEMODE
 70
     1
  9
$MAXACTVP
 70
    48
  9
$PLIMCHECK
 70
     0
  9
$PEXTMIN
 10
1.0000000000000000E+020
 20
1.0000000000000000E+020
 30
1.0000000000000000E+020
  9
$PEXTMAX
 10
-1.0000000000000000E+020
 20
-1.0000000000000000E+020
 30
-1.0000000000000000E+020
  9
$PLIMMIN
 10
0.0
 20
0.0
  9
$PLIMMAX
 10
12.0
 20
9.0
  9
$UNITMODE
 70
     0
  9
$VISRETAIN
 70
     1
  9
$PLINEGEN
 70
     0
  9
$PSLTSCALE
 70
     1
  0
ENDSEC
  0
SECTION
  2
TABLES
  0
TABLE
  2
VPORT
 70
     1
  0
VPORT
  2
*ACTIVE
 70
     0
 10
0.0
 20
0.0
 11
1.0
 21
1.0
 12
0.0
 22
0.0
 13
0.0
 23
0.0
 14
1.0
 24
1.0
 15
0.0
 25
0.0
 16
-0.0000000000000036
 26
0.0
 36
14.929070717976289
 17
9.2535548210144043
 27
2.9074891805648799
 37
0.0
 40
5.1810134089630786
 41
2.1638418079096038
 42
50.0
 43
0.0
 44
0.0
 50
0.0
 51
0.0
 71
     0
 72
   100
 73
     1
 74
     1
 75
     0
 76
     0
 77
     0
 78
     0
  0
ENDTAB
  0
TABLE
  2
LTYPE
 70
     8
  0
LTYPE
  2
CONTINUOUS
 70
     0
  3
Solid line
 72
    65
 73
     0
 40
0.0
  0
LTYPE
  2
PHANTOM2
 70
     0
  3
___ _ _ ___ _ _ ___ _ _ ___ _ _
 72
    65
 73
     6
 40
1.25
 49
0.625
 49
-0.125
 49
0.125
 49
-0.125
 49
0.125
 49
-0.125
  0
ENDTAB
  0
TABLE
  2
LAYER
 70
    11
  0
LAYER
  2
0
 70
     0
 62
     7
  6
CONTINUOUS
  0
LAYER
  2
DEFPOINTS
 70
     0
 62
     7
  6
CONTINUOUS
  0
ENDTAB
  0
TABLE
  2
STYLE
 70
     2
  0
STYLE
  2
STANDARD
 70
     0
 40
0.0
 41
0.8
 50
0.0
 71
     0
 42
0.2
  3
txt
  4

  0
ENDTAB
  0
TABLE
  2
VIEW
 70
     0
  0
ENDTAB
  0
TABLE
  2
UCS
 70
     0
  0
ENDTAB
  0
TABLE
  2
APPID
 70
     7
  0
APPID
  2
ACAD
 70
     0
  0
APPID
  2
ACAD_MLEADERVER
 70
     0
  0
APPID
  2
ACAD_NAV_VCDISPLAY
 70
     0
  0
APPID
  2
ACAD_EXEMPT_FROM_CAD_STANDARDS
 70
     0
  0
APPID
  2
ACAD_DSTYLE_DIMJAG
 70
     0
  0
APPID
  2
ACAD_DSTYLE_DIMTALN
 70
     0
  0
APPID
  2
AcDbAttr
 70
     0
  0
ENDTAB
  0
TABLE
  2
DIMSTYLE
 70
     2
  0
DIMSTYLE
  2
STANDARD
 70
     0
  3

  4

  5

  6

  7

 40
1.0
 41
0.1875
 42
0.0625
 43
0.38
 44
0.125
 45
0.0
 46
0.0
 47
1.5
 48
1.5
140
0.15625
141
0.09
142
0.0
143
25.399999999999999
144
1.0
145
0.0
146
1.0
147
0.09
 71
     0
 72
     0
 73
     1
 74
     1
 75
     0
 76
     0
 77
     0
 78
     4
170
     0
171
     2
172
     0
173
     0
174
     0
175
     0
176
     0
177
     0
178
     0
  0
ENDTAB
  0
ENDSEC
  0
SECTION
  2
BLOCKS
  0
BLOCK
  8
0
  2
$MODEL_SPACE
 70
     0
 10
0.0
 20
0.0
 30
0.0
  3
$MODEL_SPACE
  1

  0
ENDBLK
  5
21
  8
0
  0
BLOCK
 67
     1
  8
0
  2
$PAPER_SPACE
 70
     0
 10
0.0
 20
0.0
 30
0.0
  3
$PAPER_SPACE
  1

  0
ENDBLK
  5
1D
 67
     1
  8
0
  0
BLOCK
  8
0
  2
*D10
 70
     1
 10
0.0
 20
0.0
 30
0.0
  3
*D10
  1

  0
LINE
  5
1C22
  8
0
 62
     0
 10
7.3168354426999986
 20
2.6796584579999991
 30
0.0
 11
14.39889980670663
 21
2.6796584579999969
 31
0.0
  0
LINE
  5
1C23
  8
0
 62
     0
 10
10.434105698242631
 20
1.5544712418999991
 30
0.0
 11
14.39889980670663
 21
1.554471241899998
 31
0.0
  0
LINE
  5
1C24
  8
0
 62
     0
 10
14.273899806706639
 20
2.4921584579999969
 30
0.0
 11
14.273899806706639
 21
1.741971241899998
 31
0.0
  0
LINE
  5
1C25
  8
0
 62
     0
 10
14.273899806706639
 20
1.554471241899998
 30
0.0
 11
14.273899806706639
 21
1.366971241899998
 31
0.0
  0
LINE
  5
1C26
  8
0
 62
     0
 10
14.273899806706639
 20
1.366971241899998
 30
0.0
 11
14.08639980670663
 21
1.366971241899998
 31
0.0
  0
SOLID
  5
1C27
  8
0
 62
     0
 10
14.24264980670663
 20
2.4921584579999969
 30
0.0
 11
14.305149806706639
 21
2.4921584579999969
 31
0.0
 12
14.273899806706639
 22
2.6796584579999969
 32
0.0
 13
14.273899806706639
 23
2.6796584579999969
 33
0.0
  0
SOLID
  5
1C28
  8
0
 62
     0
 10
14.24264980670663
 20
1.741971241899998
 30
0.0
 11
14.305149806706639
 21
1.741971241899998
 31
0.0
 12
14.273899806706639
 22
1.554471241899998
 32
0.0
 13
14.273899806706639
 23
1.554471241899998
 33
0.0
  0
INSERT
  5
1C29
  8
0
  2
*U15
 10
0.0
 20
0.0
 30
0.0
  0
INSERT
  5
1C2A
  8
0
  2
*U16
 10
0.0
 20
0.0
 30
0.0
  0
POINT
  5
1C2B
  8
DEFPOINTS
 62
     0
 10
7.2543354426999986
 20
2.6796584579999991
 30
0.0
  0
POINT
  5
1C2C
  8
DEFPOINTS
 62
     0
 10
10.371605698242631
 20
1.5544712418999991
 30
0.0
  0
POINT
  5
1C2D
  8
DEFPOINTS
 62
     0
 10
14.273899806706639
 20
1.554471241899998
 30
0.0
  0
ENDBLK
  5
1C21
  8
0
  0
BLOCK
  8
0
  2
*D11
 70
     1
 10
0.0
 20
0.0
 30
0.0
  3
*D11
  1

  0
LINE
  5
1C32
  8
0
 62
     0
 10
7.2543354427000004
 20
2.7570531138849499
 30
0.0
 11
7.2543354427000004
 21
5.9201641009538006
 31
0.0
  0
LINE
  5
1C33
  8
0
 62
     0
 10
11.2527488285
 20
4.318517987399999
 30
0.0
 11
11.2527488285
 21
5.9201641009538006
 31
0.0
  0
LINE
  5
1C34
  8
0
 62
     0
 10
7.4418354427000004
 20
5.7951641009538006
 30
0.0
 11
8.0635421356000005
 21
5.7951641009538006
 31
0.0
  0
LINE
  5
1C35
  8
0
 62
     0
 10
11.0652488285
 20
5.7951641009538006
 30
0.0
 11
10.4435421356
 21
5.7951641009538006
 31
0.0
  0
SOLID
  5
1C36
  8
0
 62
     0
 10
7.4418354427000004
 20
5.8264141009538006
 30
0.0
 11
7.4418354427000004
 21
5.7639141009538006
 31
0.0
 12
7.2543354427000004
 22
5.7951641009538006
 32
0.0
 13
7.2543354427000004
 23
5.7951641009538006
 33
0.0
  0
SOLID
  5
1C37
  8
0
 62
     0
 10
11.0652488285
 20
5.8264141009538006
 30
0.0
 11
11.0652488285
 21
5.7639141009538006
 31
0.0
 12
11.2527488285
 22
5.7951641009538006
 32
0.0
 13
11.2527488285
 23
5.7951641009538006
 33
0.0
  0
INSERT
  5
1C38
  8
0
  2
*U17
 10
0.0
 20
0.0
 30
0.0
  0
INSERT
  5
1C39
  8
0
  2
*U18
 10
0.0
 20
0.0
 30
0.0
  0
POINT
  5
1C3A
  8
DEFPOINTS
 62
     0
 10
7.2543354427000004
 20
2.6945531138849499
 30
0.0
  0
POINT
  5
1C3B
  8
DEFPOINTS
 62
     0
 10
11.2527488285
 20
4.256017987399999
 30
0.0
  0
POINT
  5
1C3C
  8
DEFPOINTS
 62
     0
 10
11.2527488285
 20
5.7951641009538006
 30
0.0
  0
ENDBLK
  5
1C31
  8
0
  0
BLOCK
  8
0
  2
*D12
 70
     1
 10
0.0
 20
0.0
 30
0.0
  3
*D12
  1

  0
LINE
  5
1C41
  8
0
 62
     0
 10
4.4422742863799796
 20
1.749384395953868
 30
0.0
 11
4.4422742863799796
 21
0.2397244956837845
 31
0.0
  0
LINE
  5
1C42
  8
0
 62
     0
 10
6.1753935148985626
 20
2.6925769618437649
 30
0.0
 11
6.1753935148985626
 21
0.2397244956837845
 31
0.0
  0
LINE
  5
1C43
  8
0
 62
     0
 10
4.6297742863799796
 20
0.3647244956837845
 30
0.0
 11
5.9878935148985626
 21
0.3647244956837845
 31
0.0
  0
LINE
  5
1C44
  8
0
 62
     0
 10
6.1753935148985626
 20
0.3647244956837845
 30
0.0
 11
6.3628935148985626
 21
0.3647244956837845
 31
0.0
  0
SOLID
  5
1C45
  8
0
 62
     0
 10
4.6297742863799796
 20
0.3959744956837845
 30
0.0
 11
4.6297742863799796
 21
0.3334744956837845
 31
0.0
 12
4.4422742863799796
 22
0.3647244956837845
 32
0.0
 13
4.4422742863799796
 23
0.3647244956837845
 33
0.0
  0
SOLID
  5
1C46
  8
0
 62
     0
 10
5.9878935148985626
 20
0.3959744956837845
 30
0.0
 11
5.9878935148985626
 21
0.3334744956837845
 31
0.0
 12
6.1753935148985626
 22
0.3647244956837845
 32
0.0
 13
6.1753935148985626
 23
0.3647244956837845
 33
0.0
  0
INSERT
  5
1C47
  8
0
  2
*U19
 10
0.0
 20
0.0
 30
0.0
  0
INSERT
  5
1C48
  8
0
  2
*U20
 10
0.0
 20
0.0
 30
0.0
  0
POINT
  5
1C49
  8
DEFPOINTS
 62
     0
 10
4.4422742863799796
 20
1.811884395953868
 30
0.0
  0
POINT
  5
1C4A
  8
DEFPOINTS
 62
     0
 10
6.1753935148985626
 20
2.7550769618437649
 30
0.0
  0
POINT
  5
1C4B
  8
DEFPOINTS
 62
     0
 10
6.1753935148985626
 20
0.3647244956837845
 30
0.0
  0
ENDBLK
  5
1C40
  8
0
  0
BLOCK
  8
0
  2
*D13
 70
     1
 10
0.0
 20
0.0
 30
0.0
  3
*D13
  1

  0
LINE
  5
1C50
  8
0
 62
     0
 10
4.8723338959381968
 20
4.5548649427000001
 30
0.0
 11
1.9887727735053751
 21
4.5548649427000001
 31
0.0
  0
LINE
  5
1C51
  8
0
 62
     0
 10
5.6107711818125523
 20
1.5544712418999991
 30
0.0
 11
1.988772773505374
 21
1.5544712419000011
 31
0.0
  0
LINE
  5
1C52
  8
0
 62
     0
 10
2.113772773505374
 20
4.3673649427000001
 30
0.0
 11
2.113772773505374
 21
3.7346680923000011
 31
0.0
  0
LINE
  5
1C53
  8
0
 62
     0
 10
2.113772773505374
 20
1.7419712419000011
 30
0.0
 11
2.113772773505374
 21
2.3746680922999999
 31
0.0
  0
SOLID
  5
1C54
  8
0
 62
     0
 10
2.082522773505374
 20
4.3673649427000001
 30
0.0
 11
2.145022773505374
 21
4.3673649427000001
 31
0.0
 12
2.113772773505374
 22
4.5548649427000001
 32
0.0
 13
2.113772773505374
 23
4.5548649427000001
 33
0.0
  0
SOLID
  5
1C55
  8
0
 62
     0
 10
2.082522773505374
 20
1.7419712419000011
 30
0.0
 11
2.145022773505374
 21
1.7419712419000011
 31
0.0
 12
2.113772773505374
 22
1.5544712419000011
 32
0.0
 13
2.113772773505374
 23
1.5544712419000011
 33
0.0
  0
INSERT
  5
1C56
  8
0
  2
*U21
 10
0.0
 20
0.0
 30
0.0
  0
INSERT
  5
1C57
  8
0
  2
*U22
 10
0.0
 20
0.0
 30
0.0
  0
POINT
  5
1C58
  8
DEFPOINTS
 62
     0
 10
4.9348338959381968
 20
4.5548649427000001
 30
0.0
  0
POINT
  5
1C59
  8
DEFPOINTS
 62
     0
 10
5.6732711818125523
 20
1.5544712418999991
 30
0.0
  0
POINT
  5
1C5A
  8
DEFPOINTS
 62
     0
 10
2.113772773505374
 20
1.5544712419000011
 30
0.0
  0
ENDBLK
  5
1C4F
  8
0
  0
BLOCK
  8
0
  2
*U15
 70
     1
 10
0.0
 20
0.0
 30
0.0
  3
*U15
  1

  0
TEXT
  5
1EA2
  8
0
 62
     0
 10
12.063066473373301
 20
1.4569712419000009
 30
0.0
 40
0.5
  1
1.1252
 41
0.8
  0
ENDBLK
  5
1EA4
  8
0
  0
BLOCK
  8
0
  2
*U16
 70
     1
 10
0.0
 20
0.0
 30
0.0
  3
*U16
  1

  0
TEXT
  5
1EA6
  8
0
 62
     0
 10
11.8630664733733
 20
0.776971241900001
 30
0.0
 40
0.5
  1
[28.58]
 41
0.8
  0
ENDBLK
  5
1EA8
  8
0
  0
BLOCK
  8
0
  2
*U17
 70
     1
 10
0.0
 20
0.0
 30
0.0
  3
*U17
  1

  0
TEXT
  5
1EAA
  8
0
 62
     0
 10
8.2535421356000001
 20
5.8851641009538014
 30
0.0
 40
0.5
  1
3.9984
 41
0.8
  0
ENDBLK
  5
1EAC
  8
0
  0
BLOCK
  8
0
  2
*U18
 70
     1
 10
0.0
 20
0.0
 30
0.0
  3
*U18
  1

  0
TEXT
  5
1EAE
  8
0
 62
     0
 10
8.1535421356000004
 20
5.2051641009538008
 30
0.0
 40
0.5
  1
[101.56]
 41
0.8
  0
ENDBLK
  5
1EB0
  8
0
  0
BLOCK
  8
0
  2
*U19
 70
     1
 10
0.0
 20
0.0
 30
0.0
  3
*U19
  1

  0
TEXT
  5
1EB2
  8
0
 62
     0
 10
6.6195601815652303
 20
0.4547244956837845
 30
0.0
 40
0.5
  1
1.7331
 41
0.8
  0
ENDBLK
  5
1EB4
  8
0
  0
BLOCK
  8
0
  2
*U20
 70
     1
 10
0.0
 20
0.0
 30
0.0
  3
*U20
  1

  0
TEXT
  5
1EB6
  8
0
 62
     0
 10
6.4528935148985633
 20
-0.2252755043162154
 30
0.0
 40
0.5
  1
[44.02]
 41
0.8
  0
ENDBLK
  5
1EB8
  8
0
  0
BLOCK
  8
0
  2
*U21
 70
     1
 10
0.0
 20
0.0
 30
0.0
  3
*U21
  1

  0
TEXT
  5
1EBA
  8
0
 62
     0
 10
1.213772773505374
 20
3.1446680923000012
 30
0.0
 40
0.5
  1
3.0004
 41
0.8
  0
ENDBLK
  5
1EBC
  8
0
  0
BLOCK
  8
0
  2
*U22
 70
     1
 10
0.0
 20
0.0
 30
0.0
  3
*U22
  1

  0
TEXT
  5
1EBE
  8
0
 62
     0
 10
1.1137727735053731
 20
2.4646680923000011
 30
0.0
 40
0.5
  1
[76.21]
 41
0.8
  0
ENDBLK
  5
1EC0
  8
0
  0
ENDSEC
  0
SECTION
  2
ENTITIES
  0
LINE
  5
1738
  8
0
 10
8.7998275686999996
 20
4.0989494654999987
 30
0.0
 11
8.7998275686999996
 21
1.260113505199999
 31
0.0
  0
LINE
  5
1739
  8
0
 10
8.7998275686999996
 20
1.260113505199999
 30
0.0
 11
8.7213688850514934
 21
1.266977746949447
 31
0.0
  0
ARC
  5
173A
  8
0
 10
8.7318275687471143
 20
1.386521111738513
 30
0.0
 40
0.1200000005405705
 50
179.99480395965361
 51
265.00000262708272
  0
LINE
  5
173B
  8
0
 10
8.6118275687000025
 20
1.386531994300001
 30
0.0
 11
8.6119618180462911
 21
3.9725418533125971
 31
0.0
  0
LINE
  5
173C
  8
0
 10
8.6118275687000008
 20
2.0546584579999991
 30
0.0
 11
8.6007803245999987
 21
2.0546584579999991
 31
0.0
  0
LINE
  5
173D
  8
0
 10
8.6007803245999987
 20
2.0006584580000011
 30
0.0
 11
8.6007916124434871
 21
3.358756253753556
 31
0.0
  0
ARC
  5
173E
  8
0
 10
8.5947803245999985
 20
2.0006584580000042
 30
0.0
 40
0.006000000000002
 50
270.000000000017
 51
359.99999999897369
  0
LINE
  5
173F
  8
0
 10
8.5947803246000021
 20
1.994658458
 30
0.0
 11
8.5817803246000004
 21
1.9946584579999971
 31
0.0
  0
ARC
  5
1740
  8
0
 10
8.5817803246000004
 20
2.0006584579999949
 30
0.0
 40
0.0059999999999985
 50
179.9999999999491
 51
270.00000000001432
  0
LINE
  5
1741
  8
0
 10
8.5757803246000002
 20
2.0006584580000011
 30
0.0
 11
8.5757916124446858
 21
3.358756253753556
 31
0.0
  0
LINE
  5
1742
  8
0
 10
8.5757803246000002
 20
2.0767057020999999
 30
0.0
 11
8.5696779624000001
 21
2.0767057020999999
 31
0.0
  0
LINE
  5
1744
  8
0
 10
8.5696779624000001
 20
2.5176715021000011
 30
0.0
 11
8.5696779624000001
 21
2.054668351200001
 31
0.0
  0
LINE
  5
1745
  8
0
 10
8.5696779624000001
 20
2.054668351200001
 30
0.0
 11
8.4848354426999997
 21
2.0546584579999991
 31
0.0
  0
LINE
  5
1746
  8
0
 10
8.4848354426999997
 20
2.0546584579999991
 30
0.0
 11
8.4598354427000011
 21
2.0796584580000008
 31
0.0
  0
LINE
  5
1747
  8
0
 10
8.4598354427000011
 20
2.0796584580000008
 30
0.0
 11
8.4598354427000011
 21
3.2796549151000001
 31
0.0
  0
LINE
  5
1748
  8
0
 10
8.4598354427000011
 20
2.2209084580000011
 30
0.0
 11
8.4498354426999995
 21
2.2109084579999991
 31
0.0
  0
LINE
  5
1749
  8
0
 10
8.4498354426999995
 20
2.2109084579999991
 30
0.0
 11
8.3598354426999997
 21
2.2109084579999991
 31
0.0
  0
LINE
  5
174A
  8
0
 10
8.3598354426999997
 20
2.2109084579999991
 30
0.0
 11
8.3498354426999981
 21
2.2209084580000011
 31
0.0
  0
LINE
  5
174B
  8
0
 10
8.3498354426999981
 20
2.2209084580000011
 30
0.0
 11
8.3498354426999981
 21
3.1384084580000011
 31
0.0
  0
ARC
  5
174C
  8
0
 10
8.3398354427000001
 20
2.3746584580000012
 30
0.0
 40
0.0099999999999998
 50
359.99999999999488
 51
89.999999999999986
  0
LINE
  5
174D
  8
0
 10
8.3398354427000001
 20
2.384658458000001
 30
0.0
 11
8.2998354426999992
 21
2.384658458000001
 31
0.0
  0
ARC
  5
174E
  8
0
 10
8.2998354426999992
 20
2.374658457999999
 30
0.0
 40
0.0099999999999998
 50
89.999999999999986
 51
180.0
  0
LINE
  5
1754
  8
0
 10
8.093335442699999
 20
2.4714084579999991
 30
0.0
 11
8.0598354426999972
 21
2.4714084579999991
 31
0.0
  0
ARC
  5
1755
  8
0
 10
8.0598354426999972
 20
2.473908457999999
 30
0.0
 40
0.0024999999999995
 50
179.99999999997959
 51
270.00000000000313
  0
LINE
  5
175B
  8
0
 10
7.9433354426999987
 20
2.3909383845000001
 30
0.0
 11
7.8773354426999997
 21
2.390928750200001
 31
0.0
  0
LINE
  5
175C
  8
0
 10
7.8773354426999997
 20
2.390928750200001
 30
0.0
 11
7.8773354426999997
 21
2.9683881658000009
 31
0.0
  0
LINE
  5
175D
  8
0
 10
7.8773354426999997
 20
2.5211643858581039
 30
0.0
 11
7.8662018586294877
 21
2.5370647917828109
 31
0.0
  0
ARC
  5
175E
  8
0
 10
7.8583379989999997
 20
2.5315584580000001
 30
0.0
 40
0.0096000000000002
 50
34.999999955116209
 51
65.249090555895236
  0
LINE
  5
175F
  8
0
 10
7.8623354427000001
 20
2.9539280416000002
 30
0.0
 11
7.8623354427000001
 21
2.4502746939999991
 31
0.0
  0
LINE
  5
1763
  8
0
 10
7.8023354426999987
 20
2.9539280416000002
 30
0.0
 11
7.8023354426999969
 21
2.4502746939999991
 31
0.0
  0
ARC
  5
1766
  8
0
 10
7.8089354427000073
 20
2.5315584579999961
 30
0.0
 40
0.0096000000000081
 50
134.01488927140721
 51
179.99999999996811
  0
LINE
  5
1767
  8
0
 10
7.7993354426999986
 20
2.828807381299999
 30
0.0
 11
7.7993354426999986
 21
2.5305084579999999
 31
0.0
  0
ARC
  5
1768
  8
0
 10
7.7897354426999996
 20
2.5305084579999999
 30
0.0
 40
0.0095999999999989
 50
270.0
 51
359.99999999999471
  0
LINE
  5
1769
  8
0
 10
7.7897354426999996
 20
2.520908458000001
 30
0.0
 11
7.7215614396000012
 21
2.520908458000001
 31
0.0
  0
LINE
  5
176A
  8
0
 10
7.7215614396000012
 20
2.520908458000001
 30
0.0
 11
7.7131906741999998
 21
2.5292792234300419
 31
0.0
  0
ARC
  5
176B
  8
0
 10
7.6828601972233699
 20
2.5019709893643309
 30
0.0
 40
0.0408127122526494
 50
41.998487172327764
 51
136.26136693395949
  0
LINE
  5
176C
  8
0
 10
7.6533729661999983
 20
2.5301876632999978
 30
0.0
 11
7.2824562081000002
 21
2.530187632200001
 31
0.0
  0
LINE
  5
176D
  8
0
 10
7.2824562257409822
 20
2.530187632200001
 30
0.0
 11
7.2543354426999986
 21
2.5572792233999988
 31
0.0
  0
LINE
  5
176E
  8
0
 10
7.2543354426999986
 20
2.5572792233999988
 30
0.0
 11
7.2543354426999986
 21
2.802037692599999
 31
0.0
  0
LINE
  5
176F
  8
0
 10
7.2543354426999986
 20
2.802037692599999
 30
0.0
 11
7.2824548331999983
 21
2.8291292820999989
 31
0.0
  0
LINE
  5
1770
  8
0
 10
7.2824548331999983
 20
2.8291292820999989
 30
0.0
 11
7.653372966200001
 21
2.8291292820999989
 31
0.0
  0
LINE
  5
1771
  8
0
 10
7.2638562080999991
 20
2.6796584579999991
 30
0.0
 11
7.2824562081000002
 21
2.697229215400001
 31
0.0
  0
LINE
  5
1772
  8
0
 10
7.2824562081000002
 20
2.697229215400001
 30
0.0
 11
7.2824562081000002
 21
2.7091366360999989
 31
0.0
  0
LINE
  5
1773
  8
0
 10
7.2824562081000002
 20
2.7091366360999989
 30
0.0
 11
7.2638562080999991
 21
2.7204177995999999
 31
0.0
  0
LINE
  5
1774
  8
0
 10
7.2638562080999991
 20
2.7204177995999999
 30
0.0
 11
7.2824562081000002
 21
2.742558331799998
 31
0.0
  0
LINE
  5
1775
  8
0
 10
7.2824562081000002
 20
2.742558331799998
 30
0.0
 11
7.2824562081000002
 21
2.7533001088000022
 31
0.0
  0
LINE
  5
1776
  8
0
 10
7.2824562081000002
 20
2.7533001088000022
 30
0.0
 11
7.2638562080999991
 21
2.7571873328000009
 31
0.0
  0
LINE
  5
1777
  8
0
 10
7.2638562080999991
 20
2.7571873328000009
 30
0.0
 11
7.2824562081000002
 21
2.7817302280999989
 31
0.0
  0
LINE
  5
1778
  8
0
 10
7.2824562081000002
 20
2.7817302280999989
 30
0.0
 11
7.2824562639540451
 21
2.7902550236000012
 31
0.0
  0
LINE
  5
1779
  8
0
 10
7.2824562639540451
 20
2.7902550236000012
 30
0.0
 11
7.2638562080999991
 21
2.7863677996000011
 31
0.0
  0
LINE
  5
177A
  8
0
 10
7.2638562080999991
 20
2.7863677996000011
 30
0.0
 11
7.2824548359000003
 21
2.8109107685999999
 31
0.0
  0
LINE
  5
177B
  8
0
 10
7.2824548359000003
 20
2.8109107685999999
 30
0.0
 11
7.2824562081000002
 21
2.8163839759999978
 31
0.0
  0
LINE
  5
177C
  8
0
 10
7.2824562081000002
 20
2.8163839759999978
 30
0.0
 11
7.2638562080999991
 21
2.8051028124999999
 31
0.0
  0
LINE
  5
177D
  8
0
 10
7.2638562080999991
 20
2.8051028124999999
 30
0.0
 11
7.2824562081000002
 21
2.8272433446999981
 31
0.0
  0
LINE
  5
177E
  8
0
 10
7.2824562081000002
 20
2.8272433446999981
 30
0.0
 11
7.2824548331999983
 21
2.8291292820999989
 31
0.0
  0
LINE
  5
177F
  8
0
 10
7.2824548359000003
 20
2.8272433446999981
 30
0.0
 11
7.6533689090999983
 21
2.8272433446999981
 31
0.0
  0
LINE
  5
1780
  8
0
 10
7.6533689090999983
 20
2.8272433446999981
 30
0.0
 11
7.653372966200001
 21
2.8291292820999989
 31
0.0
  0
LINE
  5
1781
  8
0
 10
7.2824326096888532
 20
2.8163839759999978
 30
0.0
 11
7.6533689208000011
 21
2.8163839759999978
 31
0.0
  0
LINE
  5
1782
  8
0
 10
7.2824325979888522
 20
2.8109107685999999
 30
0.0
 11
7.6533689090999983
 21
2.8109107685999999
 31
0.0
  0
LINE
  5
1783
  8
0
 10
7.2824548359000003
 20
2.7902550236000012
 30
0.0
 11
7.6533689090999983
 21
2.7902550236000012
 31
0.0
  0
LINE
  5
1784
  8
0
 10
7.2824325979888522
 20
2.7817303018000001
 30
0.0
 11
7.653346671188852
 21
2.7817303018000001
 31
0.0
  0
LINE
  5
1785
  8
0
 10
7.2824548359000003
 20
2.7533001088000022
 30
0.0
 11
7.6533689090999983
 21
2.7533001088000022
 31
0.0
  0
LINE
  5
1786
  8
0
 10
7.2824325979888522
 20
2.742558331799998
 30
0.0
 11
7.6533729661999983
 21
2.7425582569999989
 31
0.0
  0
LINE
  5
1787
  8
0
 10
7.2824548359000003
 20
2.7091366360999989
 30
0.0
 11
7.6533689090999983
 21
2.7091366360999989
 31
0.0
  0
LINE
  5
1788
  8
0
 10
7.2824325979888522
 20
2.6972292839000009
 30
0.0
 11
7.6533729661999983
 21
2.697229215400001
 31
0.0
  0
LINE
  5
1789
  8
0
 10
7.6533729661999983
 20
2.697229215400001
 30
0.0
 11
7.6533689090999983
 21
2.7091366360999989
 31
0.0
  0
LINE
  5
178A
  8
0
 10
7.6533729661999983
 20
2.7425582569999989
 30
0.0
 11
7.6533689090999983
 21
2.7533001088000022
 31
0.0
  0
LINE
  5
178B
  8
0
 10
7.653346671188852
 20
2.7817303018000001
 30
0.0
 11
7.6533689090999983
 21
2.7902550236000012
 31
0.0
  0
LINE
  5
178C
  8
0
 10
7.6533689090999983
 20
2.8109107685999999
 30
0.0
 11
7.6533689208000011
 21
2.8163839759999978
 31
0.0
  0
ARC
  5
178D
  8
0
 10
7.6835777630476114
 20
2.8487973773426418
 30
0.0
 40
0.0371099876042587
 50
215.50787671565479
 51
286.85115337246413
  0
ARC
  5
178E
  8
0
 10
7.6842586937499977
 20
2.870866258439527
 30
0.0
 40
0.0626298425091685
 50
240.44810125576419
 51
279.25877528165557
  0
ARC
  5
178F
  8
0
 10
7.6839636050295166
 20
2.829935305486984
 30
0.0
 40
0.036027328832207
 50
211.8743684849255
 51
286.73155919842441
  0
ARC
  5
1790
  8
0
 10
7.6836801155426704
 20
2.953268698849064
 30
0.0
 40
0.165807803055879
 50
259.46656415649181
 51
273.68454471140171
  0
ARC
  5
1791
  8
0
 10
7.6858705660010376
 20
2.8029196032724362
 30
0.0
 40
0.0388173959796879
 50
213.0842237084542
 51
261.74617388374378
  0
ARC
  5
1792
  8
0
 10
7.6841242160218703
 20
2.7910091891641651
 30
0.0
 40
0.0267796548787925
 50
261.78557812023922
 51
292.41456482064859
  0
ARC
  5
1793
  8
0
 10
7.6835062068182101
 20
2.593169061627226
 30
0.0
 40
0.1629423486464027
 50
86.189282920619732
 51
100.65861458776661
  0
ARC
  5
1794
  8
0
 10
7.6866110602863547
 20
2.7682459719534478
 30
0.0
 40
0.0420074945458917
 50
217.69826954145361
 51
257.13871732050688
  0
ARC
  5
1795
  8
0
 10
7.683696047215224
 20
2.75547871748071
 30
0.0
 40
0.028911690333224
 50
257.13871732050927
 51
291.59209776344301
  0
ARC
  5
1796
  8
0
 10
7.6834042788784469
 20
2.6576890999339788
 30
0.0
 40
0.0595732525155542
 50
79.426824918039102
 51
120.2766303822313
  0
ARC
  5
1797
  8
0
 10
7.6835286068506212
 20
2.7274528932286088
 30
0.0
 40
0.0426946526457
 50
225.06456252897311
 51
284.66216679819797
  0
LINE
  5
1798
  8
0
 10
7.6943354426999999
 20
2.6861485875999991
 30
0.0
 11
7.6943354426999999
 21
2.6731683284000001
 31
0.0
  0
LINE
  5
1799
  8
0
 10
7.6943354426999999
 20
2.7162508798999991
 30
0.0
 11
7.6943354426999999
 21
2.728595840000001
 31
0.0
  0
LINE
  5
179A
  8
0
 10
7.6943354426999999
 20
2.755751153607314
 30
0.0
 11
7.6943354426999999
 21
2.7662527604000009
 31
0.0
  0
LINE
  5
179B
  8
0
 10
7.6943354426999999
 20
2.7878036223000011
 30
0.0
 11
7.6943354426999999
 21
2.7954332272000011
 31
0.0
  0
LINE
  5
179C
  8
0
 10
7.6943354426999999
 20
2.8132808529000011
 30
0.0
 11
7.6943354426999999
 21
2.8090523740500011
 31
0.0
  0
LINE
  5
179D
  8
0
 10
7.2638562080999991
 20
2.6796584579999991
 30
0.0
 11
7.2824562081000002
 21
2.6620877006000012
 31
0.0
  0
LINE
  5
179E
  8
0
 10
7.2824562081000002
 20
2.6620877006000012
 30
0.0
 11
7.2824562081000002
 21
2.6501802798999989
 31
0.0
  0
LINE
  5
179F
  8
0
 10
7.2824562081000002
 20
2.6501802798999989
 30
0.0
 11
7.2638562080999991
 21
2.6388991164000011
 31
0.0
  0
LINE
  5
17A0
  8
0
 10
7.2638562080999991
 20
2.6388991164000011
 30
0.0
 11
7.2824562081000002
 21
2.6167585841999998
 31
0.0
  0
LINE
  5
17A1
  8
0
 10
7.2824562081000002
 20
2.6167585841999998
 30
0.0
 11
7.2824562081000002
 21
2.6060168072000001
 31
0.0
  0
LINE
  5
17A2
  8
0
 10
7.2824562081000002
 20
2.6060168072000001
 30
0.0
 11
7.2638562080999991
 21
2.6021295832
 31
0.0
  0
LINE
  5
17A3
  8
0
 10
7.2638562080999991
 20
2.6021295832
 30
0.0
 11
7.2824562081000002
 21
2.5775866878999989
 31
0.0
  0
LINE
  5
17A4
  8
0
 10
7.2824562081000002
 20
2.5775866878999989
 30
0.0
 11
7.2824562639540451
 21
2.569061892400001
 31
0.0
  0
LINE
  5
17A5
  8
0
 10
7.2824562639540451
 20
2.569061892400001
 30
0.0
 11
7.2638562080999991
 21
2.5729491164000011
 31
0.0
  0
LINE
  5
17A6
  8
0
 10
7.2638562080999991
 20
2.5729491164000011
 30
0.0
 11
7.2824548359000003
 21
2.5484061474000019
 31
0.0
  0
LINE
  5
17A7
  8
0
 10
7.2824548359000003
 20
2.5484061474000019
 30
0.0
 11
7.2824562081000002
 21
2.54293294
 31
0.0
  0
LINE
  5
17A8
  8
0
 10
7.2824562081000002
 20
2.54293294
 30
0.0
 11
7.2638562080999991
 21
2.5542141034999979
 31
0.0
  0
LINE
  5
17A9
  8
0
 10
7.2638562080999991
 20
2.5542141034999979
 30
0.0
 11
7.2824562081000002
 21
2.5320735713000002
 31
0.0
  0
LINE
  5
17AA
  8
0
 10
7.2824562081000002
 20
2.5320735713000002
 30
0.0
 11
7.2824548331999983
 21
2.5301876338999989
 31
0.0
  0
LINE
  5
17AB
  8
0
 10
7.2824548359000003
 20
2.5320735713000002
 30
0.0
 11
7.6533689090999983
 21
2.5320735713000002
 31
0.0
  0
LINE
  5
17AC
  8
0
 10
7.6533689090999983
 20
2.5320735713000002
 30
0.0
 11
7.653372966200001
 21
2.5301876338999989
 31
0.0
  0
LINE
  5
17AD
  8
0
 10
7.2824326096888532
 20
2.54293294
 30
0.0
 11
7.6533689208000011
 21
2.54293294
 31
0.0
  0
LINE
  5
17AE
  8
0
 10
7.2824325979888522
 20
2.5484061474000019
 30
0.0
 11
7.6533689090999983
 21
2.5484061474000019
 31
0.0
  0
LINE
  5
17AF
  8
0
 10
7.2824548359000003
 20
2.569061892400001
 30
0.0
 11
7.6533689090999983
 21
2.569061892400001
 31
0.0
  0
LINE
  5
17B0
  8
0
 10
7.2824325979888522
 20
2.5775866142000021
 30
0.0
 11
7.653346671188852
 21
2.5775866142000021
 31
0.0
  0
LINE
  5
17B1
  8
0
 10
7.2824548359000003
 20
2.6060168072000001
 30
0.0
 11
7.6533689090999983
 21
2.6060168072000001
 31
0.0
  0
LINE
  5
17B2
  8
0
 10
7.2824325979888522
 20
2.6167585841999998
 30
0.0
 11
7.6533729661999983
 21
2.6167586589999989
 31
0.0
  0
LINE
  5
17B3
  8
0
 10
7.2824548359000003
 20
2.6501802798999989
 30
0.0
 11
7.6533689090999983
 21
2.6501802798999989
 31
0.0
  0
LINE
  5
17B4
  8
0
 10
7.2824325979888522
 20
2.6620876321000009
 30
0.0
 11
7.6533729661999983
 21
2.6620877006000012
 31
0.0
  0
LINE
  5
17B5
  8
0
 10
7.6533729661999983
 20
2.6620877006000012
 30
0.0
 11
7.6533689090999983
 21
2.6501802798999989
 31
0.0
  0
LINE
  5
17B6
  8
0
 10
7.6533729661999983
 20
2.6167586589999989
 30
0.0
 11
7.6533689090999983
 21
2.6060168072000001
 31
0.0
  0
LINE
  5
17B7
  8
0
 10
7.653346671188852
 20
2.5775866142000021
 30
0.0
 11
7.6533689090999983
 21
2.569061892400001
 31
0.0
  0
LINE
  5
17B8
  8
0
 10
7.6533689090999983
 20
2.5484061474000019
 30
0.0
 11
7.6533689208000011
 21
2.54293294
 31
0.0
  0
ARC
  5
17B9
  8
0
 10
7.6835777630476114
 20
2.510519538657356
 30
0.0
 40
0.0371099876042587
 50
73.148846627535676
 51
144.4921232843451
  0
ARC
  5
17BA
  8
0
 10
7.6842586937499977
 20
2.4884506575604708
 30
0.0
 40
0.0626298425091685
 50
80.741224718344384
 51
119.5518987442357
  0
ARC
  5
17BB
  8
0
 10
7.6839636050295166
 20
2.5293816105130169
 30
0.0
 40
0.036027328832207
 50
73.268440801575565
 51
148.12563151507439
  0
ARC
  5
17BC
  8
0
 10
7.6836801155426704
 20
2.4060482171509361
 30
0.0
 40
0.165807803055879
 50
86.315455288598315
 51
100.5334358435081
  0
ARC
  5
17BD
  8
0
 10
7.6858705660010376
 20
2.5563973127275661
 30
0.0
 40
0.0388173959796879
 50
98.253826116255993
 51
146.9157762915458
  0
ARC
  5
17BE
  8
0
 10
7.6841242160218703
 20
2.5683077268358372
 30
0.0
 40
0.0267796548787925
 50
67.585435179351393
 51
98.214421879760664
  0
ARC
  5
17BF
  8
0
 10
7.6835062068182101
 20
2.7661478543727762
 30
0.0
 40
0.1629423486464027
 50
259.34138541223319
 51
273.8107170793802
  0
ARC
  5
17C0
  8
0
 10
7.6866110602863547
 20
2.59107094404655
 30
0.0
 40
0.0420074945458917
 50
102.861282679493
 51
142.3017304585463
  0
ARC
  5
17C1
  8
0
 10
7.683696047215224
 20
2.6038381985192922
 30
0.0
 40
0.028911690333224
 50
68.40790223655695
 51
102.8612826794906
  0
ARC
  5
17C2
  8
0
 10
7.6834042788784469
 20
2.701627816066019
 30
0.0
 40
0.0595732525155542
 50
239.7233696177687
 51
280.57317508196093
  0
ARC
  5
17C3
  8
0
 10
7.6835286068506212
 20
2.6318640227713921
 30
0.0
 40
0.0426946526457
 50
75.337833201802042
 51
134.9354374710268
  0
LINE
  5
17C4
  8
0
 10
7.6943354426999999
 20
2.6430660361000031
 30
0.0
 11
7.6943354426999999
 21
2.6307210760000008
 31
0.0
  0
LINE
  5
17C5
  8
0
 10
7.6943354426999999
 20
2.6035657623926838
 30
0.0
 11
7.6943354426999999
 21
2.5930641556000009
 31
0.0
  0
LINE
  5
17C6
  8
0
 10
7.6943354426999999
 20
2.5715132937000011
 30
0.0
 11
7.6943354426999999
 21
2.5638836887999981
 31
0.0
  0
LINE
  5
17C7
  8
0
 10
7.6943354426999999
 20
2.5460360631000012
 30
0.0
 11
7.6943354426999999
 21
2.5502645419499999
 31
0.0
  0
LINE
  5
17C8
  8
0
 10
7.6943354426999999
 20
2.7571873328000009
 30
0.0
 11
7.2638562080999991
 21
2.7571873328000009
 31
0.0
  0
LINE
  5
17C9
  8
0
 10
7.2638562080999991
 20
2.7204177995999999
 30
0.0
 11
7.6943354426999999
 21
2.7204177995999999
 31
0.0
  0
LINE
  5
17CA
  8
0
 10
7.6943354426999999
 20
2.6021295832
 30
0.0
 11
7.2638562080999991
 21
2.6021295832
 31
0.0
  0
LINE
  5
17CB
  8
0
 10
7.2638562080999991
 20
2.6388991164000011
 30
0.0
 11
7.6943354426999999
 21
2.6388991164000011
 31
0.0
  0
LINE
  5
17CC
  8
0
 10
7.2638562080999991
 20
2.6796584579999991
 30
0.0
 11
7.6943354426999999
 21
2.6796584579999991
 31
0.0
  0
LINE
  5
17CD
  8
0
 10
7.8773354427000024
 20
2.8381525301418939
 30
0.0
 11
7.8662018586294904
 21
2.8222521242171892
 31
0.0
  0
ARC
  5
17CE
  8
0
 10
7.8583379990000024
 20
2.827758457999999
 30
0.0
 40
0.0096000000000002
 50
294.75090944410402
 51
325.00000004488311
  0
ARC
  5
17CF
  8
0
 10
7.8089354427000091
 20
2.8277584580000061
 30
0.0
 40
0.0096000000000081
 50
180.00000000003109
 51
225.98511072859191
  0
ARC
  5
17D0
  8
0
 10
7.7897354427000023
 20
2.8288084580000001
 30
0.0
 40
0.0095999999999989
 50
0.00000000000458
 51
89.999999999999275
  0
LINE
  5
17D1
  8
0
 10
7.7897354427000023
 20
2.838408458
 30
0.0
 11
7.7215614396000021
 21
2.838408458
 31
0.0
  0
LINE
  5
17D2
  8
0
 10
7.7215614396000021
 20
2.838408458
 30
0.0
 11
7.7131906742000016
 21
2.8300376925699582
 31
0.0
  0
ARC
  5
17D3
  8
0
 10
7.6828601888341659
 20
2.8573459450984591
 30
0.0
 40
0.0408127308408465
 50
223.7386771682406
 51
318.00150144573189
  0
LINE
  5
17D6
  8
0
 10
7.8473354426999986
 20
2.9696680923000001
 30
0.0
 11
7.8173354427000001
 21
2.9696680923000001
 31
0.0
  0
ARC
  5
17D9
  8
0
 10
8.3398354427000001
 20
2.9846584580000002
 30
0.0
 40
0.0099999999999998
 50
270.0
 51
0.0000000000050889
  0
LINE
  5
17DA
  8
0
 10
8.3398354427000001
 20
2.9746584580000008
 30
0.0
 11
8.2998354426999992
 21
2.9746584580000008
 31
0.0
  0
ARC
  5
17DB
  8
0
 10
8.2998354426999992
 20
2.9846584580000011
 30
0.0
 40
0.0099999999999998
 50
180.0
 51
270.0
  0
LINE
  5
17DE
  8
0
 10
8.093335442699999
 20
2.8879084579999992
 30
0.0
 11
8.0598354426999972
 21
2.8879084580000001
 31
0.0
  0
ARC
  5
17DF
  8
0
 10
8.0598354426999972
 20
2.885408458000001
 30
0.0
 40
0.0024999999999995
 50
89.999999999996916
 51
180.00000000002029
  0
LINE
  5
17E0
  8
0
 10
8.0573354427000012
 20
2.9683881658
 30
0.0
 11
7.8773354426999997
 21
2.9683881658
 31
0.0
  0
LINE
  5
17E2
  8
0
 10
8.0573354426999995
 20
2.4323240757999991
 30
0.0
 11
8.0573354427000012
 21
2.9683881658
 31
0.0
  0
LINE
  5
17E5
  8
0
 10
8.7998275686999996
 20
4.0992226794000004
 30
0.0
 11
8.7213688850514934
 21
4.0923584376505531
 31
0.0
  0
ARC
  5
17E6
  8
0
 10
8.7318275687471143
 20
3.9728150728614859
 30
0.0
 40
0.1200000005405705
 50
94.999997372917235
 51
180.00519604034639
  0
LINE
  5
17E7
  8
0
 10
8.6118275687000008
 20
3.3046584580000009
 30
0.0
 11
8.6007803245999987
 21
3.3046584580000009
 31
0.0
  0
ARC
  5
17E8
  8
0
 10
8.5949335646945038
 20
3.358815052305022
 30
0.0
 40
0.0058583428298917
 50
359.42492864527219
 51
91.609328161741331
  0
LINE
  5
17E9
  8
0
 10
8.5947690367565102
 20
3.3646710843464431
 30
0.0
 11
8.5817916124434888
 21
3.3646651002535561
 31
0.0
  0
ARC
  5
17EA
  8
0
 10
8.5816388270070725
 20
3.358819539558334
 30
0.0
 40
0.005847557031026
 50
88.502800920455215
 51
180.6201016998007
  0
LINE
  5
17EB
  8
0
 10
8.5757803246000002
 20
3.282611213900001
 30
0.0
 11
8.5696779624000001
 21
3.282611213900001
 31
0.0
  0
LINE
  5
17EC
  8
0
 10
8.5696779624000001
 20
3.3046485647999999
 30
0.0
 11
8.4848354426999997
 21
3.3046680922999991
 31
0.0
  0
LINE
  5
17ED
  8
0
 10
8.4848354426999997
 20
3.3046680922999991
 30
0.0
 11
8.4598354427000011
 21
3.2796584580000001
 31
0.0
  0
LINE
  5
17EE
  8
0
 10
8.4598354427000011
 20
3.1384084579999998
 30
0.0
 11
8.4498354426999995
 21
3.1484084580000009
 31
0.0
  0
LINE
  5
17EF
  8
0
 10
8.4498354426999995
 20
3.1484084580000009
 30
0.0
 11
8.3598354426999997
 21
3.1484084580000009
 31
0.0
  0
LINE
  5
17F0
  8
0
 10
8.3598354426999997
 20
3.1484084580000009
 30
0.0
 11
8.3498354426999981
 21
3.1384084579999998
 31
0.0
  0
LINE
  5
17F2
  8
0
 10
8.5696779624000001
 20
2.5176715021000011
 30
0.0
 11
8.5696779624000001
 21
3.3046485647999999
 31
0.0
  0
LINE
  5
17F7
  8
0
 10
8.6118275687000008
 20
2.590260581199999
 30
0.0
 11
8.6007803245999987
 21
2.590260581199999
 31
0.0
  0
LINE
  5
17F9
  8
0
 10
8.4849812009788081
 20
2.054658484710123
 30
0.0
 11
8.4848354426999997
 21
3.3046680922999991
 31
0.0
  0
LINE
  5
17FB
  8
0
 10
8.0573354427000012
 20
2.935908458000001
 30
0.0
 11
7.8773354426999997
 21
2.935908458000001
 31
0.0
  0
LINE
  5
17FC
  8
0
 10
7.7215614396000012
 20
2.520908458000001
 30
0.0
 11
7.7215614396000039
 21
2.838408458
 31
0.0
  0
LINE
  5
1809
  8
0
 10
7.8173354427000001
 20
2.4608812957000001
 30
0.0
 11
7.8473354426999986
 21
2.4608812957000001
 31
0.0
  0
ARC
  5
180A
  8
0
 10
7.8473354427000004
 20
2.4416779486986511
 30
0.0
 40
0.0192033470013491
 50
52.266026670479057
 51
90.000000000001776
  0
ARC
  5
180B
  8
0
 10
7.854057463368985
 20
2.450364577105324
 30
0.0
 40
0.0082195828492065
 50
16.324906554566279
 51
52.266026670476002
  0
ARC
  5
180C
  8
0
 10
7.8547542032954176
 20
2.4502753534574051
 30
0.0
 40
0.0075812394332633
 50
342.20526682884559
 51
18.452617040818222
  0
ARC
  5
180D
  8
0
 10
7.8506992996465916
 20
2.4524478362639992
 30
0.0
 40
0.0121344478396836
 50
285.65725951518652
 51
338.28629947762551
  0
ARC
  5
180E
  8
0
 10
7.7197340430857668
 20
3.2335485022601622
 30
0.0
 40
0.8040697870844459
 50
279.13112461959008
 51
279.61058167770608
  0
LINE
  5
180F
  8
0
 10
7.8473354426999986
 20
2.4396680922999989
 30
0.0
 11
7.8173354427000001
 21
2.4396680922999989
 31
0.0
  0
ARC
  5
1810
  8
0
 10
7.8173354426999992
 20
2.4416779486986511
 30
0.0
 40
0.0192033470013491
 50
89.999999999998266
 51
127.73397332952089
  0
ARC
  5
1811
  8
0
 10
7.8106134220310137
 20
2.450364577105324
 30
0.0
 40
0.0082195828492065
 50
127.73397332952401
 51
163.6750934454337
  0
ARC
  5
1812
  8
0
 10
7.8099166821045811
 20
2.4502753534574051
 30
0.0
 40
0.0075812394332633
 50
161.54738295918179
 51
197.79473317115449
  0
ARC
  5
1813
  8
0
 10
7.8139715857534071
 20
2.4524478362639992
 30
0.0
 40
0.0121344478396836
 50
201.71370052237449
 51
254.3427404848135
  0
ARC
  5
1814
  8
0
 10
7.944936842314231
 20
3.2335485022601622
 30
0.0
 40
0.8040697870844459
 50
260.38941832229392
 51
260.86887538040992
  0
LINE
  5
1815
  8
0
 10
7.8773354426999997
 20
2.423418092299999
 30
0.0
 11
7.9449803862000001
 21
2.423418092299999
 31
0.0
  0
LINE
  5
1816
  8
0
 10
8.093335442699999
 20
2.3696680922999991
 30
0.0
 11
7.9433354426999987
 21
2.3696810764
 31
0.0
  0
LINE
  5
1817
  8
0
 10
7.9433354426999987
 20
2.3696810764
 30
0.0
 11
7.9433354426999987
 21
2.4216679712000002
 31
0.0
  0
LINE
  5
1818
  8
0
 10
7.9433354426999987
 20
2.4216679712000002
 30
0.0
 11
7.9533354426999994
 21
2.4323240757999991
 31
0.0
  0
LINE
  5
1819
  8
0
 10
7.9533354426999994
 20
2.4323240757999991
 30
0.0
 11
8.0808354426999998
 21
2.4323240757999991
 31
0.0
  0
ARC
  5
181A
  8
0
 10
8.0808354426999998
 20
2.4502741842499738
 30
0.0
 40
0.0179501084499747
 50
270.00000000000028
 51
314.13685833736071
  0
LINE
  5
181B
  8
0
 10
8.2769853585999993
 20
2.3217109254000001
 30
0.0
 11
8.1061855267999992
 21
2.3217109254000001
 31
0.0
  0
LINE
  5
181C
  8
0
 10
8.1061855267999992
 20
2.3217109254000001
 30
0.0
 11
8.093335442699999
 21
2.3696680922999991
 31
0.0
  0
LINE
  5
181D
  8
0
 10
8.093335442699999
 20
2.3696680922999991
 30
0.0
 11
8.093335442699999
 21
2.9896680923000001
 31
0.0
  0
LINE
  5
181E
  8
0
 10
8.093335442699999
 20
2.9896680923000001
 30
0.0
 11
8.1061855267999992
 21
3.0376252591999999
 31
0.0
  0
LINE
  5
181F
  8
0
 10
8.1061855267999992
 20
3.0376252591999999
 30
0.0
 11
8.2769853585999993
 21
3.0376252591999999
 31
0.0
  0
LINE
  5
1820
  8
0
 10
8.2769853585999993
 20
3.0376252591999999
 30
0.0
 11
8.2898354426999994
 21
2.9896680923000001
 31
0.0
  0
LINE
  5
1821
  8
0
 10
8.2898354426999994
 20
2.9896680923000001
 30
0.0
 11
8.2898354426999994
 21
2.3696680922999991
 31
0.0
  0
LINE
  5
1822
  8
0
 10
8.2898354426999994
 20
2.3696680922999991
 30
0.0
 11
8.2769853585999993
 21
2.3217109254000001
 31
0.0
  0
ARC
  5
1823
  8
0
 10
8.4113667464520763
 20
2.9481359674499998
 30
0.0
 40
0.3180313037520772
 50
163.65710675068141
 51
196.34289324931871
  0
ARC
  5
1824
  8
0
 10
9.3487764065066443
 20
2.6796680922999991
 30
0.0
 40
1.255414444574382
 50
171.80368144259069
 51
188.1963185574092
  0
ARC
  5
1825
  8
0
 10
8.4113667464520727
 20
2.4112002171500002
 30
0.0
 40
0.3180313037520736
 50
163.65710675068129
 51
196.34289324931879
  0
ARC
  5
1826
  8
0
 10
7.9718041389479222
 20
2.9481359674499998
 30
0.0
 40
0.3180313037520772
 50
343.65710675068141
 51
16.34289324931861
  0
ARC
  5
1827
  8
0
 10
7.0343944788933541
 20
2.6796680922999991
 30
0.0
 40
1.255414444574382
 50
351.80368144259069
 51
8.1963185574092847
  0
ARC
  5
1828
  8
0
 10
7.9718041389479248
 20
2.4112002171500002
 30
0.0
 40
0.3180313037520736
 50
343.65710675068118
 51
16.342893249318681
  0
LINE
  5
1829
  8
0
 10
8.2769853585999993
 20
2.8586466756999989
 30
0.0
 11
8.1061855268000045
 21
2.8586466757000411
 31
0.0
  0
LINE
  5
182A
  8
0
 10
8.2769853585999993
 20
2.500689508899999
 30
0.0
 11
8.1061855267999992
 21
2.500689508899999
 31
0.0
  0
ARC
  5
182B
  8
0
 10
7.8473354427000004
 20
2.9546680923000008
 30
0.0
 40
0.0149999999999993
 50
23.259246452070531
 51
90.000000000003439
  0
ARC
  5
182C
  8
0
 10
7.8471689784422578
 20
2.954596541785631
 30
0.0
 40
0.0151811900251442
 50
357.47617753379279
 51
23.259246452071071
  0
ARC
  5
182D
  8
0
 10
7.8173354426999992
 20
2.9546680923000008
 30
0.0
 40
0.0149999999999993
 50
89.999999999996533
 51
156.74075354792939
  0
ARC
  5
182E
  8
0
 10
7.8175019069577401
 20
2.954596541785631
 30
0.0
 40
0.0151811900251442
 50
156.7407535479289
 51
182.52382246620721
  0
LINE
  5
1873
  8
0
 10
7.9433354426999987
 20
2.9683978000999991
 30
0.0
 11
7.9433354426999987
 21
2.9896551082
 31
0.0
  0
LINE
  5
1874
  8
0
 10
7.9433354426999987
 20
2.9896551082
 30
0.0
 11
8.093335442699999
 21
2.9896551081999991
 31
0.0
  0
ARC
  5
1875
  8
0
 10
8.6773065404818759
 20
3.1614661347142001
 30
0.0
 40
0.236119916458865
 50
144.60133659755039
 51
157.07561526911221
  0
LINE
  5
1876
  8
0
 10
8.4848354426999997
 20
3.2982414668
 30
0.0
 11
8.5696779624000001
 21
3.2982414668
 31
0.0
  0
LINE
  5
1877
  8
0
 10
8.5696779624000001
 20
3.1076976575999988
 30
0.0
 11
8.4848584117339811
 21
3.1076877671546459
 31
0.0
  0
ARC
  5
1878
  8
0
 10
8.6765871716390723
 20
3.2441397596938311
 30
0.0
 40
0.2353275666866451
 50
202.91788261836251
 51
215.43918715986359
  0
LINE
  5
1879
  8
0
 10
8.6118275687000008
 20
3.1076976575999988
 30
0.0
 11
8.6007895257682012
 21
3.1076977493428042
 31
0.0
  0
LINE
  5
187A
  8
0
 10
8.5757803246000002
 20
3.1454851403999999
 30
0.0
 11
8.5696779624000001
 21
3.1454851403999999
 31
0.0
  0
LINE
  5
187B
  8
0
 10
8.7998275686999996
 20
3.3345893520999992
 30
0.0
 11
9.1338699538999997
 21
3.3345889564999989
 31
0.0
  0
ARC
  5
187C
  8
0
 10
9.1338701613826814
 20
3.5097861518072988
 30
0.0
 40
0.1751971953074228
 50
269.99993214570611
 51
294.99990115565618
  0
LINE
  5
187D
  8
0
 10
9.2079114216000004
 20
3.3510034417000001
 30
0.0
 11
10.124188285213
 21
3.7782684357540379
 31
0.0
  0
ARC
  5
187E
  8
0
 10
10.07136193625665
 20
3.8915554169283841
 30
0.0
 40
0.1249982529784119
 50
294.99990115565618
 51
6.0235292118905406
  0
LINE
  5
187F
  8
0
 10
10.195670059582961
 20
3.9046723419775922
 30
0.0
 11
10.1929063088
 21
3.9571710320999989
 31
0.0
  0
LINE
  5
1880
  8
0
 10
10.1929063088
 20
3.9571710320999989
 30
0.0
 11
10.1929063088
 21
4.5548649427000001
 31
0.0
  0
LINE
  5
1881
  8
0
 10
10.1929063088
 20
4.5548649427000001
 30
0.0
 11
11.2527488285
 21
4.5548649427000001
 31
0.0
  0
LINE
  5
1882
  8
0
 10
11.2527488285
 20
4.5548649427000001
 30
0.0
 11
11.2527488285
 21
3.9571710320999989
 31
0.0
  0
ARC
  5
1883
  8
0
 10
10.75274882831993
 20
3.9571710320999989
 30
0.0
 40
0.5000000001800659
 50
338.36573253192722
 51
0.0
  0
ARC
  5
1884
  8
0
 10
11.27356764085939
 20
3.750603870855282
 30
0.0
 40
0.0602876291673155
 50
158.36573253192759
 51
227.68511963294981
  0
ARC
  5
1885
  8
0
 10
11.19226104476124
 20
3.661295694959585
 30
0.0
 40
0.060487835439048
 50
0.074911786073768
 51
47.685119632949551
  0
LINE
  5
1886
  8
0
 10
11.2527488285
 20
3.6613747801999992
 30
0.0
 11
11.25277442163314
 21
3.1482268267297568
 31
0.0
  0
ARC
  5
1887
  8
0
 10
11.19268880440341
 20
3.1483030263496858
 30
0.0
 40
0.0600856655472842
 50
270.13556956048689
 51
359.92733844664963
  0
LINE
  5
1888
  8
0
 10
11.19283097507877
 20
3.0882175289999991
 30
0.0
 11
11.157796132854161
 21
3.0882175289999991
 31
0.0
  0
ARC
  5
1889
  8
0
 10
11.1578834711797
 20
3.028161440631254
 30
0.0
 40
0.060056151875871
 50
90.083324006795308
 51
180.165121610206
  0
LINE
  5
188A
  8
0
 10
11.0978275687
 20
3.0279883641000001
 30
0.0
 11
11.0978275687
 21
2.7433405194594629
 31
0.0
  0
ARC
  5
188B
  8
0
 10
11.597827593636749
 20
2.7432935143584678
 30
0.0
 40
0.5000000271462343
 50
179.9946136124793
 51
212.3196263570801
  0
ARC
  5
188C
  8
0
 10
10.752748827909819
 20
2.208651638716213
 30
0.0
 40
0.5000000005901768
 50
0.000000009601204
 51
32.319626756188939
  0
LINE
  5
188D
  8
0
 10
11.2527488285
 20
2.2086516388000001
 30
0.0
 11
11.2527488285
 21
1.5544712418999991
 31
0.0
  0
LINE
  5
188E
  8
0
 10
11.2527488285
 20
1.5544712418999991
 30
0.0
 11
10.1929063088
 21
1.5544712418999991
 31
0.0
  0
LINE
  5
1890
  8
0
 10
10.1929063088
 20
1.5544712418999991
 30
0.0
 11
10.1929063088
 21
2.0275975564999991
 31
0.0
  0
ARC
  5
1891
  8
0
 10
10.132516944225859
 20
2.0275975564999991
 30
0.0
 40
0.0603893645741334
 50
359.99999999999949
 51
65.731075412615837
  0
LINE
  5
1892
  8
0
 10
10.157338179759339
 20
2.0826500915938451
 30
0.0
 11
10.005795309048491
 21
2.150975397248188
 31
0.0
  0
ARC
  5
1893
  8
0
 10
9.9812492018539256
 20
2.0965330861100631
 30
0.0
 40
0.0597199851010331
 50
65.731075412615994
 51
145.61113259211379
  0
ARC
  5
1894
  8
0
 10
9.7318253063314657
 20
2.2672460168755131
 30
0.0
 40
0.2425302165335203
 50
269.08343066605971
 51
325.61113259211368
  0
LINE
  5
1895
  8
0
 10
9.7279456788999994
 20
2.0247468324999991
 30
0.0
 11
8.7998275686999996
 21
2.0247468324999991
 31
0.0
  0
ARC
  5
1896
  8
0
 10
11.32908447900796
 20
5.4187690941930411
 30
0.0
 40
2.0354394469534691
 50
233.70382904519079
 51
242.27537032482149
  0
ARC
  5
1897
  8
0
 10
4.4074437469314711
 20
-7.7512549951507763
 30
0.0
 40
12.84268694509727
 50
62.05495322013816
 51
62.275370324821459
  0
ARC
  5
1898
  8
0
 10
10.33410014504843
 20
3.421001771736595
 30
0.0
 40
0.1957672676975104
 50
47.49779937926364
 51
62.054953220138117
  0
ARC
  5
1899
  8
0
 10
10.30251020671543
 20
3.402015835754391
 30
0.0
 40
0.2313441253018255
 50
4.6797260560410381
 51
44.905729068134043
  0
ARC
  5
189A
  8
0
 10
1467841.8097073231
 20
3.2512744755060941
 30
0.0
 40
1467831.2766242281
 50
179.99999337916569
 51
180.00001982868619
  0
ARC
  5
189B
  8
0
 10
10.31003075833874
 20
2.760693661390738
 30
0.0
 40
0.2237300815450021
 50
315.5437003780857
 51
355.53943122488238
  0
ARC
  5
189C
  8
0
 10
9.9823543171069726
 20
3.0155668429574951
 30
0.0
 40
0.6379008996171826
 50
312.17301219889958
 51
319.82023847323211
  0
ARC
  5
189D
  8
0
 10
10.751158651409691
 20
2.1627674528371261
 30
0.0
 40
0.5102874491720814
 50
131.86218193368319
 51
137.9612488827928
  0
ARC
  5
189E
  8
0
 10
24.731237846345749
 20
-16.966382780221039
 30
0.0
 40
24.192911844851839
 50
126.4074587749614
 51
127.10673612156531
  0
ARC
  5
189F
  8
0
 10
10.762376091190021
 20
2.1762505353609951
 30
0.0
 40
0.6448212827707948
 50
166.40878640302051
 51
180.75718203460099
  0
ARC
  5
18A0
  8
0
 10
9.6273019663064439
 20
2.3783838629935441
 30
0.0
 40
0.5336463447167401
 50
330.16684117277458
 51
336.74988514949052
  0
ARC
  5
18A1
  8
0
 10
11.141143229583911
 20
2.0247400477065631
 30
0.0
 40
0.1126226193112818
 50
297.43794757056293
 51
352.2942128127367
  0
LINE
  5
18A2
  8
0
 10
11.1930383465
 20
1.9247863022999989
 30
0.0
 11
11.079242800657109
 21
1.8638138530841279
 31
0.0
  0
ARC
  5
18A3
  8
0
 10
11.04436379108677
 20
2.1185682505477961
 30
0.0
 40
0.257130994506078
 50
260.05012488098271
 51
277.79602577163638
  0
ARC
  5
18A4
  8
0
 10
10.657506365485631
 20
1.205762370253971
 30
0.0
 40
0.7431375694745258
 50
62.562052429436712
 51
75.364182316222383
  0
ARC
  5
18A5
  8
0
 10
10.72282756483248
 20
1.5260979841129449
 30
0.0
 40
0.4170688218868614
 50
72.926518886001148
 51
107.0734803185528
  0
ARC
  5
18A6
  8
0
 10
10.80415244358783
 20
1.144480354704063
 30
0.0
 40
0.8064747877246666
 50
104.63581688833099
 51
116.387695734483
  0
ARC
  5
18A7
  8
0
 10
10.397222713402959
 20
2.0910588864780588
 30
0.0
 40
0.2293195480290643
 50
262.27553523218683
 51
282.20943234374522
  0
LINE
  5
18A8
  8
0
 10
10.366400030299999
 20
1.863820207299999
 30
0.0
 11
10.2526167539
 21
1.9247863235
 31
0.0
  0
ARC
  5
18A9
  8
0
 10
10.299779725007999
 20
2.0214100305832221
 30
0.0
 40
0.1075197033768187
 50
186.28527304570889
 51
243.98254671682929
  0
ARC
  5
18AA
  8
0
 10
11.141143229583911
 20
1.5448323944934359
 30
0.0
 40
0.1126226193112818
 50
7.705787187263323
 51
62.562052429437081
  0
LINE
  5
18AB
  8
0
 10
11.1930383465
 20
1.6447861399000001
 30
0.0
 11
11.07924283576938
 21
1.7057585104014781
 31
0.0
  0
ARC
  5
18AC
  8
0
 10
11.047457116884059
 20
1.503705424882301
 30
0.0
 40
0.2045379702961683
 50
81.059857355709084
 51
103.43491870218389
  0
ARC
  5
18AD
  8
0
 10
10.614955909070311
 20
2.496050920618619
 30
0.0
 40
0.8818728997156538
 50
285.13972907353389
 51
295.88375409066941
  0
ARC
  5
18AE
  8
0
 10
10.72282756483248
 20
2.0434744580870539
 30
0.0
 40
0.4170688218868614
 50
252.9265196814471
 51
287.07348111399881
  0
ARC
  5
18AF
  8
0
 10
10.80415244358783
 20
2.4250920874959361
 30
0.0
 40
0.8064747877246666
 50
243.61230426551691
 51
255.36418311166901
  0
ARC
  5
18B0
  8
0
 10
10.397222713402959
 20
1.47851355572194
 30
0.0
 40
0.2293195480290643
 50
77.790567656254794
 51
97.724464767813203
  0
LINE
  5
18B1
  8
0
 10
10.366400030299999
 20
1.7057522349000001
 30
0.0
 11
10.2526167539
 21
1.644786118699999
 31
0.0
  0
ARC
  5
18B2
  8
0
 10
10.299779725007999
 20
1.5481624116167769
 30
0.0
 40
0.1075197033768187
 50
116.0174532831707
 51
173.714726954291
  0
LINE
  5
18B3
  8
0
 10
11.079242800657109
 20
1.8638138530841279
 30
0.0
 11
11.07924283576938
 21
1.7057585104014781
 31
0.0
  0
LINE
  5
18B4
  8
0
 10
10.4457205188
 20
1.8669262963
 30
0.0
 11
10.4457205188
 21
1.7026461459
 31
0.0
  0
ARC
  5
18DA
  8
0
 10
11.141222669697029
 20
4.524671971974171
 30
0.0
 40
0.1125347822044024
 50
297.42703382020898
 51
352.32313911396108
  0
LINE
  5
18DB
  8
0
 10
11.19305828698675
 20
4.4247863074071949
 30
0.0
 11
11.07926274114387
 21
4.3638138581913237
 31
0.0
  0
ARC
  5
18DC
  8
0
 10
11.04438373157353
 20
4.618568255654993
 30
0.0
 40
0.257130994506078
 50
260.05012488098259
 51
277.79602577163638
  0
ARC
  5
18DD
  8
0
 10
10.657526305972381
 20
3.705762375361167
 30
0.0
 40
0.7431375694745258
 50
62.562052429436697
 51
75.364182316222411
  0
ARC
  5
18DE
  8
0
 10
10.72284750531923
 20
4.0260979892201423
 30
0.0
 40
0.4170688218868614
 50
72.926518886001105
 51
107.0734803185529
  0
ARC
  5
18DF
  8
0
 10
10.80417238407458
 20
3.6444803598112601
 30
0.0
 40
0.8064747877246666
 50
104.63581688833089
 51
116.387695734483
  0
ARC
  5
18E0
  8
0
 10
10.39724265388972
 20
4.5910588915852548
 30
0.0
 40
0.2293195480290643
 50
262.27553523218683
 51
282.20943234374528
  0
LINE
  5
18E1
  8
0
 10
10.366419970786749
 20
4.3638202124071963
 30
0.0
 11
10.25263669438675
 21
4.4247863286071958
 31
0.0
  0
ARC
  5
18E2
  8
0
 10
10.29985318528152
 20
4.521472828417858
 30
0.0
 40
0.107599610863855
 50
186.31422883072341
 51
243.97160275404741
  0
ARC
  5
18E3
  8
0
 10
11.14122266387384
 20
4.0449004737771919
 30
0.0
 40
0.1125347908007643
 50
7.676782133097424
 51
62.57296511083468
  0
LINE
  5
18E4
  8
0
 10
11.19305828698675
 20
4.1447861450071972
 30
0.0
 11
11.07926277625613
 21
4.2057585155086752
 31
0.0
  0
ARC
  5
18E5
  8
0
 10
11.047477057370809
 20
4.0037054299894983
 30
0.0
 40
0.2045379702961683
 50
81.059857355709084
 51
103.43491870218389
  0
ARC
  5
18E6
  8
0
 10
10.614975849557061
 20
4.9960509257258163
 30
0.0
 40
0.8818728997156538
 50
285.13972907353377
 51
295.88375409066941
  0
ARC
  5
18E7
  8
0
 10
10.72284750531923
 20
4.5434744631942499
 30
0.0
 40
0.4170688218868614
 50
252.9265196814471
 51
287.07348111399881
  0
ARC
  5
18E8
  8
0
 10
10.80417238407458
 20
4.9250920926031316
 30
0.0
 40
0.8064747877246666
 50
243.61230426551691
 51
255.36418311166889
  0
ARC
  5
18E9
  8
0
 10
10.39724265388972
 20
3.9785135608291369
 30
0.0
 40
0.2293195480290643
 50
77.790567656254737
 51
97.724464767813217
  0
LINE
  5
18EA
  8
0
 10
10.366419970786749
 20
4.2057522400071958
 30
0.0
 11
10.25263669438675
 21
4.1447861238071964
 31
0.0
  0
ARC
  5
18EB
  8
0
 10
10.29985313657388
 20
4.0480996811433538
 30
0.0
 40
0.1075995381393392
 50
116.0283872933887
 51
173.68588531577109
  0
LINE
  5
18EC
  8
0
 10
11.07926274114387
 20
4.3638138581913246
 30
0.0
 11
11.07926277625613
 21
4.2057585155086743
 31
0.0
  0
LINE
  5
18ED
  8
0
 10
10.44574045928675
 20
4.3669263014071964
 30
0.0
 11
10.44574045928675
 21
4.2026461510071957
 31
0.0
  0
LINE
  5
18EE
  8
0
 10
10.1929063088
 20
4.0599333888000002
 30
0.0
 11
11.252748851858939
 21
4.0599333888000002
 31
0.0
  0
LINE
  5
18F0
  8
0
 10
11.2527488285
 20
2.0096388997000001
 30
0.0
 11
10.1929063088
 21
2.0096388997000001
 31
0.0
  0
ARC
  5
18F1
  8
0
 10
11.2240838237006
 20
3.710098246765376
 30
0.0
 40
0.0097864121050999
 50
265.80406368137818
 51
335.39648048354991
  0
ARC
  5
18F2
  8
0
 10
11.23411911113789
 20
3.4703604215272632
 30
0.0
 40
0.230228816420508
 50
92.676598898532916
 51
101.6282975931003
  0
ARC
  5
18F3
  8
0
 10
10.954175292268349
 20
5.5891739681748458
 30
0.0
 40
1.9076590221215519
 50
274.98955068904428
 51
277.03187580381859
  0
ARC
  5
18F4
  8
0
 10
11.13599346061423
 20
3.6154395475242649
 30
0.0
 40
0.0750091738237937
 50
102.2390926636667
 51
170.85904933256589
  0
LINE
  5
18F5
  8
0
 10
11.061936864653481
 20
3.627355786546508
 30
0.0
 11
11.0566497262
 21
3.177086791499999
 31
0.0
  0
ARC
  5
18F6
  8
0
 10
11.133577615508059
 20
3.17736885336307
 30
0.0
 40
0.076928406406788
 50
180.21007832192089
 51
248.22258235088231
  0
ARC
  5
18F7
  8
0
 10
11.082833796922239
 20
2.9185912093973658
 30
0.0
 40
0.1886506160754179
 50
68.829397316994871
 51
83.240906094104204
  0
LINE
  5
18F9
  8
0
 10
11.1577961356
 20
3.0882175289999991
 30
0.0
 11
11.15096424360002
 21
3.0945096483999901
 31
0.0
  0
LINE
  5
18FA
  8
0
 10
11.14913886984632
 20
3.6596968647541681
 30
0.0
 11
11.1804980243
 21
3.6596969062000002
 31
0.0
  0
ARC
  5
18FB
  8
0
 10
11.180498103587439
 20
3.5997056604829409
 30
0.0
 40
0.0599912457171108
 50
0.2099882618608362
 51
90.000075724975346
  0
LINE
  5
18FC
  8
0
 10
11.240488946399999
 20
3.599925527099999
 30
0.0
 11
11.24059859397164
 21
3.5700080693113199
 31
0.0
  0
ARC
  5
18FD
  8
0
 10
11.181010122973049
 20
3.5712624292962989
 30
0.0
 40
0.0596016719138099
 50
269.47049332752431
 51
358.7940801438092
  0
LINE
  5
18FE
  8
0
 10
11.18045931392566
 20
3.511663302588647
 30
0.0
 11
11.14935127693041
 21
3.511663368899999
 31
0.0
  0
ARC
  5
18FF
  8
0
 10
11.153511912439431
 20
3.57573451152928
 30
0.0
 40
0.0642060916553918
 50
185.11653491285949
 51
266.28455799443429
  0
ARC
  5
1900
  8
0
 10
10.98742071049581
 20
3.5843043579839589
 30
0.0
 40
0.1031365345388312
 50
352.03252167577767
 51
8.7114339582992564
  0
ARC
  5
1901
  8
0
 10
11.149686891116801
 20
3.5993774046327141
 30
0.0
 40
0.0603219495429039
 50
90.520535859091765
 51
179.47966008723799
  0
LINE
  5
1946
  8
0
 10
11.149578988130139
 20
3.2981101840249778
 30
0.0
 11
11.18069225377848
 21
3.298066505800004
 31
0.0
  0
ARC
  5
1947
  8
0
 10
11.180304803636769
 20
3.237894717632769
 30
0.0
 40
0.0601730355629028
 50
1.7393303361045649
 51
89.631073767791648
  0
LINE
  5
1948
  8
0
 10
11.2404501151
 20
3.2397211123999998
 30
0.0
 11
11.240500603174301
 21
3.2097459321545658
 31
0.0
  0
ARC
  5
1949
  8
0
 10
11.17891692598198
 20
3.211625027585105
 30
0.0
 40
0.0616123388304996
 50
271.47048802520231
 51
358.25228294344868
  0
LINE
  5
194A
  8
0
 10
11.1804980243
 20
3.1500329792000001
 30
0.0
 11
11.14913910872632
 21
3.1500329795579738
 31
0.0
  0
ARC
  5
194B
  8
0
 10
11.14977294149039
 20
3.2104282612722961
 30
0.0
 40
0.0603986075777023
 50
180.6527965591651
 51
269.39871777924668
  0
ARC
  5
194C
  8
0
 10
11.0022647391199
 20
3.2252642168948711
 30
0.0
 40
0.0884859414337378
 50
349.8956595420097
 51
9.4033575006403396
  0
ARC
  5
194D
  8
0
 10
11.15029782680285
 20
3.2373312558380012
 30
0.0
 40
0.0607831789280146
 50
90.677611519251016
 51
177.7464230317716
  0
LINE
  5
1956
  8
0
 10
11.2527488285
 20
3.6613747801999992
 30
0.0
 11
11.240488886
 21
3.5999252243000002
 31
0.0
  0
LINE
  5
1957
  8
0
 10
11.089367429299999
 20
3.599925220699999
 30
0.0
 11
11.061936824844789
 21
3.6273558777084278
 31
0.0
  0
LINE
  5
1958
  8
0
 10
11.089561658299999
 20
3.5700085005999989
 30
0.0
 11
11.07727839821802
 21
3.5363328905543852
 31
0.0
  0
ARC
  5
1959
  8
0
 10
11.40473665479459
 20
3.4656751108724331
 30
0.0
 40
0.3349946740319129
 50
167.82360495480731
 51
179.25901006248651
  0
ARC
  5
195A
  8
0
 10
12.514866038019569
 20
3.4044799808326989
 30
0.0
 40
1.4465809390435711
 50
177.4037203890486
 51
183.03615293544601
  0
ARC
  5
195B
  8
0
 10
11.381048360461049
 20
3.339908581796887
 30
0.0
 40
0.3109662060050726
 50
182.22046617346621
 51
192.35022978804071
  0
ARC
  5
195C
  8
0
 10
-47.14140365484019
 20
-17.98108547358849
 30
0.0
 40
61.977156800083563
 50
20.02299379136555
 51
20.056132070911978
  0
LINE
  5
195D
  8
0
 10
11.08937825406265
 20
3.2097401276869548
 30
0.0
 11
11.0566497262
 21
3.1770852110000001
 31
0.0
  0
LINE
  5
195E
  8
0
 10
11.240500603174301
 20
3.2097459321545578
 30
0.0
 11
11.2527488285
 21
3.1483551051999989
 31
0.0
  0
LINE
  5
195F
  8
0
 10
11.2404501794
 20
3.2397219970999989
 30
0.0
 11
11.243491579100001
 21
3.2865269952
 31
0.0
  0
LINE
  5
1960
  8
0
 10
11.243491579100001
 20
3.2865269952
 30
0.0
 11
11.244384648900001
 21
3.4733884568999991
 31
0.0
  0
LINE
  5
1961
  8
0
 10
11.244384648900001
 20
3.4733884568999991
 30
0.0
 11
11.243196096949999
 21
3.5297691845500001
 31
0.0
  0
LINE
  5
1962
  8
0
 10
11.243196096949999
 20
3.5297691845500001
 30
0.0
 11
11.24055242710072
 21
3.5686028590134722
 31
0.0
  0
ARC
  5
1963
  8
0
 10
9.7752660246216525
 20
4.809390781993871
 30
0.0
 40
1.608237622918592
 50
246.49565027103671
 51
268.31390124005532
  0
ARC
  5
1964
  8
0
 10
9.6872898984280855
 20
2.9427067278228929
 30
0.0
 40
0.2623125209500887
 50
59.605222668888302
 51
81.083791927350504
  0
ARC
  5
1965
  8
0
 10
9.6421635749728996
 20
2.917133698116158
 30
0.0
 40
0.3082997356066477
 50
8.3655604945616613
 51
54.770255295555913
  0
ARC
  5
1966
  8
0
 10
8.4841409879101501
 20
2.6839373741503261
 30
0.0
 40
1.4892292959331079
 50
353.78516511708682
 51
10.760702433934849
  0
ARC
  5
1967
  8
0
 10
13.52255121089115
 20
2.2022874660106191
 30
0.0
 40
3.5723331823050311
 50
174.8537723816809
 51
179.5222789979376
  0
ARC
  5
1968
  8
0
 10
9.8967158986120598
 20
2.2450995811951269
 30
0.0
 40
0.0551859052602538
 50
337.30077641249278
 51
346.34603499171408
  0
ARC
  5
1969
  8
0
 10
9.6598578417201626
 20
2.3489295400359742
 30
0.0
 40
0.3137956821995338
 50
324.41565637111268
 51
336.49997867085699
  0
ARC
  5
196A
  8
0
 10
9.858424762245459
 20
2.1115846274207359
 30
0.0
 40
0.0787670167534431
 50
19.5581905470072
 51
44.031151397886219
  0
LINE
  5
196C
  8
0
 10
9.9326470785000005
 20
2.137952992899999
 30
0.0
 11
9.9319655562099403
 21
2.1302619209609852
 31
0.0
  0
ARC
  5
1AC1
  8
0
 10
10.72282701401425
 20
3.5317990711396772
 30
0.0
 40
0.0416076755655035
 50
32.98721642368357
 51
147.01308285845141
  0
LINE
  5
1AC2
  8
0
 10
10.7577272021
 20
3.5544524491999998
 30
0.0
 11
10.868008997900001
 21
3.3374998998000009
 31
0.0
  0
ARC
  5
1AC3
  8
0
 10
10.83409954784412
 20
3.3198544311530092
 30
0.0
 40
0.0382258206826695
 50
271.40773501737033
 51
27.49112711276862
  0
LINE
  5
1AC4
  8
0
 10
10.835038646899999
 20
3.2816401477000001
 30
0.0
 11
10.80461210873475
 21
3.2814686638992039
 31
0.0
  0
ARC
  5
1AC5
  8
0
 10
10.80408774833935
 20
3.2390485969477911
 30
0.0
 40
0.0424233076738083
 50
89.291794905125471
 51
179.37597148361201
  0
LINE
  5
1AC6
  8
0
 10
10.761666956799999
 20
3.2395106349999989
 30
0.0
 11
10.76166965975138
 21
3.049628438758083
 31
0.0
  0
ARC
  5
1AC7
  8
0
 10
10.722828926219229
 20
3.0509109992790822
 30
0.0
 40
0.0388619034892146
 50
181.88869441428611
 51
358.1087223013227
  0
LINE
  5
1AC8
  8
0
 10
10.687926707600001
 20
3.5544522668999989
 30
0.0
 11
10.57764885453847
 21
3.3374998998000009
 31
0.0
  0
ARC
  5
1AC9
  8
0
 10
10.61155830459434
 20
3.3198544311530092
 30
0.0
 40
0.0382258206826695
 50
152.50887288723141
 51
268.59226498262967
  0
LINE
  5
1ACA
  8
0
 10
10.61061920553847
 20
3.2816401477000001
 30
0.0
 11
10.641045743703719
 21
3.2814686638992039
 31
0.0
  0
ARC
  5
1ACB
  8
0
 10
10.64157010409912
 20
3.2390485969477911
 30
0.0
 40
0.0424233076738083
 50
0.624028516387981
 51
90.708205094874586
  0
LINE
  5
1ACC
  8
0
 10
10.68399089563847
 20
3.2395106349999989
 30
0.0
 11
10.683988134899989
 21
3.0496301899644749
 31
0.0
  0
ATTDEF
  5
1DB1
  8
DEFPOINTS
 10
8.3006299518564006
 20
2.6820155673960029
 30
0.0
 40
0.001
  1
K-2974-K
  3

  2
MODELNUMBER
 70
     0
1001
AcDbAttr
1070
     0
1070
     1
  0
ATTDEF
  5
1DB2
  8
DEFPOINTS
 10
8.3006299518564006
 20
2.6803489007293382
 30
0.0
 40
0.001
  1
MASTERSHOWER
  3

  2
TRADENAME
 70
     0
1001
AcDbAttr
1070
     0
1070
     1
  0
ATTDEF
  5
1DB3
  8
DEFPOINTS
 10
8.3006299518564006
 20
2.678682234062673
 30
0.0
 40
0.001
  1
VOLUME CONTROL VALVE
  3

  2
PRODUCT
 70
     0
1001
AcDbAttr
1070
     0
1070
     1
  0
ATTDEF
  5
1DB4
  8
DEFPOINTS
 10
8.3006299518564006
 20
2.6770155673960079
 30
0.0
 40
0.001
  1
BRASS
  3

  2
MATERIAL
 70
     0
1001
AcDbAttr
1070
     0
1070
     1
  0
ENDSEC
  0
EOF
