  0
SECTION
  2
HEADER
  9
$ACADVER
  1
AC1009
  9
$INSBASE
 10
14.2618823838
 20
1.9514237805000001
 30
0.0
  9
$EXTMIN
 10
13.2750511563
 20
0.7703214167
 30
0.0
  9
$EXTMAX
 10
17.9216855843
 20
4.6285891348000003
 30
0.0
  9
$LIMMIN
 10
0.0
 20
0.0
  9
$LIMMAX
 10
11.692913385800001
 20
8.2677165353999982
  9
$ORTHOMODE
 70
     0
  9
$REGENMODE
 70
     1
  9
$FILLMODE
 70
     1
  9
$QTEXTMODE
 70
     0
  9
$MIRRTEXT
 70
     0
  9
$DRAGMODE
 70
     2
  9
$LTSCALE
 40
0.6431102362
  9
$OSMODE
 70
  3071
  9
$ATTMODE
 70
     1
  9
$TEXTSIZE
 40
0.2
  9
$TRACEWID
 40
0.05
  9
$TEXTSTYLE
  7
STANDARD
  9
$CLAYER
  8
0
  9
$CELTYPE
  6
BYLAYER
  9
$CECOLOR
 62
   256
  9
$DIMSCALE
 40
1.0
  9
$DIMASZ
 40
0.1875
  9
$DIMEXO
 40
0.0625
  9
$DIMDLI
 40
0.4443307087
  9
$DIMRND
 40
0.0
  9
$DIMDLE
 40
0.0
  9
$DIMEXE
 40
0.125
  9
$DIMTP
 40
0.0
  9
$DIMTM
 40
0.0
  9
$DIMTXT
 40
0.5
  9
$DIMCEN
 40
0.1052362205
  9
$DIMTSZ
 40
0.0
  9
$DIMTOL
 70
     0
  9
$DIMLIM
 70
     0
  9
$DIMTIH
 70
     1
  9
$DIMTOH
 70
     1
  9
$DIMSE1
 70
     0
  9
$DIMSE2
 70
     0
  9
$DIMTAD
 70
     0
  9
$DIMZIN
 70
     0
  9
$DIMBLK
  1

  9
$DIMASO
 70
     1
  9
$DIMSHO
 70
     1
  9
$DIMPOST
  1
\X
  9
$DIMAPOST
  1

  9
$DIMALT
 70
     1
  9
$DIMALTD
 70
     2
  9
$DIMALTF
 40
25.399999999999999
  9
$DIMLFAC
 40
1.0
  9
$DIMTOFL
 70
     0
  9
$DIMTVP
 40
0.0
  9
$DIMTIX
 70
     0
  9
$DIMSOXD
 70
     0
  9
$DIMSAH
 70
     0
  9
$DIMBLK1
  1

  9
$DIMBLK2
  1

  9
$DIMSTYLE
  2
STANDARD
  9
$DIMCLRD
 70
     0
  9
$DIMCLRE
 70
     0
  9
$DIMCLRT
 70
     0
  9
$DIMTFAC
 40
1.0
  9
$DIMGAP
 40
0.09
  9
$LUNITS
 70
     2
  9
$LUPREC
 70
     4
  9
$SKETCHINC
 40
0.1
  9
$FILLETRAD
 40
0.0
  9
$AUNITS
 70
     0
  9
$AUPREC
 70
     0
  9
$MENU
  1
.
  9
$ELEVATION
 40
0.0
  9
$PELEVATION
 40
0.0
  9
$THICKNESS
 40
0.0
  9
$LIMCHECK
 70
     0
  9
$BLIPMODE
 70
     0
  9
$CHAMFERA
 40
0.0
  9
$CHAMFERB
 40
0.0
  9
$SKPOLY
 70
     0
  9
$TDCREATE
 40
2457855.7467127899
  9
$TDUPDATE
 40
2457856.7438010648
  9
$TDINDWG
 40
0.8313798958000001
  9
$TDUSRTIMER
 40
0.8313798958000001
  9
$USRTIMER
 70
     1
  9
$ANGBASE
 50
0.0
  9
$ANGDIR
 70
     0
  9
$PDMODE
 70
     0
  9
$PDSIZE
 40
0.3125
  9
$PLINEWID
 40
0.0
  9
$COORDS
 70
     1
  9
$SPLFRAME
 70
     0
  9
$SPLINETYPE
 70
     6
  9
$SPLINESEGS
 70
     8
  9
$ATTDIA
 70
     1
  9
$ATTREQ
 70
     1
  9
$HANDLING
 70
     1
  9
$HANDSEED
  5
2439
  9
$SURFTAB1
 70
     6
  9
$SURFTAB2
 70
     6
  9
$SURFTYPE
 70
     6
  9
$SURFU
 70
     6
  9
$SURFV
 70
     6
  9
$UCSNAME
  2

  9
$UCSORG
 10
0.0
 20
0.0
 30
0.0
  9
$UCSXDIR
 10
1.0
 20
0.0
 30
0.0
  9
$UCSYDIR
 10
0.0
 20
1.0
 30
0.0
  9
$PUCSNAME
  2

  9
$PUCSORG
 10
0.0
 20
0.0
 30
0.0
  9
$PUCSXDIR
 10
1.0
 20
0.0
 30
0.0
  9
$PUCSYDIR
 10
0.0
 20
1.0
 30
0.0
  9
$USERI1
 70
     0
  9
$USERI2
 70
     0
  9
$USERI3
 70
     0
  9
$USERI4
 70
     0
  9
$USERI5
 70
     0
  9
$USERR1
 40
0.0
  9
$USERR2
 40
0.0
  9
$USERR3
 40
0.0
  9
$USERR4
 40
0.0
  9
$USERR5
 40
0.0
  9
$WORLDVIEW
 70
     1
  9
$SHADEDGE
 70
     3
  9
$SHADEDIF
 70
    70
  9
$TILEMODE
 70
     1
  9
$MAXACTVP
 70
    48
  9
$PLIMCHECK
 70
     0
  9
$PEXTMIN
 10
1.0000000000000000E+020
 20
1.0000000000000000E+020
 30
1.0000000000000000E+020
  9
$PEXTMAX
 10
-1.0000000000000000E+020
 20
-1.0000000000000000E+020
 30
-1.0000000000000000E+020
  9
$PLIMMIN
 10
0.0
 20
0.0
  9
$PLIMMAX
 10
12.0
 20
9.0
  9
$UNITMODE
 70
     0
  9
$VISRETAIN
 70
     1
  9
$PLINEGEN
 70
     0
  9
$PSLTSCALE
 70
     1
  0
ENDSEC
  0
SECTION
  2
TABLES
  0
TABLE
  2
VPORT
 70
     1
  0
VPORT
  2
*ACTIVE
 70
     0
 10
0.0
 20
0.0
 11
1.0
 21
1.0
 12
0.0
 22
0.0
 13
0.0
 23
0.0
 14
1.0
 24
1.0
 15
0.0
 25
0.0
 16
-0.0000000000000036
 26
0.0
 36
17.403246739886889
 17
15.59836864471435
 27
2.6994552910327911
 37
0.0
 40
6.0396562131811962
 41
2.1638418079096038
 42
50.0
 43
0.0
 44
0.0
 50
0.0
 51
0.0
 71
     0
 72
   100
 73
     1
 74
     1
 75
     0
 76
     0
 77
     0
 78
     0
  0
ENDTAB
  0
TABLE
  2
LTYPE
 70
     2
  0
LTYPE
  2
CONTINUOUS
 70
     0
  3
Solid line
 72
    65
 73
     0
 40
0.0
  0
LTYPE
  2
PHANTOM2
 70
     0
  3
___ _ _ ___ _ _ ___ _ _ ___ _ _
 72
    65
 73
     6
 40
1.25
 49
0.625
 49
-0.125
 49
0.125
 49
-0.125
 49
0.125
 49
-0.125
  0
ENDTAB
  0
TABLE
  2
LAYER
 70
     2
  0
LAYER
  2
0
 70
     0
 62
     7
  6
CONTINUOUS
  0
LAYER
  2
DEFPOINTS
 70
     0
 62
     7
  6
CONTINUOUS
  0
ENDTAB
  0
TABLE
  2
STYLE
 70
     1
  0
STYLE
  2
STANDARD
 70
     0
 40
0.0
 41
0.8
 50
0.0
 71
     0
 42
0.2
  3
txt
  4

  0
ENDTAB
  0
TABLE
  2
VIEW
 70
     0
  0
ENDTAB
  0
TABLE
  2
UCS
 70
     0
  0
ENDTAB
  0
TABLE
  2
APPID
 70
     7
  0
APPID
  2
ACAD
 70
     0
  0
APPID
  2
ACAD_MLEADERVER
 70
     0
  0
APPID
  2
ACAD_NAV_VCDISPLAY
 70
     0
  0
APPID
  2
ACAD_DSTYLE_DIMJAG
 70
     0
  0
APPID
  2
ACAD_DSTYLE_DIMTALN
 70
     0
  0
APPID
  2
ACAD_EXEMPT_FROM_CAD_STANDARDS
 70
     0
  0
APPID
  2
ACDBATTR
 70
     0
  0
ENDTAB
  0
TABLE
  2
DIMSTYLE
 70
     1
  0
DIMSTYLE
  2
STANDARD
 70
     0
  3

  4

  5

  6

  7

 40
1.0
 41
0.1875
 42
0.0625
 43
0.38
 44
0.125
 45
0.0
 46
0.0
 47
1.5
 48
1.5
140
0.15625
141
0.09
142
0.0
143
25.399999999999999
144
1.0
145
0.0
146
1.0
147
0.09
 71
     0
 72
     0
 73
     1
 74
     1
 75
     0
 76
     0
 77
     0
 78
     4
170
     0
171
     2
172
     0
173
     0
174
     0
175
     0
176
     0
177
     0
178
     0
  0
ENDTAB
  0
ENDSEC
  0
SECTION
  2
BLOCKS
  0
BLOCK
  8
0
  2
$MODEL_SPACE
 70
     0
 10
0.0
 20
0.0
 30
0.0
  3
$MODEL_SPACE
  1

  0
ENDBLK
  5
21
  8
0
  0
BLOCK
 67
     1
  8
0
  2
$PAPER_SPACE
 70
     0
 10
0.0
 20
0.0
 30
0.0
  3
$PAPER_SPACE
  1

  0
ENDBLK
  5
1D
 67
     1
  8
0
  0
ENDSEC
  0
SECTION
  2
ENTITIES
  0
LINE
  5
1B3B
  8
0
 10
13.2750511563
 20
1.8214237805
 30
0.0
 11
13.2750511563
 21
2.0814237805000002
 31
0.0
  0
LINE
  5
1B3C
  8
0
 10
13.2750511563
 20
2.0814237805000002
 30
0.0
 11
13.296051156300001
 21
2.1024237805000001
 31
0.0
  0
LINE
  5
1B3D
  8
0
 10
13.296051156300001
 20
2.1024237805000001
 30
0.0
 11
13.6315511563
 21
2.1024237805000001
 31
0.0
  0
LINE
  5
1B3E
  8
0
 10
13.6315511563
 20
2.1024237805000001
 30
0.0
 11
13.655051156300001
 21
2.0789237804999998
 31
0.0
  0
LINE
  5
1B3F
  8
0
 10
13.655051156300001
 20
2.0789237804999998
 30
0.0
 11
13.745051156300001
 21
2.0789237804999998
 31
0.0
  0
LINE
  5
1B40
  8
0
 10
13.745051156300001
 20
2.0789237804999998
 30
0.0
 11
13.777551156299999
 21
2.1114237805
 31
0.0
  0
LINE
  5
1B41
  8
0
 10
13.777551156299999
 20
2.1114237805
 30
0.0
 11
13.8000511563
 21
2.1114237805
 31
0.0
  0
LINE
  5
1B42
  8
0
 10
13.8000511563
 20
2.1114237805
 30
0.0
 11
13.825051156300001
 21
2.136423780499999
 31
0.0
  0
LINE
  5
1B43
  8
0
 10
13.825051156300001
 20
1.6864237805
 30
0.0
 11
13.825051156300001
 21
2.2164237804999991
 31
0.0
  0
LINE
  5
1B44
  8
0
 10
13.825051156300001
 20
2.2164237804999991
 30
0.0
 11
13.9138464319
 21
2.2402164028999989
 31
0.0
  0
LINE
  5
1B45
  8
0
 10
13.9138464319
 20
1.6214237804999989
 30
0.0
 11
13.9138464319
 21
2.2814237804999991
 31
0.0
  0
LINE
  5
1B46
  8
0
 10
13.9138464319
 20
2.2814237804999991
 30
0.0
 11
13.918603188000001
 21
2.3721836474999991
 31
0.0
  0
ARC
  5
1B47
  8
0
 10
13.933759616771249
 20
2.3713892938126828
 30
0.0
 40
0.0151772306722437
 50
92.547175288513984
 51
176.9998532982128
  0
ARC
  5
1B48
  8
0
 10
13.936262310990379
 20
2.3578719773244079
 30
0.0
 40
0.0288550043901552
 50
91.156284683198876
 51
96.321607592007354
  0
LINE
  5
1B49
  8
0
 10
13.9356800284
 20
2.3867211059999991
 30
0.0
 11
13.9412110914
 21
2.3867211059999991
 31
0.0
  0
ARC
  5
1B4A
  8
0
 10
13.940428366917381
 20
2.354810796458267
 30
0.0
 40
0.0319199077797091
 50
83.940543733425869
 51
88.594879868249706
  0
ARC
  5
1B4B
  8
0
 10
13.942580486956309
 20
2.3708341353117501
 30
0.0
 40
0.0157652999549065
 50
4.909466659872181
 51
85.571347055565653
  0
ARC
  5
1B4C
  8
0
 10
13.978406753936831
 20
2.3715524132696171
 30
0.0
 40
0.0201286981903502
 50
178.20375053405741
 51
269.8539210615503
  0
LINE
  5
1B4D
  8
0
 10
13.978355434699999
 20
2.3514237804999998
 30
0.0
 11
14.0445166042
 21
2.3514237805000011
 31
0.0
  0
ARC
  5
1B4E
  8
0
 10
14.04451660419738
 20
2.371423780506555
 30
0.0
 40
0.0200000000065552
 50
270.00000000749083
 51
357.0000000534971
  0
LINE
  5
1B4F
  8
0
 10
14.0644891949
 20
2.3703770613999988
 30
0.0
 11
14.0716115083
 21
2.5062788978000001
 31
0.0
  0
ARC
  5
1B50
  8
0
 10
14.11654983739777
 20
2.503923780504723
 30
0.0
 40
0.0449999999952733
 50
89.999999997166029
 51
177.00000093763651
  0
LINE
  5
1B51
  8
0
 10
14.116549837399999
 20
2.5489237805
 30
0.0
 11
14.246877928
 21
2.5489237804935532
 31
0.0
  0
LINE
  5
1B52
  8
0
 10
14.246877928
 20
1.166428151599999
 30
0.0
 11
14.246877928
 21
2.7364194093999989
 31
0.0
  0
LINE
  5
1B53
  8
0
 10
14.246877928
 20
2.7364194093999989
 30
0.0
 11
14.2618823838
 21
2.751419821299999
 31
0.0
  0
LINE
  5
1B54
  8
0
 10
14.2618823838
 20
2.751419821299999
 30
0.0
 11
14.456877928000001
 21
2.7514237805000001
 31
0.0
  0
LINE
  5
1B55
  8
0
 10
14.456877928000001
 20
1.1439237804999991
 30
0.0
 11
14.456877928000001
 21
2.7589237804999991
 31
0.0
  0
LINE
  5
1B56
  8
0
 10
14.456877928000001
 20
2.7589237804999991
 30
0.0
 11
14.750547801
 21
2.7589237804999991
 31
0.0
  0
LINE
  5
1B57
  8
0
 10
14.750547801
 20
2.7589237804999991
 30
0.0
 11
14.754877928000001
 21
2.7514237805000001
 31
0.0
  0
LINE
  5
1B58
  8
0
 10
14.754877928000001
 20
2.7514237805000001
 30
0.0
 11
14.919880283299999
 21
2.7514217900999989
 31
0.0
  0
LINE
  5
1B59
  8
0
 10
14.919880283299999
 20
2.7514217900999989
 30
0.0
 11
14.934877928000001
 21
2.766419353299999
 31
0.0
  0
LINE
  5
1B5A
  8
0
 10
14.934877928000001
 20
0.8964237804999996
 30
0.0
 11
14.934877928000001
 21
3.0064237805
 31
0.0
  0
LINE
  5
1B5B
  8
0
 10
14.934877928000001
 20
3.0064237805
 30
0.0
 11
14.9842795028
 21
3.0064237804999991
 31
0.0
  0
LINE
  5
1B5C
  8
0
 10
14.9842795028
 20
3.0931560639999991
 30
0.0
 11
15.574468571400001
 21
3.0931560639999991
 31
0.0
  0
LINE
  5
1B5D
  8
0
 10
15.574468571400001
 20
3.0931560639999991
 30
0.0
 11
15.596877928
 21
3.0967904067999998
 31
0.0
  0
LINE
  5
1B5E
  8
0
 10
14.9842795028
 20
0.809691497
 30
0.0
 11
14.9842795028
 21
3.0931560639999991
 31
0.0
  0
LINE
  5
1B5F
  8
0
 10
13.2750511563
 20
1.8214237805
 30
0.0
 11
13.296051156300001
 21
1.8004237805000001
 31
0.0
  0
LINE
  5
1B60
  8
0
 10
13.296051156300001
 20
1.8004237805000001
 30
0.0
 11
13.6315511563
 21
1.8004237805000001
 31
0.0
  0
LINE
  5
1B61
  8
0
 10
13.6315511563
 20
1.8004237805000001
 30
0.0
 11
13.655051156300001
 21
1.8239237804999999
 31
0.0
  0
LINE
  5
1B62
  8
0
 10
13.655051156300001
 20
1.8239237804999999
 30
0.0
 11
13.745051156300001
 21
1.8239237804999999
 31
0.0
  0
LINE
  5
1B63
  8
0
 10
13.745051156300001
 20
1.8239237804999999
 30
0.0
 11
13.777551156299999
 21
1.7914237805
 31
0.0
  0
LINE
  5
1B64
  8
0
 10
13.777551156299999
 20
1.7914237805
 30
0.0
 11
13.8000511563
 21
1.7914237805
 31
0.0
  0
LINE
  5
1B65
  8
0
 10
13.8000511563
 20
1.7914237805
 30
0.0
 11
13.825051156300001
 21
1.7664237805
 31
0.0
  0
LINE
  5
1B66
  8
0
 10
13.825051156300001
 20
1.6864237805
 30
0.0
 11
13.9138464319
 21
1.6626311581
 31
0.0
  0
LINE
  5
1B67
  8
0
 10
13.9138464319
 20
1.6214237805
 30
0.0
 11
13.918603188000001
 21
1.5306639135
 31
0.0
  0
ARC
  5
1B68
  8
0
 10
13.933759616771249
 20
1.5314582671873169
 30
0.0
 40
0.0151772306722437
 50
183.00014670178709
 51
267.45282471148602
  0
ARC
  5
1B69
  8
0
 10
13.936262310990379
 20
1.544975583675591
 30
0.0
 40
0.0288550043901552
 50
263.6783924079927
 51
268.84371531680119
  0
LINE
  5
1B6A
  8
0
 10
13.9356800284
 20
1.516126455
 30
0.0
 11
13.9412110914
 21
1.516126455
 31
0.0
  0
ARC
  5
1B6B
  8
0
 10
13.940428366917381
 20
1.548036764541733
 30
0.0
 40
0.0319199077797091
 50
271.40512013175032
 51
276.0594562665741
  0
ARC
  5
1B6C
  8
0
 10
13.942580486956309
 20
1.5320134256882501
 30
0.0
 40
0.0157652999549065
 50
274.42865294443442
 51
355.09053334012788
  0
ARC
  5
1B6D
  8
0
 10
13.978406753936831
 20
1.5312951477303831
 30
0.0
 40
0.0201286981903502
 50
90.146078938449733
 51
181.79624946594251
  0
LINE
  5
1B6E
  8
0
 10
13.978355434699999
 20
1.5514237805
 30
0.0
 11
14.0445166042
 21
1.5514237804999991
 31
0.0
  0
ARC
  5
1B6F
  8
0
 10
14.04451660419738
 20
1.531423780493445
 30
0.0
 40
0.0200000000065552
 50
2.9999999465029021
 51
89.999999992509174
  0
LINE
  5
1B70
  8
0
 10
14.0644891949
 20
1.5324704996
 30
0.0
 11
14.0716115083
 21
1.3965686632000001
 31
0.0
  0
ARC
  5
1B71
  8
0
 10
14.11654983739777
 20
1.3989237804952761
 30
0.0
 40
0.0449999999952733
 50
182.9999990623634
 51
270.00000000283399
  0
LINE
  5
1B72
  8
0
 10
14.116549837399999
 20
1.3539237805
 30
0.0
 11
14.246877928
 21
1.353923780506447
 31
0.0
  0
LINE
  5
1B73
  8
0
 10
14.246877928
 20
1.1664281515999999
 30
0.0
 11
14.2618823838
 21
1.1514277396999999
 31
0.0
  0
LINE
  5
1B74
  8
0
 10
14.2618823838
 20
1.1514277396999999
 30
0.0
 11
14.456877928000001
 21
1.1514237805
 31
0.0
  0
LINE
  5
1B75
  8
0
 10
14.456877928000001
 20
1.1439237805
 30
0.0
 11
14.750547801
 21
1.1439237805
 31
0.0
  0
LINE
  5
1B76
  8
0
 10
14.750547801
 20
1.1439237805
 30
0.0
 11
14.754877928000001
 21
1.1514237805
 31
0.0
  0
LINE
  5
1B77
  8
0
 10
14.754877928000001
 20
1.1514237805
 30
0.0
 11
14.919880283299999
 21
1.1514257709
 31
0.0
  0
LINE
  5
1B78
  8
0
 10
14.919880283299999
 20
1.1514257709
 30
0.0
 11
14.934877928000001
 21
1.1364282077000001
 31
0.0
  0
LINE
  5
1B79
  8
0
 10
14.934877928000001
 20
0.8964237805000006
 30
0.0
 11
14.9842795028
 21
0.896423780500001
 31
0.0
  0
LINE
  5
1B7A
  8
0
 10
14.9842795028
 20
0.8096914970000007
 30
0.0
 11
16.035926565
 21
0.809691497
 31
0.0
  0
LINE
  5
1BAE
  8
0
 10
15.596877928
 20
3.6464211194999989
 30
0.0
 11
15.3239625419
 21
3.6464211194999989
 31
0.0
  0
ARC
  5
1BAF
  8
0
 10
15.484708990091381
 20
3.577475509514366
 30
0.0
 40
0.1749083123880512
 50
156.78506781635991
 51
168.3346513490161
  0
LINE
  5
1BB0
  8
0
 10
15.3134133611
 20
3.6128411033999992
 30
0.0
 11
15.3134133611
 21
3.1404006174999992
 31
0.0
  0
ARC
  5
1BB1
  8
0
 10
15.497839678462141
 20
3.1798907654660198
 30
0.0
 40
0.1886069314057844
 50
192.08604838079489
 51
202.79423245383941
  0
LINE
  5
1BB2
  8
0
 10
15.3239625419
 20
3.1068201423999979
 30
0.0
 11
15.596877928
 21
3.1068201423999979
 31
0.0
  0
LINE
  5
1BB3
  8
0
 10
15.596877928
 20
3.1148691863
 30
0.0
 11
15.3239625419
 21
3.1148691863
 31
0.0
  0
LINE
  5
1BB4
  8
0
 10
15.3239625419
 20
3.1148691863
 30
0.0
 11
15.3239625419
 21
3.1068201423999979
 31
0.0
  0
ARC
  5
1BB5
  8
0
 10
15.80673002818687
 20
3.202627820650001
 30
0.0
 40
0.4906791453880272
 50
169.69713785057911
 51
190.30286214942069
  0
LINE
  5
1BB6
  8
0
 10
15.3239625419
 20
3.2903864549999979
 30
0.0
 11
15.3239625419
 21
3.3204258957000001
 31
0.0
  0
ARC
  5
1BB7
  8
0
 10
16.23682175915425
 20
3.4403064196000019
 30
0.0
 40
0.9206971763487615
 50
172.51848930374479
 51
187.4815106962551
  0
LINE
  5
1BB8
  8
0
 10
15.3239625419
 20
3.560186943499998
 30
0.0
 11
15.3239625419
 21
3.582177340399999
 31
0.0
  0
ARC
  5
1BB9
  8
0
 10
15.38720369068945
 20
3.61423254875004
 30
0.0
 40
0.0709011938021821
 50
164.8730164547062
 51
206.87920323308549
  0
LINE
  5
1BBA
  8
0
 10
15.3239625419
 20
3.582177340399999
 30
0.0
 11
15.596877928
 21
3.582177340399999
 31
0.0
  0
LINE
  5
1BBB
  8
0
 10
15.596877928
 20
3.560186943499998
 30
0.0
 11
15.3239625419
 21
3.560186943499998
 31
0.0
  0
LINE
  5
1BBC
  8
0
 10
15.596877928
 20
3.3204258957000001
 30
0.0
 11
15.3239625419
 21
3.3204258957000099
 31
0.0
  0
LINE
  5
1BBD
  8
0
 10
15.596877928
 20
3.2903864549999979
 30
0.0
 11
15.3239625419
 21
3.2903864549999979
 31
0.0
  0
LINE
  5
1BBF
  8
0
 10
15.7405787154
 20
2.7466993710000001
 30
0.0
 11
15.701208636700001
 21
2.7466993710000001
 31
0.0
  0
LINE
  5
1BC0
  8
0
 10
15.701208636700001
 20
2.7466993710000001
 30
0.0
 11
15.667744069699999
 21
2.7801639379999998
 31
0.0
  0
LINE
  5
1BC1
  8
0
 10
15.667744069699999
 20
2.7801639379999998
 30
0.0
 11
15.600814935900001
 21
2.7801639379999998
 31
0.0
  0
LINE
  5
1BC2
  8
0
 10
15.600814935900001
 20
2.7801639379999998
 30
0.0
 11
15.596877928
 21
2.7841009458999988
 31
0.0
  0
LINE
  5
1BC3
  8
0
 10
15.596877928
 20
2.7841009458999988
 30
0.0
 11
15.596877928
 21
3.957249212699999
 31
0.0
  0
LINE
  5
1BC4
  8
0
 10
15.596877928
 20
3.957249212699999
 30
0.0
 11
15.600814935600001
 21
3.9612663005000002
 31
0.0
  0
LINE
  5
1BC5
  8
0
 10
15.600814935600001
 20
3.9612663005000002
 30
0.0
 11
15.667744069999999
 21
3.9612663005000002
 31
0.0
  0
LINE
  5
1BC6
  8
0
 10
15.667744069999999
 20
3.9612663005000002
 30
0.0
 11
15.6697125737
 21
3.9632737933999991
 31
0.0
  0
LINE
  5
1BC7
  8
0
 10
15.680778715400001
 20
3.9750458276999989
 30
0.0
 11
15.6697125737
 21
3.9750458276999989
 31
0.0
  0
LINE
  5
1BC8
  8
0
 10
15.6697125737
 20
3.9750458276999989
 30
0.0
 11
15.6677401477
 21
3.0033077739999992
 31
0.0
  0
LINE
  5
1BC9
  8
0
 10
15.7405787154
 20
4.1419513395999994
 30
0.0
 11
15.680778715400001
 21
4.1419513395999994
 31
0.0
  0
LINE
  5
1BCA
  8
0
 10
15.680778715400001
 20
4.1419513395999994
 30
0.0
 11
15.680778715400001
 21
3.931951339599999
 31
0.0
  0
LINE
  5
1BCB
  8
0
 10
15.680778715400001
 20
3.931951339599999
 30
0.0
 11
15.7405787154
 21
3.931951339599999
 31
0.0
  0
LINE
  5
1BCC
  8
0
 10
15.7405787154
 20
4.1419513395999994
 30
0.0
 11
15.7405787154
 21
1.712028298399999
 31
0.0
  0
ARC
  5
1BCD
  8
0
 10
15.730890253897449
 20
3.6632348041021521
 30
0.0
 40
0.1801115384966637
 50
138.08141675366701
 51
139.90586273800039
  0
LINE
  5
1BCE
  8
0
 10
15.59310721323428
 20
3.7792348041247732
 30
0.0
 11
15.594230120800139
 21
3.7782790317762971
 31
0.0
  0
ARC
  5
1BCF
  8
0
 10
15.73089025389999
 20
3.6632348041000049
 30
0.0
 40
0.1786369678999889
 50
139.9084127098993
 51
172.60247581890121
  0
LINE
  5
1BD0
  8
0
 10
15.553740130275219
 20
3.686234804105049
 30
0.0
 11
15.594230120800001
 21
3.6862348041000002
 31
0.0
  0
ARC
  5
1BD1
  8
0
 10
15.83502713315745
 20
3.663272834571166
 30
0.0
 40
0.2418893408253398
 50
174.5528484383394
 51
183.99486349073069
  0
LINE
  5
1BD2
  8
0
 10
15.7405787154
 20
3.9981077289398552
 30
0.0
 11
16.014425751299999
 21
3.9981980029000002
 31
0.0
  0
ARC
  5
1BD3
  8
0
 10
16.978140962405568
 20
3.6162105095340542
 30
0.0
 40
1.0366587930482469
 50
158.37812657639211
 51
177.30180411690469
  0
ARC
  5
1BD4
  8
0
 10
764.44624205650598
 20
16.59503025785807
 30
0.0
 40
748.6152820231863
 50
180.98965700654441
 51
181.0117249177234
  0
LINE
  5
1BD5
  8
0
 10
15.94766706841836
 20
3.3767202502675699
 30
0.0
 11
15.9210464211
 21
1.8516243858999999
 31
0.0
  0
LINE
  5
1BE0
  8
0
 10
15.921046421
 20
1.8516243787
 30
0.0
 11
16.018632305099999
 21
1.8516243802000001
 31
0.0
  0
ARC
  5
1BE1
  8
0
 10
16.008007091333919
 20
1.7508452340779921
 30
0.0
 40
0.1013377099635478
 50
37.08416611690096
 51
83.981501163875606
  0
ARC
  5
1BE2
  8
0
 10
15.775214936517109
 20
1.5577739962544761
 30
0.0
 40
0.4036982436626557
 50
20.158003438973068
 51
39.022115600517211
  0
LINE
  5
1BE3
  8
0
 10
16.154184994151681
 20
1.696892533311031
 30
0.0
 11
16.050280491900001
 21
1.6968924738999991
 31
0.0
  0
ARC
  5
1BE4
  8
0
 10
15.986968473061861
 20
1.5796494393913769
 30
0.0
 40
0.1332455889094193
 50
61.630807111905902
 51
96.538598302199574
  0
LINE
  5
1BE5
  8
0
 10
15.971795461399999
 20
1.7120283149
 30
0.0
 11
15.7405787154
 21
1.712028298399999
 31
0.0
  0
LINE
  5
1BE6
  8
0
 10
14.9842795028
 20
2.249689594099999
 30
0.0
 11
15.2575078493
 21
2.1502426781000001
 31
0.0
  0
LINE
  5
1BE7
  8
0
 10
15.2575078493
 20
2.1502426781000001
 30
0.0
 11
15.3953031249
 21
2.1502426797824561
 31
0.0
  0
LINE
  5
1BE8
  8
0
 10
15.3953031249
 20
2.1502426797824561
 30
0.0
 11
15.3953031249
 21
1.7526048828999989
 31
0.0
  0
LINE
  5
1BE9
  8
0
 10
15.3953031249
 20
1.7526048828999989
 30
0.0
 11
15.2575078493
 21
1.7526048828999989
 31
0.0
  0
LINE
  5
1BEA
  8
0
 10
15.2575078493
 20
1.7526048828999989
 30
0.0
 11
14.9842795028
 21
1.6531578975982111
 31
0.0
  0
LINE
  5
1BEB
  8
0
 10
15.3953031249
 20
1.7585103947
 30
0.0
 11
15.296877928000001
 21
1.7585103947
 31
0.0
  0
LINE
  5
1BEC
  8
0
 10
15.296877928000001
 20
1.7585103947
 30
0.0
 11
15.296877928000001
 21
2.1443313694000001
 31
0.0
  0
LINE
  5
1BED
  8
0
 10
15.296877928000001
 20
2.1443313694000001
 30
0.0
 11
15.3953031249
 21
2.1443313694000001
 31
0.0
  0
LINE
  5
1BEE
  8
0
 10
15.3115786154
 20
2.1502426787601938
 30
0.0
 11
15.3115786154
 21
2.1443371663000002
 31
0.0
  0
LINE
  5
1BEF
  8
0
 10
15.3115786154
 20
1.7585103947
 30
0.0
 11
15.3115786154
 21
1.7526048828999989
 31
0.0
  0
LINE
  5
1BF0
  8
0
 10
15.596877928
 20
2.9464205385999991
 30
0.0
 11
15.032343196299999
 21
2.9464205385999991
 31
0.0
  0
ARC
  5
1BF1
  8
0
 10
15.032343196299999
 20
2.9093239648619331
 30
0.0
 40
0.0370965737380669
 50
90.000000000000057
 51
136.77417575665149
  0
ARC
  5
1BF2
  8
0
 10
15.06818930567
 20
2.8736180898098791
 30
0.0
 40
0.087682561026028
 50
135.81531860209509
 51
163.13135696820859
  0
LINE
  5
1BF3
  8
0
 10
15.596877928
 20
2.7928497069999989
 30
0.0
 11
15.029858009
 21
2.7928497069999989
 31
0.0
  0
ARC
  5
1BF4
  8
0
 10
15.0296174351055
 20
2.847414765217736
 30
0.0
 40
0.0545655885527078
 50
237.6970527202246
 51
270.25261183536708
  0
ARC
  5
1BF5
  8
0
 10
15.02491205701082
 20
2.83818516131802
 30
0.0
 40
0.0442601825884475
 50
203.35900368774011
 51
236.46053982082179
  0
LINE
  5
1C37
  8
0
 10
14.394877928
 20
2.750362283299999
 30
0.0
 11
14.356877927999999
 21
2.750362283299999
 31
0.0
  0
ARC
  5
1C38
  8
0
 10
14.356877927999999
 20
2.4400956181068039
 30
0.0
 40
0.3102666651931956
 50
89.999999999999673
 51
95.277142531954283
  0
ARC
  5
1C39
  8
0
 10
14.332765179035309
 20
2.7011554463781091
 30
0.0
 40
0.0480956168303428
 50
95.277142531953615
 51
111.3160526038703
  0
ARC
  5
1C3A
  8
0
 10
14.320096146281371
 20
2.7336229544036361
 30
0.0
 40
0.0132438813167672
 50
111.3160526038704
 51
183.5674192810252
  0
LINE
  5
1C3B
  8
0
 10
14.306877928
 20
2.7327988804999999
 30
0.0
 11
14.306877928
 21
2.4907374212999991
 31
0.0
  0
ARC
  5
1C3C
  8
0
 10
14.51217174381893
 20
2.4877350434948751
 30
0.0
 40
0.2053157692092406
 50
179.16212130773181
 51
196.47188779727469
  0
ARC
  5
1C3D
  8
0
 10
14.403340655781911
 20
2.4574651596371329
 30
0.0
 40
0.0923864951990618
 50
197.6074523293843
 51
215.7287743102421
  0
ARC
  5
1C3E
  8
0
 10
14.35956734122996
 20
2.4236007775647339
 30
0.0
 40
0.0371268361481354
 50
212.74990129192119
 51
265.84593989518902
  0
ARC
  5
1C40
  8
0
 10
14.394877928
 20
2.4400956181068039
 30
0.0
 40
0.3102666651931956
 50
84.722857468045802
 51
90.000000000000398
  0
ARC
  5
1C41
  8
0
 10
14.418990676964681
 20
2.7011554463781091
 30
0.0
 40
0.0480956168303428
 50
68.683947396129696
 51
84.722857468046413
  0
ARC
  5
1C42
  8
0
 10
14.43165970971863
 20
2.7336229544036361
 30
0.0
 40
0.0132438813167672
 50
356.4325807189748
 51
68.683947396129682
  0
LINE
  5
1C43
  8
0
 10
14.444877928
 20
2.7327988804999999
 30
0.0
 11
14.444877928
 21
2.4907374212999991
 31
0.0
  0
ARC
  5
1C44
  8
0
 10
14.23958411218107
 20
2.4877350434948751
 30
0.0
 40
0.2053157692092406
 50
343.5281122027252
 51
0.8378786922682197
  0
ARC
  5
1C45
  8
0
 10
14.34841520021809
 20
2.4574651596371329
 30
0.0
 40
0.0923864951990618
 50
324.27122568975778
 51
342.39254767061573
  0
ARC
  5
1C46
  8
0
 10
14.392188514770041
 20
2.4236007775647339
 30
0.0
 40
0.0371268361481354
 50
274.15406010481092
 51
327.25009870807878
  0
LINE
  5
1C47
  8
0
 10
14.394877928
 20
2.3865714781
 30
0.0
 11
14.356877927999999
 21
2.3865714781
 31
0.0
  0
LINE
  5
1C48
  8
0
 10
14.394877928
 20
2.6823173856999989
 30
0.0
 11
14.356877927999999
 21
2.6823173856999989
 31
0.0
  0
ARC
  5
1C49
  8
0
 10
14.356877927999999
 20
2.6238956814891581
 30
0.0
 40
0.0584217042108413
 50
90.000000000000057
 51
120.27607810074009
  0
ARC
  5
1C4A
  8
0
 10
14.350711800043831
 20
2.6443620369402958
 30
0.0
 40
0.0379678593197186
 50
127.8332468052707
 51
165.4532045078773
  0
ARC
  5
1C4B
  8
0
 10
14.51067126190342
 20
2.608965566361884
 30
0.0
 40
0.2017767537208149
 50
167.13314916968059
 51
182.2623277669081
  0
ARC
  5
1C4C
  8
0
 10
14.89572019086051
 20
2.5978390873033139
 30
0.0
 40
0.5866769288119885
 50
179.69125320573721
 51
184.985977792017
  0
ARC
  5
1C4D
  8
0
 10
14.5168810678691
 20
2.5598297489206021
 30
0.0
 40
0.2060270981053613
 50
183.61207718935489
 51
202.1315505288205
  0
ARC
  5
1C4E
  8
0
 10
14.389628111923139
 20
2.5101646247066731
 30
0.0
 40
0.0694663578458903
 50
203.7274985668538
 51
220.22342951593529
  0
ARC
  5
1C4F
  8
0
 10
14.358789443719919
 20
2.4828459542143899
 30
0.0
 40
0.0282942220443252
 50
218.31148752810381
 51
266.12623146162122
  0
LINE
  5
1C50
  8
0
 10
14.356877927999999
 20
2.4546163756000001
 30
0.0
 11
14.394877928
 21
2.4546163756000001
 31
0.0
  0
ARC
  5
1C51
  8
0
 10
14.394877928
 20
2.6238956814891581
 30
0.0
 40
0.0584217042108413
 50
59.723921899259949
 51
90.0
  0
ARC
  5
1C52
  8
0
 10
14.401044055956159
 20
2.6443620369402958
 30
0.0
 40
0.0379678593197186
 50
14.54679549212265
 51
52.16675319472926
  0
ARC
  5
1C53
  8
0
 10
14.241084594096581
 20
2.608965566361884
 30
0.0
 40
0.2017767537208149
 50
357.73767223309193
 51
12.8668508303194
  0
ARC
  5
1C54
  8
0
 10
13.85603566513949
 20
2.5978390873033139
 30
0.0
 40
0.5866769288119885
 50
355.01402220798298
 51
0.3087467942627875
  0
ARC
  5
1C55
  8
0
 10
14.234874788130901
 20
2.5598297489206021
 30
0.0
 40
0.2060270981053613
 50
337.86844947117947
 51
356.38792281064508
  0
ARC
  5
1C56
  8
0
 10
14.36212774407686
 20
2.5101646247066731
 30
0.0
 40
0.0694663578458903
 50
319.77657048406479
 51
336.2725014331462
  0
ARC
  5
1C57
  8
0
 10
14.39296641228008
 20
2.4828459542143899
 30
0.0
 40
0.0282942220443252
 50
273.8737685383789
 51
321.68851247189622
  0
LINE
  5
1C58
  8
0
 10
14.311097861861811
 20
2.5489237805
 30
0.0
 11
14.410150440500001
 21
2.5489237805
 31
0.0
  0
ARC
  5
1C59
  8
0
 10
14.410150440500001
 20
2.5689237805038112
 30
0.0
 40
0.0200000000038112
 50
270.00000000000068
 51
356.99993984874902
  0
CIRCLE
  5
1C5A
  8
0
 10
14.374877928
 20
2.6144237805000001
 30
0.0
 40
0.0273819952999997
  0
CIRCLE
  5
1C5B
  8
0
 10
14.374877928
 20
2.6144237805000001
 30
0.0
 40
0.0590000000000011
  0
LINE
  5
1C5C
  8
0
 10
14.430123030100001
 20
2.5678770404107811
 30
0.0
 11
14.431737057199999
 21
2.5986745130000002
 31
0.0
  0
ARC
  5
1C5D
  8
0
 10
14.44883093501293
 20
2.6176860992041999
 30
0.0
 40
0.0159363450260818
 50
117.2190362968533
 51
165.22747887485809
  0
ARC
  5
1C5E
  8
0
 10
14.32387792800313
 20
2.6144237804918622
 30
0.0
 40
0.0200000000086473
 50
103.60896063425
 51
134.49542390733001
  0
ARC
  5
1C5F
  8
0
 10
14.323877928002821
 20
2.6144237805068808
 30
0.0
 40
0.0200000000073524
 50
222.1570939889566
 51
256.39103936598258
  0
LINE
  5
1C60
  8
0
 10
14.315877928000001
 20
2.596093477720177
 30
0.0
 11
14.315877928000001
 21
2.5489237805
 31
0.0
  0
LINE
  5
1C61
  8
0
 10
14.854877928000001
 20
2.750362283299999
 30
0.0
 11
14.816877928
 21
2.750362283299999
 31
0.0
  0
ARC
  5
1C62
  8
0
 10
14.816877928
 20
2.4400956181068039
 30
0.0
 40
0.3102666651931956
 50
89.999999999999673
 51
95.277142531954283
  0
ARC
  5
1C63
  8
0
 10
14.79276517903531
 20
2.7011554463781091
 30
0.0
 40
0.0480956168303428
 50
95.277142531953615
 51
111.3160526038703
  0
ARC
  5
1C64
  8
0
 10
14.78009614628137
 20
2.7336229544036361
 30
0.0
 40
0.0132438813167672
 50
111.3160526038704
 51
183.5674192810252
  0
LINE
  5
1C65
  8
0
 10
14.766877928
 20
2.7327988804999999
 30
0.0
 11
14.766877928
 21
2.4907374212999991
 31
0.0
  0
ARC
  5
1C66
  8
0
 10
14.972171743818929
 20
2.4877350434948751
 30
0.0
 40
0.2053157692092406
 50
179.16212130773181
 51
196.47188779727469
  0
ARC
  5
1C67
  8
0
 10
14.86334065578191
 20
2.4574651596371329
 30
0.0
 40
0.0923864951990618
 50
197.6074523293843
 51
215.7287743102421
  0
ARC
  5
1C68
  8
0
 10
14.819567341229959
 20
2.4236007775647339
 30
0.0
 40
0.0371268361481354
 50
212.74990129192119
 51
265.84593989518902
  0
ARC
  5
1C69
  8
0
 10
14.854877928000001
 20
2.4400956181068039
 30
0.0
 40
0.3102666651931956
 50
84.722857468045802
 51
90.000000000000384
  0
ARC
  5
1C6A
  8
0
 10
14.87899067696468
 20
2.7011554463781091
 30
0.0
 40
0.0480956168303428
 50
68.683947396129696
 51
84.722857468046413
  0
ARC
  5
1C6B
  8
0
 10
14.891659709718629
 20
2.7336229544036361
 30
0.0
 40
0.0132438813167672
 50
356.4325807189748
 51
68.683947396129682
  0
LINE
  5
1C6C
  8
0
 10
14.904877927999999
 20
2.7327988804999999
 30
0.0
 11
14.904877927999999
 21
2.4907374212999991
 31
0.0
  0
ARC
  5
1C6D
  8
0
 10
14.699584112181061
 20
2.4877350434948751
 30
0.0
 40
0.2053157692092406
 50
343.5281122027252
 51
0.8378786922682197
  0
ARC
  5
1C6E
  8
0
 10
14.808415200218089
 20
2.4574651596371329
 30
0.0
 40
0.0923864951990618
 50
324.27122568975778
 51
342.39254767061573
  0
ARC
  5
1C6F
  8
0
 10
14.85218851477004
 20
2.4236007775647339
 30
0.0
 40
0.0371268361481354
 50
274.15406010481092
 51
327.25009870807878
  0
LINE
  5
1C70
  8
0
 10
14.854877928000001
 20
2.3865714781
 30
0.0
 11
14.816877928
 21
2.3865714781
 31
0.0
  0
LINE
  5
1C71
  8
0
 10
14.854877928000001
 20
2.6823173856999989
 30
0.0
 11
14.816877928
 21
2.6823173856999989
 31
0.0
  0
ARC
  5
1C72
  8
0
 10
14.816877928
 20
2.6238956814891581
 30
0.0
 40
0.0584217042108413
 50
90.000000000000057
 51
120.27607810074009
  0
ARC
  5
1C73
  8
0
 10
14.81071180004383
 20
2.6443620369402958
 30
0.0
 40
0.0379678593197186
 50
127.8332468052707
 51
165.4532045078773
  0
ARC
  5
1C74
  8
0
 10
14.97067126190341
 20
2.608965566361884
 30
0.0
 40
0.2017767537208149
 50
167.13314916968059
 51
182.2623277669081
  0
ARC
  5
1C75
  8
0
 10
15.355720190860509
 20
2.5978390873033139
 30
0.0
 40
0.5866769288119885
 50
179.69125320573721
 51
184.985977792017
  0
ARC
  5
1C76
  8
0
 10
14.976881067869099
 20
2.5598297489206021
 30
0.0
 40
0.2060270981053613
 50
183.61207718935489
 51
202.1315505288205
  0
ARC
  5
1C77
  8
0
 10
14.849628111923129
 20
2.5101646247066731
 30
0.0
 40
0.0694663578458903
 50
203.7274985668538
 51
220.22342951593529
  0
ARC
  5
1C78
  8
0
 10
14.81878944371992
 20
2.4828459542143899
 30
0.0
 40
0.0282942220443252
 50
218.31148752810381
 51
266.12623146162122
  0
LINE
  5
1C79
  8
0
 10
14.816877928
 20
2.4546163756000001
 30
0.0
 11
14.854877928000001
 21
2.4546163756000001
 31
0.0
  0
ARC
  5
1C7A
  8
0
 10
14.854877928000001
 20
2.6238956814891581
 30
0.0
 40
0.0584217042108413
 50
59.723921899259949
 51
90.0
  0
ARC
  5
1C7B
  8
0
 10
14.86104405595616
 20
2.6443620369402958
 30
0.0
 40
0.0379678593197186
 50
14.54679549212265
 51
52.16675319472926
  0
ARC
  5
1C7C
  8
0
 10
14.70108459409658
 20
2.608965566361884
 30
0.0
 40
0.2017767537208149
 50
357.73767223309193
 51
12.8668508303194
  0
ARC
  5
1C7D
  8
0
 10
14.316035665139481
 20
2.5978390873033139
 30
0.0
 40
0.5866769288119885
 50
355.01402220798298
 51
0.3087467942627874
  0
ARC
  5
1C7E
  8
0
 10
14.694874788130891
 20
2.5598297489206021
 30
0.0
 40
0.2060270981053613
 50
337.86844947117947
 51
356.38792281064508
  0
ARC
  5
1C7F
  8
0
 10
14.822127744076861
 20
2.5101646247066731
 30
0.0
 40
0.0694663578458903
 50
319.77657048406479
 51
336.2725014331462
  0
ARC
  5
1C80
  8
0
 10
14.852966412280081
 20
2.4828459542143899
 30
0.0
 40
0.0282942220443252
 50
273.8737685383789
 51
321.68851247189622
  0
CIRCLE
  5
1C83
  8
0
 10
14.834877927999999
 20
2.6144237805000001
 30
0.0
 40
0.0273819952999997
  0
CIRCLE
  5
1C84
  8
0
 10
14.834877927999999
 20
2.6144237805000001
 30
0.0
 40
0.0590000000000011
  0
ARC
  5
1C87
  8
0
 10
14.783877928003131
 20
2.6144237804918622
 30
0.0
 40
0.0200000000086473
 50
103.60896063425
 51
134.49542390733001
  0
ARC
  5
1C88
  8
0
 10
14.78387792800282
 20
2.6144237805068808
 30
0.0
 40
0.0200000000073524
 50
222.1570939889566
 51
256.39103936598258
  0
LINE
  5
1C89
  8
0
 10
14.775877927999989
 20
2.596093477720177
 30
0.0
 11
14.775877927999989
 21
2.572624210322767
 31
0.0
  0
ARC
  5
1C8A
  8
0
 10
14.88587792799686
 20
2.6144237804918622
 30
0.0
 40
0.0200000000086473
 50
35.625381520920889
 51
76.391039365749933
  0
ARC
  5
1C8B
  8
0
 10
14.88587792799718
 20
2.6144237805068808
 30
0.0
 40
0.0200000000073524
 50
283.60896063401742
 51
313.49625134451941
  0
LINE
  5
1C8C
  8
0
 10
14.893877928
 20
2.596093477720177
 30
0.0
 11
14.893877928
 21
2.5877745819364999
 31
0.0
  0
ARC
  5
1C8E
  8
0
 10
14.84018501460098
 20
2.6207151190992741
 30
0.0
 40
0.0629921259988123
 50
287.5076159505175
 51
353.74524695779678
  0
ARC
  5
1C8F
  8
0
 10
14.816562967399619
 20
2.6207151190987221
 30
0.0
 40
0.0629921259987225
 50
221.4457792006053
 51
270.00000000034248
  0
LINE
  5
1CE8
  8
0
 10
14.394877928
 20
1.1524852777000001
 30
0.0
 11
14.356877927999999
 21
1.1524852777000001
 31
0.0
  0
ARC
  5
1CE9
  8
0
 10
14.356877927999999
 20
1.462751942893195
 30
0.0
 40
0.3102666651931956
 50
264.72285746804579
 51
270.00000000000028
  0
ARC
  5
1CEA
  8
0
 10
14.332765179035309
 20
1.20169211462189
 30
0.0
 40
0.0480956168303428
 50
248.68394739612981
 51
264.72285746804641
  0
ARC
  5
1CEB
  8
0
 10
14.320096146281371
 20
1.169224606596363
 30
0.0
 40
0.0132438813167672
 50
176.43258071897469
 51
248.68394739612961
  0
LINE
  5
1CEC
  8
0
 10
14.306877928
 20
1.170048680499999
 30
0.0
 11
14.306877928
 21
1.4121101397
 31
0.0
  0
ARC
  5
1CED
  8
0
 10
14.51217174381893
 20
1.415112517505124
 30
0.0
 40
0.2053157692092406
 50
163.52811220272531
 51
180.8378786922683
  0
ARC
  5
1CEE
  8
0
 10
14.403340655781911
 20
1.445382401362866
 30
0.0
 40
0.0923864951990618
 50
144.2712256897579
 51
162.3925476706157
  0
ARC
  5
1CEF
  8
0
 10
14.35956734122996
 20
1.4792467834352649
 30
0.0
 40
0.0371268361481354
 50
94.154060104810952
 51
147.25009870807881
  0
ARC
  5
1CF0
  8
0
 10
14.394877928
 20
1.462751942893195
 30
0.0
 40
0.3102666651931956
 50
269.9999999999996
 51
275.27714253195421
  0
ARC
  5
1CF1
  8
0
 10
14.418990676964681
 20
1.20169211462189
 30
0.0
 40
0.0480956168303428
 50
275.27714253195347
 51
291.31605260387028
  0
ARC
  5
1CF2
  8
0
 10
14.43165970971863
 20
1.169224606596363
 30
0.0
 40
0.0132438813167672
 50
291.31605260387028
 51
3.5674192810252658
  0
LINE
  5
1CF3
  8
0
 10
14.444877928
 20
1.170048680499999
 30
0.0
 11
14.444877928
 21
1.4121101397
 31
0.0
  0
ARC
  5
1CF4
  8
0
 10
14.23958411218107
 20
1.415112517505124
 30
0.0
 40
0.2053157692092406
 50
359.1621213077317
 51
16.471887797274761
  0
ARC
  5
1CF5
  8
0
 10
14.34841520021809
 20
1.445382401362866
 30
0.0
 40
0.0923864951990618
 50
17.60745232938438
 51
35.728774310242272
  0
ARC
  5
1CF6
  8
0
 10
14.392188514770041
 20
1.4792467834352649
 30
0.0
 40
0.0371268361481354
 50
32.74990129192124
 51
85.845939895189048
  0
LINE
  5
1CF7
  8
0
 10
14.394877928
 20
1.5162760828999999
 30
0.0
 11
14.356877927999999
 21
1.5162760828999999
 31
0.0
  0
LINE
  5
1CF8
  8
0
 10
14.394877928
 20
1.2205301753
 30
0.0
 11
14.356877927999999
 21
1.2205301753
 31
0.0
  0
ARC
  5
1CF9
  8
0
 10
14.356877927999999
 20
1.278951879510841
 30
0.0
 40
0.0584217042108413
 50
239.72392189925989
 51
269.99999999999989
  0
ARC
  5
1CFA
  8
0
 10
14.350711800043831
 20
1.258485524059703
 30
0.0
 40
0.0379678593197186
 50
194.54679549212261
 51
232.1667531947293
  0
ARC
  5
1CFB
  8
0
 10
14.51067126190342
 20
1.293881994638115
 30
0.0
 40
0.2017767537208149
 50
177.73767223309181
 51
192.86685083031941
  0
ARC
  5
1CFC
  8
0
 10
14.89572019086051
 20
1.3050084736966849
 30
0.0
 40
0.5866769288119885
 50
175.01402220798289
 51
180.30874679426279
  0
ARC
  5
1CFD
  8
0
 10
14.5168810678691
 20
1.343017812079397
 30
0.0
 40
0.2060270981053613
 50
157.8684494711795
 51
176.38792281064511
  0
ARC
  5
1CFE
  8
0
 10
14.389628111923139
 20
1.392682936293326
 30
0.0
 40
0.0694663578458903
 50
139.77657048406471
 51
156.27250143314609
  0
ARC
  5
1CFF
  8
0
 10
14.358789443719919
 20
1.4200016067856089
 30
0.0
 40
0.0282942220443252
 50
93.873768538378812
 51
141.68851247189619
  0
LINE
  5
1D00
  8
0
 10
14.356877927999999
 20
1.4482311854000001
 30
0.0
 11
14.394877928
 21
1.4482311854000001
 31
0.0
  0
ARC
  5
1D01
  8
0
 10
14.394877928
 20
1.278951879510841
 30
0.0
 40
0.0584217042108413
 50
270.0
 51
300.27607810073999
  0
ARC
  5
1D02
  8
0
 10
14.401044055956159
 20
1.258485524059703
 30
0.0
 40
0.0379678593197186
 50
307.83324680527068
 51
345.45320450787727
  0
ARC
  5
1D03
  8
0
 10
14.241084594096581
 20
1.293881994638115
 30
0.0
 40
0.2017767537208149
 50
347.13314916968062
 51
2.262327766908149
  0
ARC
  5
1D04
  8
0
 10
13.85603566513949
 20
1.3050084736966849
 30
0.0
 40
0.5866769288119885
 50
359.69125320573721
 51
4.9859777920170556
  0
ARC
  5
1D05
  8
0
 10
14.234874788130901
 20
1.343017812079397
 30
0.0
 40
0.2060270981053613
 50
3.6120771893549368
 51
22.131550528820469
  0
ARC
  5
1D06
  8
0
 10
14.36212774407686
 20
1.392682936293326
 30
0.0
 40
0.0694663578458903
 50
23.7274985668538
 51
40.223429515935273
  0
ARC
  5
1D07
  8
0
 10
14.39296641228008
 20
1.4200016067856089
 30
0.0
 40
0.0282942220443252
 50
38.311487528103797
 51
86.126231461621103
  0
LINE
  5
1D08
  8
0
 10
14.311097861861811
 20
1.3539237805
 30
0.0
 11
14.410150440500001
 21
1.3539237805
 31
0.0
  0
ARC
  5
1D09
  8
0
 10
14.410150440500001
 20
1.3339237804961881
 30
0.0
 40
0.0200000000038112
 50
3.0000601512510028
 51
89.999999999999304
  0
CIRCLE
  5
1D0A
  8
0
 10
14.374877928
 20
1.2884237805000001
 30
0.0
 40
0.0273819952999997
  0
CIRCLE
  5
1D0B
  8
0
 10
14.374877928
 20
1.2884237805000001
 30
0.0
 40
0.0590000000000011
  0
LINE
  5
1D0C
  8
0
 10
14.430123030100001
 20
1.3349705205892191
 30
0.0
 11
14.431737057199999
 21
1.304173048
 31
0.0
  0
ARC
  5
1D0D
  8
0
 10
14.44883093501293
 20
1.2851614617957989
 30
0.0
 40
0.0159363450260818
 50
194.77252112514191
 51
242.7809637031466
  0
ARC
  5
1D0E
  8
0
 10
14.32387792800313
 20
1.2884237805081371
 30
0.0
 40
0.0200000000086473
 50
225.50457609266999
 51
256.39103936574992
  0
ARC
  5
1D0F
  8
0
 10
14.323877928002821
 20
1.288423780493118
 30
0.0
 40
0.0200000000073524
 50
103.60896063401751
 51
137.84290601104331
  0
LINE
  5
1D10
  8
0
 10
14.315877928000001
 20
1.3067540832798219
 30
0.0
 11
14.315877928000001
 21
1.3539237805
 31
0.0
  0
ARC
  5
1D21
  8
0
 10
14.02016007075129
 20
1.9044509081588969
 30
0.0
 40
0.3501456793427364
 50
107.675572555825
 51
118.073229268197
  0
ARC
  5
1D22
  8
0
 10
13.89687344148299
 20
2.1356061253173761
 30
0.0
 40
0.0881679562899457
 50
118.0732292681966
 51
133.21646830760099
  0
ARC
  5
1D23
  8
0
 10
13.84969682709851
 20
2.1813519644377299
 30
0.0
 40
0.0227315678016285
 50
125.4897440414731
 51
234.54777916320009
  0
ARC
  5
1D24
  8
0
 10
13.930710631658259
 20
2.2756000487393981
 30
0.0
 40
0.146933246467134
 50
230.12623331895929
 51
247.4842583094925
  0
ARC
  5
1D25
  8
0
 10
14.070195005884569
 20
2.5876741016217721
 30
0.0
 40
0.4887224131918737
 50
246.38835192267899
 51
251.34234624631341
  0
ARC
  5
1D26
  8
0
 10
14.0644686813707
 20
1.829820427276573
 30
0.0
 40
0.2791505226826254
 50
122.65461593773691
 51
141.17024248444559
  0
ARC
  5
1D27
  8
0
 10
13.909200801023429
 20
1.9512008413566619
 30
0.0
 40
0.0821360169368335
 50
139.21845736812801
 51
223.5381462928988
  0
ARC
  5
1D28
  8
0
 10
14.06631034931741
 20
2.0755292656747191
 30
0.0
 40
0.2822499418315863
 50
219.8623463919235
 51
237.3045546717716
  0
ARC
  5
1D29
  8
0
 10
14.02016007075129
 20
1.9983966528411019
 30
0.0
 40
0.3501456793427364
 50
241.926770731803
 51
252.324427444175
  0
ARC
  5
1D2A
  8
0
 10
13.89687344148299
 20
1.767241435682624
 30
0.0
 40
0.0881679562899457
 50
226.7835316923989
 51
241.9267707318034
  0
ARC
  5
1D2B
  8
0
 10
13.84969682709851
 20
1.7214955965622689
 30
0.0
 40
0.0227315678016285
 50
125.4522208367998
 51
234.5102559585269
  0
ARC
  5
1D2C
  8
0
 10
13.930710631658259
 20
1.627247512260602
 30
0.0
 40
0.146933246467134
 50
112.5157416905075
 51
129.87376668104059
  0
ARC
  5
1D2D
  8
0
 10
14.070195005884569
 20
1.315173459378228
 30
0.0
 40
0.4887224131918737
 50
108.6576537536866
 51
113.61164807732099
  0
LINE
  5
1D2E
  8
0
 10
14.854877928000001
 20
1.152485277699999
 30
0.0
 11
14.816877928
 21
1.152485277699999
 31
0.0
  0
ARC
  5
1D2F
  8
0
 10
14.816877928
 20
1.462751942893195
 30
0.0
 40
0.3102666651931956
 50
264.72285746804579
 51
270.00000000000028
  0
ARC
  5
1D30
  8
0
 10
14.79276517903531
 20
1.20169211462189
 30
0.0
 40
0.0480956168303428
 50
248.68394739612981
 51
264.72285746804641
  0
ARC
  5
1D31
  8
0
 10
14.78009614628137
 20
1.169224606596363
 30
0.0
 40
0.0132438813167672
 50
176.43258071897469
 51
248.68394739612961
  0
LINE
  5
1D32
  8
0
 10
14.766877928
 20
1.170048680499999
 30
0.0
 11
14.766877928
 21
1.4121101396999991
 31
0.0
  0
ARC
  5
1D33
  8
0
 10
14.972171743818929
 20
1.415112517505124
 30
0.0
 40
0.2053157692092406
 50
163.52811220272531
 51
180.83787869226819
  0
ARC
  5
1D34
  8
0
 10
14.86334065578191
 20
1.4453824013628651
 30
0.0
 40
0.0923864951990618
 50
144.27122568975781
 51
162.3925476706157
  0
ARC
  5
1D35
  8
0
 10
14.819567341229959
 20
1.4792467834352641
 30
0.0
 40
0.0371268361481354
 50
94.154060104810995
 51
147.25009870807881
  0
ARC
  5
1D36
  8
0
 10
14.854877928000001
 20
1.462751942893195
 30
0.0
 40
0.3102666651931956
 50
269.99999999999972
 51
275.27714253195421
  0
ARC
  5
1D37
  8
0
 10
14.87899067696468
 20
1.20169211462189
 30
0.0
 40
0.0480956168303428
 50
275.27714253195347
 51
291.31605260387028
  0
ARC
  5
1D38
  8
0
 10
14.891659709718629
 20
1.169224606596363
 30
0.0
 40
0.0132438813167672
 50
291.31605260387028
 51
3.5674192810252658
  0
LINE
  5
1D39
  8
0
 10
14.904877927999999
 20
1.170048680499999
 30
0.0
 11
14.904877927999999
 21
1.4121101396999991
 31
0.0
  0
ARC
  5
1D3A
  8
0
 10
14.699584112181061
 20
1.415112517505124
 30
0.0
 40
0.2053157692092406
 50
359.1621213077317
 51
16.471887797274761
  0
ARC
  5
1D3B
  8
0
 10
14.808415200218089
 20
1.4453824013628651
 30
0.0
 40
0.0923864951990618
 50
17.607452329384319
 51
35.728774310242201
  0
ARC
  5
1D3C
  8
0
 10
14.85218851477004
 20
1.4792467834352641
 30
0.0
 40
0.0371268361481354
 50
32.74990129192124
 51
85.845939895189048
  0
LINE
  5
1D3D
  8
0
 10
14.854877928000001
 20
1.516276082899999
 30
0.0
 11
14.816877928
 21
1.516276082899999
 31
0.0
  0
LINE
  5
1D3E
  8
0
 10
14.854877928000001
 20
1.2205301752999991
 30
0.0
 11
14.816877928
 21
1.2205301752999991
 31
0.0
  0
ARC
  5
1D3F
  8
0
 10
14.816877928
 20
1.278951879510841
 30
0.0
 40
0.0584217042108413
 50
239.72392189925989
 51
269.99999999999989
  0
ARC
  5
1D40
  8
0
 10
14.81071180004383
 20
1.258485524059703
 30
0.0
 40
0.0379678593197186
 50
194.54679549212261
 51
232.1667531947293
  0
ARC
  5
1D41
  8
0
 10
14.97067126190341
 20
1.2938819946381139
 30
0.0
 40
0.2017767537208149
 50
177.73767223309181
 51
192.86685083031941
  0
ARC
  5
1D42
  8
0
 10
15.355720190860509
 20
1.3050084736966849
 30
0.0
 40
0.5866769288119885
 50
175.01402220798289
 51
180.30874679426279
  0
ARC
  5
1D43
  8
0
 10
14.976881067869099
 20
1.343017812079397
 30
0.0
 40
0.2060270981053613
 50
157.8684494711795
 51
176.38792281064511
  0
ARC
  5
1D44
  8
0
 10
14.849628111923129
 20
1.392682936293326
 30
0.0
 40
0.0694663578458903
 50
139.77657048406471
 51
156.27250143314609
  0
ARC
  5
1D45
  8
0
 10
14.81878944371992
 20
1.4200016067856089
 30
0.0
 40
0.0282942220443252
 50
93.873768538378812
 51
141.68851247189619
  0
LINE
  5
1D46
  8
0
 10
14.816877928
 20
1.448231185399999
 30
0.0
 11
14.854877928000001
 21
1.448231185399999
 31
0.0
  0
ARC
  5
1D47
  8
0
 10
14.854877928000001
 20
1.278951879510841
 30
0.0
 40
0.0584217042108413
 50
270.0
 51
300.27607810073999
  0
ARC
  5
1D48
  8
0
 10
14.86104405595616
 20
1.258485524059703
 30
0.0
 40
0.0379678593197186
 50
307.83324680527068
 51
345.45320450787739
  0
ARC
  5
1D49
  8
0
 10
14.70108459409658
 20
1.2938819946381139
 30
0.0
 40
0.2017767537208149
 50
347.13314916968062
 51
2.262327766908149
  0
ARC
  5
1D4A
  8
0
 10
14.316035665139481
 20
1.3050084736966849
 30
0.0
 40
0.5866769288119885
 50
359.69125320573721
 51
4.9859777920170583
  0
ARC
  5
1D4B
  8
0
 10
14.694874788130891
 20
1.343017812079397
 30
0.0
 40
0.2060270981053613
 50
3.6120771893549368
 51
22.13155052882048
  0
ARC
  5
1D4C
  8
0
 10
14.822127744076861
 20
1.392682936293326
 30
0.0
 40
0.0694663578458903
 50
23.7274985668538
 51
40.223429515935273
  0
ARC
  5
1D4D
  8
0
 10
14.852966412280081
 20
1.4200016067856089
 30
0.0
 40
0.0282942220443252
 50
38.311487528103797
 51
86.126231461621103
  0
CIRCLE
  5
1D4E
  8
0
 10
14.834877927999999
 20
1.2884237804999989
 30
0.0
 40
0.0273819952999997
  0
CIRCLE
  5
1D4F
  8
0
 10
14.834877927999999
 20
1.2884237804999989
 30
0.0
 40
0.0590000000000011
  0
ARC
  5
1D50
  8
0
 10
14.783877928003131
 20
1.2884237805081371
 30
0.0
 40
0.0200000000086473
 50
225.50457609266999
 51
256.39103936574998
  0
ARC
  5
1D51
  8
0
 10
14.78387792800282
 20
1.288423780493118
 30
0.0
 40
0.0200000000073524
 50
103.60896063401739
 51
137.8429060110434
  0
LINE
  5
1D52
  8
0
 10
14.775877927999989
 20
1.306754083279821
 30
0.0
 11
14.775877927999989
 21
1.3302233506772321
 31
0.0
  0
ARC
  5
1D53
  8
0
 10
14.88587792799686
 20
1.2884237805081371
 30
0.0
 40
0.0200000000086473
 50
283.60896063425008
 51
324.374618479079
  0
ARC
  5
1D54
  8
0
 10
14.88587792799718
 20
1.288423780493118
 30
0.0
 40
0.0200000000073524
 50
46.503748655480642
 51
76.391039365982635
  0
LINE
  5
1D55
  8
0
 10
14.893877928
 20
1.306754083279821
 30
0.0
 11
14.893877928
 21
1.3150729790634981
 31
0.0
  0
ARC
  5
1D56
  8
0
 10
14.84018501460098
 20
1.282132441900725
 30
0.0
 40
0.0629921259988123
 50
6.2547530422032303
 51
72.49238404948251
  0
ARC
  5
1D57
  8
0
 10
14.816562967399619
 20
1.282132441901277
 30
0.0
 40
0.0629921259987225
 50
89.999999999657476
 51
138.5542207993947
  0
LINE
  5
1D58
  8
0
 10
14.754877928000001
 20
2.7514237805000001
 30
0.0
 11
14.754897228572981
 21
1.15142378073282
 31
0.0
  0
LINE
  5
1D59
  8
0
 10
14.456877928000001
 20
1.184310584099999
 30
0.0
 11
14.691369398399999
 21
1.184310584099999
 31
0.0
  0
LINE
  5
1D5A
  8
0
 10
14.691369398399999
 20
1.184310584099999
 30
0.0
 11
14.691369398399999
 21
1.1439237805
 31
0.0
  0
ARC
  5
1D64
  8
0
 10
13.605401676744471
 20
1.5476737805
 30
0.0
 40
1.145145713425026
 50
341.49983489955179
 51
18.50016510044826
  0
LINE
  5
1D65
  8
0
 10
14.691369398399999
 20
1.9110369769
 30
0.0
 11
14.691369398399999
 21
1.9918105840999969
 31
0.0
  0
ARC
  5
1D66
  8
0
 10
13.56443303407204
 20
2.355173780499999
 30
0.0
 40
1.1840685713854371
 50
342.12888648987678
 51
17.87111351012323
  0
LINE
  5
1D67
  8
0
 10
14.691369398399999
 20
2.718536976899999
 30
0.0
 11
14.691369398399999
 21
2.7589237804999991
 31
0.0
  0
LINE
  5
1D68
  8
0
 10
14.456877928000001
 20
2.718536976899999
 30
0.0
 11
14.691369398399999
 21
2.718536976899999
 31
0.0
  0
LINE
  5
1D69
  8
0
 10
14.456877928000001
 20
1.9918105840999989
 30
0.0
 11
14.691369398399999
 21
1.9918105840999989
 31
0.0
  0
LINE
  5
1D6A
  8
0
 10
14.691369398399999
 20
1.9110369769
 30
0.0
 11
14.456877928000001
 21
1.9110369769
 31
0.0
  0
LINE
  5
1D6B
  8
0
 10
14.2618823838
 20
1.1514277396999999
 30
0.0
 11
14.2618823838
 21
2.751419821299999
 31
0.0
  0
ARC
  5
1D6C
  8
0
 10
16.035926708488059
 20
0.7309515311968095
 30
0.0
 40
0.0787399658034996
 50
29.99991816310823
 51
90.000160512706728
  0
LINE
  5
1D6D
  8
0
 10
16.1041175754
 20
0.7703214167
 30
0.0
 11
17.404598912193091
 21
0.7703214183
 31
0.0
  0
ARC
  5
1D6E
  8
0
 10
17.473753465261868
 20
0.7292823752431256
 30
0.0
 40
0.0804148946847379
 50
90.68654663844238
 51
149.31343354401031
  0
LINE
  5
1D6F
  8
0
 10
17.472789916899998
 20
0.809691497
 30
0.0
 11
17.874299837399999
 21
0.8096915157999999
 31
0.0
  0
ARC
  5
1D70
  8
0
 10
17.874300471781901
 20
0.8884320509905039
 30
0.0
 40
0.0787405351930595
 50
269.99953839016371
 51
306.99395842466038
  0
LINE
  5
1D71
  8
0
 10
17.921681077599999
 20
0.8255547078000001
 30
0.0
 11
17.921681077599999
 21
4.526031528499999
 31
0.0
  0
LINE
  5
1D72
  8
0
 10
17.921681077599999
 20
4.526031528499999
 30
0.0
 11
17.898985270000001
 21
4.5293765364
 31
0.0
  0
LINE
  5
1D73
  8
0
 10
17.898985270000001
 20
4.5293765364
 30
0.0
 11
17.796302819200001
 21
4.529373313799999
 31
0.0
  0
ARC
  5
1D74
  8
0
 10
17.796305290470102
 20
4.4506306616549169
 30
0.0
 40
0.0787426521838614
 50
90.001798178535836
 51
178.99820772916451
  0
LINE
  5
1D75
  8
0
 10
17.717574674200002
 20
4.452007373199999
 30
0.0
 11
17.711028422536561
 21
4.0776439638402406
 31
0.0
  0
ARC
  5
1D76
  8
0
 10
17.485487617032678
 20
4.0877474485882699
 30
0.0
 40
0.225766993494164
 50
333.54217901519451
 51
357.435052727813
  0
ARC
  5
1D77
  8
0
 10
17.62613892832972
 20
4.033455601632209
 30
0.0
 40
0.0769533780017157
 50
236.45387143287499
 51
323.0145175980424
  0
LINE
  5
1D78
  8
0
 10
17.068789289516818
 20
4.0262269300999183
 30
0.0
 11
17.443864383400001
 21
4.0262269300999183
 31
0.0
  0
ARC
  5
1D79
  8
0
 10
17.443864383400001
 20
3.8293765362235841
 30
0.0
 40
0.1968503938763337
 50
44.999784098032087
 51
89.999999999999943
  0
ARC
  5
1D7B
  8
0
 10
17614.60216702933
 20
17600.855060450958
 30
0.0
 40
24885.849305006861
 50
224.99978409803199
 51
225.0002158724289
  0
ARC
  5
1D7C
  8
0
 10
17.255244020745941
 20
3.3755344350330931
 30
0.0
 40
0.6511399586735119
 50
315.59973184673288
 51
45.00021587242879
  0
ARC
  5
1D7D
  8
0
 10
21.928269879703819
 20
-1.4912748195310379
 30
0.0
 40
6.0962750077037002
 50
133.64798536820439
 51
135.4603281775363
  0
ARC
  5
1D7E
  8
0
 10
17.443864383329231
 20
2.9238647257417409
 30
0.0
 40
0.1968503940418766
 50
269.99993307621048
 51
314.99999996583341
  0
LINE
  5
1D7F
  8
0
 10
17.4438641534
 20
2.7270143316999991
 30
0.0
 11
17.0687894828
 21
2.7270143316999991
 31
0.0
  0
ARC
  5
1D80
  8
0
 10
17.068789289516818
 20
3.8293765362235841
 30
0.0
 40
0.1968503938763337
 50
90.0
 51
135.00021590196781
  0
ARC
  5
1D81
  8
0
 10
-17580.089513356412
 20
17600.855060450958
 30
0.0
 40
24885.849305006861
 50
314.99978412757099
 51
315.00021590196781
  0
ARC
  5
1D82
  8
0
 10
17.257409652170882
 20
3.3755344350330931
 30
0.0
 40
0.6511399586735119
 50
134.99978412757099
 51
224.40026815326709
  0
ARC
  5
1D83
  8
0
 10
12.584383793213
 20
-1.4912748195310379
 30
0.0
 40
6.0962750077037002
 50
44.539671822463767
 51
46.352014631795598
  0
ARC
  5
1D84
  8
0
 10
17.068789289587588
 20
2.9238647257417409
 30
0.0
 40
0.1968503940418766
 50
225.00000003416639
 51
270.00006692378957
  0
CIRCLE
  5
1D85
  8
0
 10
17.256326746900001
 20
3.3766206308999989
 30
0.0
 40
0.574803149600001
  0
CIRCLE
  5
1D86
  8
0
 10
17.256326746900001
 20
3.3766206308999989
 30
0.0
 40
0.4547244094000005
  0
CIRCLE
  5
1D87
  8
0
 10
17.256326746900001
 20
3.3766206308999989
 30
0.0
 40
0.2814960630000003
  0
LINE
  5
1D88
  8
0
 10
17.016169266599999
 20
3.5234689136289958
 30
0.0
 11
17.016169266599999
 21
3.229772348171001
 31
0.0
  0
LINE
  5
1D89
  8
0
 10
17.016169266599999
 20
3.2978804733999989
 30
0.0
 11
17.526585920807889
 21
3.2978804733999989
 31
0.0
  0
LINE
  5
1D8A
  8
0
 10
17.016169266599999
 20
3.4553607883999988
 30
0.0
 11
17.526585920807889
 21
3.4553607883999988
 31
0.0
  0
CIRCLE
  5
1D8B
  8
0
 10
17.256326746900001
 20
3.3766206308999989
 30
0.0
 40
0.3759842519999995
  0
LINE
  5
1D8C
  8
0
 10
17.714975937924109
 20
4.3033922844000001
 30
0.0
 11
17.476352987999999
 21
4.3033922844000001
 31
0.0
  0
LINE
  5
1D8D
  8
0
 10
17.476352987999999
 20
4.3033922844000001
 30
0.0
 11
17.455578820100001
 21
4.3243324722000001
 31
0.0
  0
LINE
  5
1D8E
  8
0
 10
17.455578820100001
 20
4.3243324722000001
 30
0.0
 11
17.4253618276
 21
4.3579490647999997
 31
0.0
  0
ARC
  5
1D8F
  8
0
 10
17.280192748674711
 20
4.246182294705914
 30
0.0
 40
0.1832099134143124
 50
37.592945670766817
 51
68.770717527416693
  0
ARC
  5
1D90
  8
0
 10
17.336081431471118
 20
4.3951328368683109
 30
0.0
 40
0.024199961511036
 50
64.412197821380744
 51
86.884742458364016
  0
LINE
  5
1D91
  8
0
 10
17.337396571500001
 20
4.4192970364999988
 30
0.0
 11
17.303496341648511
 21
4.4193025074673136
 31
0.0
  0
ARC
  5
1D92
  8
0
 10
17.324676027331272
 20
4.179417801564278
 30
0.0
 40
0.2408178845522546
 50
95.045603072432613
 51
131.0616709413103
  0
ARC
  5
1D93
  8
0
 10
17.075368262173619
 20
4.5356829831387193
 30
0.0
 40
0.1970252376141633
 50
246.27483745924249
 51
297.54766393601199
  0
ARC
  5
1D94
  8
0
 10
16.73236182269245
 20
3.5916468314907251
 30
0.0
 40
0.8079204213021863
 50
70.947473918496073
 51
88.439873820086234
  0
ARC
  5
1D95
  8
0
 10
16.776330189153231
 20
3.5917795224394999
 30
0.0
 40
0.8077871134778115
 50
91.558647130702909
 51
109.0539840680871
  0
ARC
  5
1D96
  8
0
 10
16.38925666898518
 20
4.7079781401443439
 30
0.0
 40
0.3736230428695089
 50
287.32902951736929
 51
289.27992691373157
  0
ARC
  5
1D97
  8
0
 10
16.545084039425529
 20
4.2300780359837331
 30
0.0
 40
0.1291587437907544
 50
110.1727105005111
 51
145.41494643062239
  0
LINE
  5
1D98
  8
0
 10
16.438749651399998
 20
4.3033922844000001
 30
0.0
 11
16.0261254642
 21
4.3033922844000001
 31
0.0
  0
LINE
  5
1D99
  8
0
 10
16.0261254642
 20
4.3033922844000001
 30
0.0
 11
16.022999340199998
 21
4.1246521270000001
 31
0.0
  0
LINE
  5
1D9A
  8
0
 10
16.118245245499999
 20
4.3033922844000001
 30
0.0
 11
16.120268465999999
 21
4.4193025075000003
 31
0.0
  0
LINE
  5
1D9B
  8
0
 10
16.120268465999999
 20
4.4193025075000003
 30
0.0
 11
16.179555093399991
 21
4.4785891347999991
 31
0.0
  0
LINE
  5
1D9C
  8
0
 10
16.179555093399991
 20
4.4785891347999991
 30
0.0
 11
16.179556182999999
 21
4.6285891348000003
 31
0.0
  0
LINE
  5
1D9D
  8
0
 10
16.179556182999999
 20
4.6285891348000003
 30
0.0
 11
17.3291613926
 21
4.6285891348000003
 31
0.0
  0
LINE
  5
1D9E
  8
0
 10
17.3291613926
 20
4.6285891348000003
 30
0.0
 11
17.3291613926
 21
4.4785891347999991
 31
0.0
  0
LINE
  5
1D9F
  8
0
 10
17.3291613926
 20
4.4785891347999991
 30
0.0
 11
17.504358242999999
 21
4.3033922844000001
 31
0.0
  0
LINE
  5
1DA0
  8
0
 10
17.3291613926
 20
4.4785891347999991
 30
0.0
 11
16.17955509346066
 21
4.4785974855401669
 31
0.0
  0
LINE
  5
1DA1
  8
0
 10
16.120268465999999
 20
4.4193025075000003
 30
0.0
 11
16.2052202912
 21
4.4193025038
 31
0.0
  0
ARC
  5
1DA2
  8
0
 10
16.205220284412508
 20
4.2634621324999937
 30
0.0
 40
0.1558403713000055
 50
85.720959613828825
 51
89.999997504533596
  0
ARC
  5
1DA3
  8
0
 10
16.215991364458031
 20
4.407417216506718
 30
0.0
 40
0.011482890105819
 50
39.126145043666568
 51
85.720959613833017
  0
ARC
  5
1DA4
  8
0
 10
16.196105539233908
 20
4.3938731832041791
 30
0.0
 40
0.035514911180355
 50
327.56437479588851
 51
35.830558521155481
  0
ARC
  5
1DA5
  8
0
 10
16.103450494113609
 20
4.4459947144065817
 30
0.0
 40
0.1417855772936505
 50
315.23270757006441
 51
329.87055791470539
  0
ARC
  5
1DA6
  8
0
 10
14.24685950007596
 20
6.4238761494618588
 30
0.0
 40
2.854437368529426
 50
312.02328798370968
 51
313.28977865243519
  0
LINE
  5
1DA7
  8
0
 10
15.7405787154
 20
4.1243685897000004
 30
0.0
 11
15.747228594499999
 21
4.1246521270000001
 31
0.0
  0
LINE
  5
1DA8
  8
0
 10
15.747228594499999
 20
4.1246521270000001
 30
0.0
 11
17.634482827199999
 21
4.1246521270000001
 31
0.0
  0
ARC
  5
1DB2
  8
0
 10
17.634969111015039
 20
4.2038834414947548
 30
0.0
 40
0.0792328067691385
 50
269.6483503954629
 51
349.98664610587139
  0
ARC
  5
1DF4
  8
0
 10
16.061626737269599
 20
2.9687869131885409
 30
0.0
 40
0.2861729756569355
 50
243.97351460852019
 51
286.11589969668012
  0
ARC
  5
1DF5
  8
0
 10
16.597550035828071
 20
2.2426313594953382
 30
0.0
 40
0.6418626266842492
 50
107.8149556552258
 51
135.33191637782991
  0
ARC
  5
1DF6
  8
0
 10
16.4752964248122
 20
2.5129619877439282
 30
0.0
 40
0.3487225030181936
 50
59.343486648342783
 51
102.2717177321299
  0
ARC
  5
1DF7
  8
0
 10
16.204750797977798
 20
2.0515219488778951
 30
0.0
 40
0.8836236902150698
 50
36.955387415686459
 51
59.508813681318721
  0
ARC
  5
1DF8
  8
0
 10
16.784166810563701
 20
2.5514259748176729
 30
0.0
 40
0.1305061200731811
 50
357.42763259676491
 51
13.88784155068312
  0
LINE
  5
1DF9
  8
0
 10
16.914541423700001
 20
2.5455687035999999
 30
0.0
 11
16.891535442386189
 21
0.9461125670000001
 31
0.0
  0
LINE
  5
1DFA
  8
0
 10
16.891535442822551
 20
0.9461125973369238
 30
0.0
 11
16.8742737931478
 21
0.8982741741627032
 31
0.0
  0
LINE
  5
1DFB
  8
0
 10
16.8742737931478
 20
0.8982741741627032
 30
0.0
 11
16.079344652500001
 21
0.8982741741999999
 31
0.0
  0
LINE
  5
1DFC
  8
0
 10
16.079344652500001
 20
0.8982741741999999
 30
0.0
 11
16.062062933313801
 21
0.9461125669999999
 31
0.0
  0
LINE
  5
1DFD
  8
0
 10
16.062062933313801
 20
0.9461125669999999
 30
0.0
 11
16.050280491900001
 21
1.6968924738999991
 31
0.0
  0
ARC
  5
1DFE
  8
0
 10
16.994831640645831
 20
2.5728376373488722
 30
0.0
 40
0.0845567763113852
 50
94.672076688491131
 51
173.26761240290281
  0
LINE
  5
1DFF
  8
0
 10
16.987944255811168
 20
2.6571134485304508
 30
0.0
 11
17.453827924134359
 21
2.6571137549000001
 31
0.0
  0
ARC
  5
1E00
  8
0
 10
17.450616596547839
 20
1.6563427402789539
 30
0.0
 40
1.0007761669476889
 50
76.494645484111487
 51
89.816146867626017
  0
LINE
  5
1E01
  8
0
 10
17.68433409428312
 20
2.6294455444999989
 30
0.0
 11
17.906062855999998
 21
2.629444059199999
 31
0.0
  0
ARC
  5
1E02
  8
0
 10
17.905112848740401
 20
2.717883875336474
 30
0.0
 40
0.0884434347021125
 50
270.61554036134208
 51
280.80005836536208
  0
ARC
  5
1E44
  8
0
 10
17.68902579118998
 20
2.5084251867874219
 30
0.0
 40
0.1211112670264247
 50
92.220121364890275
 51
176.94755106668239
  0
LINE
  5
1E45
  8
0
 10
17.5680863559
 20
2.5148743721999991
 30
0.0
 11
17.552775651699999
 21
1.9301552953000001
 31
0.0
  0
ARC
  5
1E46
  8
0
 10
8.8602029624903658
 20
1.962284576689431
 30
0.0
 40
8.6926348567982004
 50
355.05411192741701
 51
359.78822708314368
  0
ARC
  5
1E47
  8
0
 10
16.051851988985959
 20
1.339940257737523
 30
0.0
 40
1.474108125419644
 50
346.26632258764238
 51
355.0541119274169
  0
ARC
  5
1E48
  8
0
 10
17.173186290058101
 20
1.0354365854899901
 30
0.0
 40
0.3139380187964133
 50
323.0248690105845
 51
351.67340202789183
  0
ARC
  5
1E49
  8
0
 10
17.34108273407794
 20
0.9653012861788624
 30
0.0
 40
0.1447778365087231
 50
300.32305425921282
 51
304.93549591959282
  0
ARC
  5
1E4A
  8
0
 10
17.42636437596164
 20
0.7585502209486447
 30
0.0
 40
0.0826829953994939
 50
98.475904094448254
 51
171.81525529700781
  0
ARC
  5
1E4B
  8
0
 10
17.611644621034149
 20
1.418276684148982
 30
0.0
 40
0.0871991074616096
 50
101.9838859012979
 51
146.8249672980088
  0
ARC
  5
1E4C
  8
0
 10
17.651090530927942
 20
1.285937921419436
 30
0.0
 40
0.2251183086857884
 50
88.454647991149898
 51
104.8121407313368
  0
LINE
  5
1E4D
  8
0
 10
17.657161568900001
 20
1.5109743526999999
 30
0.0
 11
17.885749127854989
 21
1.5109743526999999
 31
0.0
  0
ARC
  5
1E4E
  8
0
 10
17.886627402481921
 20
1.68653774190726
 30
0.0
 40
0.1755655860248824
 50
269.71337412756009
 51
281.51731840482142
  0
LINE
  5
1E90
  8
0
 10
15.596877928
 20
3.0061000722000002
 30
0.0
 11
15.6008188804
 21
3.0033077739999992
 31
0.0
  0
LINE
  5
1E91
  8
0
 10
15.6008188804
 20
3.0033077739999992
 30
0.0
 11
15.6677401477
 21
3.0033077739999992
 31
0.0
  0
LINE
  5
1E92
  8
0
 10
15.6677401477
 20
3.0033077739999992
 30
0.0
 11
15.701208636700001
 21
2.9795079463
 31
0.0
  0
LINE
  5
1E93
  8
0
 10
15.701208636700001
 20
2.9795079463
 30
0.0
 11
15.7405787154
 21
2.9795079463
 31
0.0
  0
LINE
  5
1E94
  8
0
 10
15.596877928
 20
2.914231868399999
 30
0.0
 11
15.6008188804
 21
2.9114395700999989
 31
0.0
  0
LINE
  5
1E95
  8
0
 10
15.6008188804
 20
2.9114395700999989
 30
0.0
 11
15.6677401477
 21
2.9114395700999989
 31
0.0
  0
LINE
  5
1E96
  8
0
 10
15.6677401477
 20
2.9114395700999989
 30
0.0
 11
15.701208636700001
 21
2.8876397424000002
 31
0.0
  0
LINE
  5
1E97
  8
0
 10
15.701208636700001
 20
2.8876397424000002
 30
0.0
 11
15.7405787154
 21
2.8876397424000002
 31
0.0
  0
LINE
  5
1E98
  8
0
 10
15.596877928
 20
3.2585103962000002
 30
0.0
 11
15.7405787154
 21
3.2585103947
 31
0.0
  0
LINE
  5
1E99
  8
0
 10
15.701208636700001
 20
2.8876397424000002
 30
0.0
 11
15.701208636700001
 21
2.7466993710000001
 31
0.0
  0
LINE
  5
1E9A
  8
0
 10
15.701208636700001
 20
2.9795079463
 30
0.0
 11
15.701208636700001
 21
3.2585103947
 31
0.0
  0
LINE
  5
1E9B
  8
0
 10
15.667744069699999
 20
2.9114395700999989
 30
0.0
 11
15.667744069699999
 21
2.7801639379999998
 31
0.0
  0
LINE
  5
1EDD
  8
0
 10
16.892199842237229
 20
0.9841760143000001
 30
0.0
 11
17.001229564999999
 21
0.9841760143000001
 31
0.0
  0
ARC
  5
1EDE
  8
0
 10
16.993506243999398
 20
0.7683178795099411
 30
0.0
 40
0.2159962593248388
 50
34.856358013063868
 51
87.950853184300072
  0
ARC
  5
1EDF
  8
0
 10
17.604699445496301
 20
1.3189350579378281
 30
0.0
 40
0.6089227729315542
 50
224.54898584901969
 51
240.96656755185941
  0
ARC
  5
1EE0
  8
0
 10
16.07135818197759
 20
-1.248290050717866
 30
0.0
 40
2.3817419374813178
 50
57.94464837979109
 51
58.68709122378408
  0
LINE
  5
1EE1
  8
0
 10
14.07161150829999
 20
2.5062788977999668
 30
0.0
 11
14.0716115083
 21
1.3965686631998999
 31
0.0
  0
LINE
  5
1EE2
  8
0
 10
13.958382844999999
 20
1.5333463819265269
 30
0.0
 11
13.958382844999999
 21
2.3695011790734459
 31
0.0
  0
LINE
  5
1EEF
  8
0
 10
13.8000511563
 20
1.7914237805000011
 30
0.0
 11
13.8000511563
 21
2.1114237804
 31
0.0
  0
LINE
  5
1EF0
  8
0
 10
13.777551156299999
 20
2.1114237804
 30
0.0
 11
13.777551156299999
 21
1.7914237805000011
 31
0.0
  0
LINE
  5
1EF1
  8
0
 10
13.745051156300001
 20
1.8239237805000019
 30
0.0
 11
13.745051156300001
 21
2.0789237803999989
 31
0.0
  0
LINE
  5
1EF2
  8
0
 10
13.655051156300001
 20
2.0789237803999989
 30
0.0
 11
13.655051156300001
 21
1.8239237805000019
 31
0.0
  0
LINE
  5
1EF3
  8
0
 10
13.6315511563
 20
1.8004237805000001
 30
0.0
 11
13.6315511563
 21
2.102423780400001
 31
0.0
  0
LINE
  5
1EF4
  8
0
 10
13.296051156300001
 20
1.8004237805000001
 30
0.0
 11
13.296051156300001
 21
2.102423780400001
 31
0.0
  0
ATTDEF
  5
236B
  8
DEFPOINTS
 10
14.27282137425332
 20
1.9533624092394311
 30
0.0
 40
0.001
  1
K-2972-KS
  3

  2
MODELNUMBER
 70
     0
1001
ACDBATTR
1070
     0
1070
     1
  0
ATTDEF
  5
236C
  8
DEFPOINTS
 10
14.27282137425332
 20
1.9516957425727659
 30
0.0
 40
0.001
  1
MASTERSHOWER
  3

  2
TRADENAME
 70
     0
1001
ACDBATTR
1070
     0
1070
     1
  0
ATTDEF
  5
236D
  8
DEFPOINTS
 10
14.27282137425332
 20
1.950029075906101
 30
0.0
 40
0.001
  1
THERMOSTATIC VALVE
  3

  2
PRODUCT
 70
     0
1001
ACDBATTR
1070
     0
1070
     1
  0
ATTDEF
  5
236E
  8
DEFPOINTS
 10
14.27282137425332
 20
1.948362409239436
 30
0.0
 40
0.001
  1
BRASS
  3

  2
MATERIAL
 70
     0
1001
ACDBATTR
1070
     0
1070
     1
  0
ENDSEC
  0
EOF
