  0
SECTION
  2
HEADER
  9
$ACADVER
  1
AC1009
  9
$INSBASE
 10
4.9508292846000002
 20
1.9514237805000001
 30
0.0
  9
$EXTMIN
 10
2.627994638899998
 20
0.7703214183
 30
0.0
  9
$EXTMAX
 10
7.2736639302999988
 20
4.6285891348000003
 30
0.0
  9
$LIMMIN
 10
0.0
 20
0.0
  9
$LIMMAX
 10
11.692913385800001
 20
8.2677165353999982
  9
$ORTHOMODE
 70
     0
  9
$REGENMODE
 70
     1
  9
$FILLMODE
 70
     1
  9
$QTEXTMODE
 70
     0
  9
$MIRRTEXT
 70
     0
  9
$DRAGMODE
 70
     2
  9
$LTSCALE
 40
0.6431102362
  9
$OSMODE
 70
  3071
  9
$ATTMODE
 70
     1
  9
$TEXTSIZE
 40
0.2
  9
$TRACEWID
 40
0.05
  9
$TEXTSTYLE
  7
STANDARD
  9
$CLAYER
  8
0
  9
$CELTYPE
  6
BYLAYER
  9
$CECOLOR
 62
   256
  9
$DIMSCALE
 40
1.0
  9
$DIMASZ
 40
0.1875
  9
$DIMEXO
 40
0.0625
  9
$DIMDLI
 40
0.4443307087
  9
$DIMRND
 40
0.0
  9
$DIMDLE
 40
0.0
  9
$DIMEXE
 40
0.125
  9
$DIMTP
 40
0.0
  9
$DIMTM
 40
0.0
  9
$DIMTXT
 40
0.5
  9
$DIMCEN
 40
0.1052362205
  9
$DIMTSZ
 40
0.0
  9
$DIMTOL
 70
     0
  9
$DIMLIM
 70
     0
  9
$DIMTIH
 70
     1
  9
$DIMTOH
 70
     1
  9
$DIMSE1
 70
     0
  9
$DIMSE2
 70
     0
  9
$DIMTAD
 70
     0
  9
$DIMZIN
 70
     0
  9
$DIMBLK
  1

  9
$DIMASO
 70
     1
  9
$DIMSHO
 70
     1
  9
$DIMPOST
  1
\X
  9
$DIMAPOST
  1

  9
$DIMALT
 70
     1
  9
$DIMALTD
 70
     2
  9
$DIMALTF
 40
25.399999999999999
  9
$DIMLFAC
 40
1.0
  9
$DIMTOFL
 70
     0
  9
$DIMTVP
 40
0.0
  9
$DIMTIX
 70
     0
  9
$DIMSOXD
 70
     0
  9
$DIMSAH
 70
     0
  9
$DIMBLK1
  1

  9
$DIMBLK2
  1

  9
$DIMSTYLE
  2
STANDARD
  9
$DIMCLRD
 70
     0
  9
$DIMCLRE
 70
     0
  9
$DIMCLRT
 70
     0
  9
$DIMTFAC
 40
1.0
  9
$DIMGAP
 40
0.09
  9
$LUNITS
 70
     2
  9
$LUPREC
 70
     4
  9
$SKETCHINC
 40
0.1
  9
$FILLETRAD
 40
0.0
  9
$AUNITS
 70
     0
  9
$AUPREC
 70
     0
  9
$MENU
  1
.
  9
$ELEVATION
 40
0.0
  9
$PELEVATION
 40
0.0
  9
$THICKNESS
 40
0.0
  9
$LIMCHECK
 70
     0
  9
$BLIPMODE
 70
     0
  9
$CHAMFERA
 40
0.0
  9
$CHAMFERB
 40
0.0
  9
$SKPOLY
 70
     0
  9
$TDCREATE
 40
2457855.7467127899
  9
$TDUPDATE
 40
2457856.7442172221
  9
$TDINDWG
 40
0.8312685532
  9
$TDUSRTIMER
 40
0.8312685532
  9
$USRTIMER
 70
     1
  9
$ANGBASE
 50
0.0
  9
$ANGDIR
 70
     0
  9
$PDMODE
 70
     0
  9
$PDSIZE
 40
0.3125
  9
$PLINEWID
 40
0.0
  9
$COORDS
 70
     1
  9
$SPLFRAME
 70
     0
  9
$SPLINETYPE
 70
     6
  9
$SPLINESEGS
 70
     8
  9
$ATTDIA
 70
     1
  9
$ATTREQ
 70
     1
  9
$HANDLING
 70
     1
  9
$HANDSEED
  5
23CF
  9
$SURFTAB1
 70
     6
  9
$SURFTAB2
 70
     6
  9
$SURFTYPE
 70
     6
  9
$SURFU
 70
     6
  9
$SURFV
 70
     6
  9
$UCSNAME
  2

  9
$UCSORG
 10
0.0
 20
0.0
 30
0.0
  9
$UCSXDIR
 10
1.0
 20
0.0
 30
0.0
  9
$UCSYDIR
 10
0.0
 20
1.0
 30
0.0
  9
$PUCSNAME
  2

  9
$PUCSORG
 10
0.0
 20
0.0
 30
0.0
  9
$PUCSXDIR
 10
1.0
 20
0.0
 30
0.0
  9
$PUCSYDIR
 10
0.0
 20
1.0
 30
0.0
  9
$USERI1
 70
     0
  9
$USERI2
 70
     0
  9
$USERI3
 70
     0
  9
$USERI4
 70
     0
  9
$USERI5
 70
     0
  9
$USERR1
 40
0.0
  9
$USERR2
 40
0.0
  9
$USERR3
 40
0.0
  9
$USERR4
 40
0.0
  9
$USERR5
 40
0.0
  9
$WORLDVIEW
 70
     1
  9
$SHADEDGE
 70
     3
  9
$SHADEDIF
 70
    70
  9
$TILEMODE
 70
     1
  9
$MAXACTVP
 70
    48
  9
$PLIMCHECK
 70
     0
  9
$PEXTMIN
 10
1.0000000000000000E+020
 20
1.0000000000000000E+020
 30
1.0000000000000000E+020
  9
$PEXTMAX
 10
-1.0000000000000000E+020
 20
-1.0000000000000000E+020
 30
-1.0000000000000000E+020
  9
$PLIMMIN
 10
0.0
 20
0.0
  9
$PLIMMAX
 10
12.0
 20
9.0
  9
$UNITMODE
 70
     0
  9
$VISRETAIN
 70
     1
  9
$PLINEGEN
 70
     0
  9
$PSLTSCALE
 70
     1
  0
ENDSEC
  0
SECTION
  2
TABLES
  0
TABLE
  2
VPORT
 70
     1
  0
VPORT
  2
*ACTIVE
 70
     0
 10
0.0
 20
0.0
 11
1.0
 21
1.0
 12
0.0
 22
0.0
 13
0.0
 23
0.0
 14
1.0
 24
1.0
 15
0.0
 25
0.0
 16
-0.0000000000000036
 26
0.0
 36
17.40110621093692
 17
4.9508292675018311
 27
2.6994552910327911
 37
0.0
 40
6.0389133598983911
 41
2.1638418079096038
 42
50.0
 43
0.0
 44
0.0
 50
0.0
 51
0.0
 71
     0
 72
   100
 73
     1
 74
     1
 75
     0
 76
     0
 77
     0
 78
     0
  0
ENDTAB
  0
TABLE
  2
LTYPE
 70
     2
  0
LTYPE
  2
CONTINUOUS
 70
     0
  3
Solid line
 72
    65
 73
     0
 40
0.0
  0
LTYPE
  2
PHANTOM2
 70
     0
  3
___ _ _ ___ _ _ ___ _ _ ___ _ _
 72
    65
 73
     6
 40
1.25
 49
0.625
 49
-0.125
 49
0.125
 49
-0.125
 49
0.125
 49
-0.125
  0
ENDTAB
  0
TABLE
  2
LAYER
 70
     2
  0
LAYER
  2
0
 70
     0
 62
     7
  6
CONTINUOUS
  0
LAYER
  2
DEFPOINTS
 70
     0
 62
     7
  6
CONTINUOUS
  0
ENDTAB
  0
TABLE
  2
STYLE
 70
     1
  0
STYLE
  2
STANDARD
 70
     0
 40
0.0
 41
0.8
 50
0.0
 71
     0
 42
0.2
  3
txt
  4

  0
ENDTAB
  0
TABLE
  2
VIEW
 70
     0
  0
ENDTAB
  0
TABLE
  2
UCS
 70
     0
  0
ENDTAB
  0
TABLE
  2
APPID
 70
     7
  0
APPID
  2
ACAD
 70
     0
  0
APPID
  2
ACAD_MLEADERVER
 70
     0
  0
APPID
  2
ACAD_NAV_VCDISPLAY
 70
     0
  0
APPID
  2
ACAD_DSTYLE_DIMJAG
 70
     0
  0
APPID
  2
ACAD_DSTYLE_DIMTALN
 70
     0
  0
APPID
  2
ACAD_EXEMPT_FROM_CAD_STANDARDS
 70
     0
  0
APPID
  2
ACDBATTR
 70
     0
  0
ENDTAB
  0
TABLE
  2
DIMSTYLE
 70
     1
  0
DIMSTYLE
  2
STANDARD
 70
     0
  3

  4

  5

  6

  7

 40
1.0
 41
0.1875
 42
0.0625
 43
0.38
 44
0.125
 45
0.0
 46
0.0
 47
1.5
 48
1.5
140
0.15625
141
0.09
142
0.0
143
25.399999999999999
144
1.0
145
0.0
146
1.0
147
0.09
 71
     0
 72
     0
 73
     1
 74
     1
 75
     0
 76
     0
 77
     0
 78
     4
170
     0
171
     2
172
     0
173
     0
174
     0
175
     0
176
     0
177
     0
178
     0
  0
ENDTAB
  0
ENDSEC
  0
SECTION
  2
BLOCKS
  0
BLOCK
  8
0
  2
$MODEL_SPACE
 70
     0
 10
0.0
 20
0.0
 30
0.0
  3
$MODEL_SPACE
  1

  0
ENDBLK
  5
21
  8
0
  0
BLOCK
 67
     1
  8
0
  2
$PAPER_SPACE
 70
     0
 10
0.0
 20
0.0
 30
0.0
  3
$PAPER_SPACE
  1

  0
ENDBLK
  5
1D
 67
     1
  8
0
  0
ENDSEC
  0
SECTION
  2
ENTITIES
  0
LINE
  5
16B4
  8
0
 10
4.376026135
 20
4.6285891348000003
 30
0.0
 11
5.5256324341999994
 21
4.6285891348000003
 31
0.0
  0
LINE
  5
16B5
  8
0
 10
5.5256324341999994
 20
4.6285891348000003
 30
0.0
 11
5.5256324341999994
 21
4.4785891347999991
 31
0.0
  0
LINE
  5
16B6
  8
0
 10
5.5256324341999994
 20
4.4785891347999991
 30
0.0
 11
5.6049538088000004
 21
4.399267760299999
 31
0.0
  0
ARC
  5
16B7
  8
0
 10
3.074368017085205
 20
4.340643417229856
 30
0.0
 40
2.5312647555775749
 50
0.2703077697086996
 51
1.3270946005842601
  0
ARC
  5
16B8
  8
0
 10
5.6378225751271929
 20
4.3517752246953254
 30
0.0
 40
0.0322281537630906
 50
178.5597283976436
 51
210.32583740115101
  0
ARC
  5
16B9
  8
0
 10
5.7991041856918342
 20
4.437224057005154
 30
0.0
 40
0.2147231177751618
 50
208.27687133176249
 51
218.5557642820223
  0
LINE
  5
16BA
  8
0
 10
5.5256324341999994
 20
4.4785891347999991
 30
0.0
 11
4.376026135
 21
4.4785891347999991
 31
0.0
  0
LINE
  5
16BB
  8
0
 10
4.6337833273999989
 20
4.4193025075000003
 30
0.0
 11
5.2678733052000002
 21
4.4193025075000003
 31
0.0
  0
ARC
  5
16BC
  8
0
 10
5.2678733052000011
 20
3.951459113111222
 30
0.0
 40
0.4678433943887779
 50
87.530793861385391
 51
90.000000000000099
  0
ARC
  5
16BD
  8
0
 10
5.2815173054939208
 20
4.3377314762780248
 30
0.0
 40
0.0813975410055119
 50
70.932880089462159
 51
85.411412637492276
  0
ARC
  5
16BE
  8
0
 10
5.2820931942911598
 20
4.2944008368044226
 30
0.0
 40
0.1230439616944212
 50
17.88607002210702
 51
77.794064194673879
  0
ARC
  5
16BF
  8
0
 10
5.6426008616069963
 20
4.3685211900032694
 30
0.0
 40
0.2461068625223929
 50
188.48906253700241
 51
195.345366011072
  0
LINE
  5
16C0
  8
0
 10
5.4052681553999991
 20
4.3033922844000001
 30
0.0
 11
5.7983512115999991
 21
4.3033922844000001
 31
0.0
  0
LINE
  5
16C2
  8
0
 10
5.798353402
 20
4.3033922844000001
 30
0.0
 11
5.8002465552999993
 21
4.1952889719000002
 31
0.0
  0
ARC
  5
16C3
  8
0
 10
5.8778882661253151
 20
4.1966486680801376
 30
0.0
 40
0.0776536157148155
 50
181.00328662360801
 51
224.77913873512929
  0
ARC
  5
16C4
  8
0
 10
5.9440656469488626
 20
4.2024130132382211
 30
0.0
 40
0.0787401575621076
 50
309.8376031985278
 51
358.9999998504353
  0
LINE
  5
16C5
  8
0
 10
6.0227938119999997
 20
4.2010388077999989
 30
0.0
 11
6.0244871897378358
 21
4.2980523389142791
 31
0.0
  0
ARC
  5
16C6
  8
0
 10
6.2598844028723812
 20
4.293943464660428
 30
0.0
 40
0.23543307074229
 50
0.9994690705215346
 51
178.9999998504353
  0
LINE
  5
16C7
  8
0
 10
6.4952816540822891
 20
4.2980501569990004
 30
0.0
 11
6.5000238273155206
 21
4.0262268861443822
 31
0.0
  0
CIRCLE
  5
16C8
  8
0
 10
6.2598844027
 20
4.2939434654999991
 30
0.0
 40
0.1023622046999996
  0
CIRCLE
  5
16C9
  8
0
 10
6.2598844027
 20
4.2939434654999991
 30
0.0
 40
0.1376415258003167
  0
LINE
  5
16CA
  8
0
 10
4.6855945283973801
 20
3.963951339599999
 30
0.0
 11
5.2160640409004362
 21
3.963951339599999
 31
0.0
  0
ARC
  5
16CB
  8
0
 10
5.2160640409004362
 20
4.2169251167763973
 30
0.0
 40
0.2529737771763978
 50
270.0
 51
316.08619770279518
  0
ARC
  5
16CC
  8
0
 10
5.6201307338549356
 20
3.8473055659800441
 30
0.0
 40
0.2948002407305398
 50
91.854858095070753
 51
138.80481614862069
  0
LINE
  5
16CD
  8
0
 10
5.6105887202999991
 20
4.1419513395999994
 30
0.0
 11
6.069829284599999
 21
4.1419513396000003
 31
0.0
  0
ARC
  5
16CE
  8
0
 10
6.0696808186969999
 20
4.1117180843121881
 30
0.0
 40
0.0302336198200332
 50
1.4213671172687909
 51
89.718640907629904
  0
LINE
  5
16CF
  8
0
 10
6.0999051359000003
 20
4.1124680289999986
 30
0.0
 11
6.0998292846000002
 21
3.931951339599999
 31
0.0
  0
ARC
  5
16D0
  8
0
 10
6.0698166736022676
 20
3.9319639505977309
 30
0.0
 40
0.0300126136472389
 50
270.02407510972768
 51
359.9759248902734
  0
LINE
  5
16D1
  8
0
 10
6.0698292845999999
 20
3.9019513396000001
 30
0.0
 11
5.8988292996958442
 21
3.9018794871236522
 31
0.0
  0
ARC
  5
16D2
  8
0
 10
5.8988166992366668
 20
3.9318670176656689
 30
0.0
 40
0.0299875331893107
 50
179.83888980485079
 51
270.02407510972779
  0
LINE
  5
16D3
  8
0
 10
5.8688292846000003
 20
3.931951339599999
 30
0.0
 11
5.8690040315417109
 21
3.9940966051140809
 31
0.0
  0
ARC
  5
16D4
  8
0
 10
5.8490172195933399
 20
3.994152806245955
 30
0.0
 40
0.019986890964499
 50
359.83888980485278
 51
103.02743080466919
  0
ARC
  5
16D7
  8
0
 10
5.9848292845090452
 20
3.378951339632001
 30
0.0
 40
0.649999999909046
 50
102.4667502504354
 51
180.00000000282091
  0
LINE
  5
16D8
  8
0
 10
5.3348292845999987
 20
3.378951339599999
 30
0.0
 11
5.3348292845999987
 21
3.1809513396
 31
0.0
  0
ARC
  5
16D9
  8
0
 10
5.2598292845999959
 20
3.1809513396000009
 30
0.0
 40
0.0750000000000015
 50
270.0000000000021
 51
359.99999999999898
  0
LINE
  5
16DA
  8
0
 10
5.2598292845999994
 20
3.1059513395999989
 30
0.0
 11
5.1450357585316562
 21
3.1059513395999989
 31
0.0
  0
ARC
  5
16DB
  8
0
 10
5.14496106356094
 20
3.1809513818972222
 30
0.0
 40
0.0750000794927837
 50
190.0000221029635
 51
270.0570627032568
  0
LINE
  5
16DC
  8
0
 10
5.0711004088240381
 20
3.167927726275237
 30
0.0
 11
5.056766834969352
 21
3.2492174634046811
 31
0.0
  0
ARC
  5
16DD
  8
0
 10
4.9508296752521499
 20
3.2309508740388959
 30
0.0
 40
0.1075004655618112
 50
9.7832273543325563
 51
169.99979178935811
  0
ARC
  5
16DE
  8
0
 10
4.9508292842961561
 20
3.2309513392378939
 30
0.0
 40
0.0984251972621063
 50
10.00000017707416
 51
170.00661509828029
  0
LINE
  5
16DF
  8
0
 10
5.0477591815988134
 20
3.2480426956785311
 30
0.0
 11
5.0623462558181673
 21
3.1653152883519611
 31
0.0
  0
ARC
  5
16E0
  8
0
 10
5.1843337517503194
 20
3.1976757582013828
 30
0.0
 40
0.1262067715008673
 50
194.85705244842219
 51
259.24402244537191
  0
ARC
  5
16E1
  8
0
 10
5.9842938515999986
 20
3.3766206308999989
 30
0.0
 40
0.6299212598000001
 50
100.552838906389
 51
79.428923912978973
  0
CIRCLE
  5
16E2
  8
0
 10
5.9842938515999986
 20
3.3766206308999989
 30
0.0
 40
0.4822834646000001
  0
CIRCLE
  5
16E3
  8
0
 10
5.9842938515999986
 20
3.3766206308999989
 30
0.0
 40
0.2755905512000001
  0
CIRCLE
  5
16E4
  8
0
 10
5.9842938515999986
 20
3.3766206308999989
 30
0.0
 40
0.2362204724000001
  0
ARC
  5
16E5
  8
0
 10
5.9842938515999986
 20
3.3766206308999989
 30
0.0
 40
0.5984251969000001
 50
141.23188784810719
 51
308.76811215189281
  0
ARC
  5
16E6
  8
0
 10
5.9842938515999986
 20
3.3766206308999989
 30
0.0
 40
0.5118110236000001
 50
142.29182464431639
 51
307.70817535568358
  0
LINE
  5
16E7
  8
0
 10
5.5871811669676399
 20
3.8656015193323592
 30
0.0
 11
5.6923097261195732
 21
3.7604729601804272
 31
0.0
  0
LINE
  5
16E8
  8
0
 10
5.8661836152999989
 20
3.9953699869636461
 30
0.0
 11
5.8661836153000007
 21
3.8442180135998369
 31
0.0
  0
LINE
  5
16E9
  8
0
 10
5.4953129631228244
 20
3.7737333154771751
 30
0.0
 11
5.6004415222763679
 21
3.6686047563236301
 31
0.0
  0
LINE
  5
16EA
  8
0
 10
6.3814065361771748
 20
2.8876397424228242
 30
0.0
 11
6.2762779770236303
 21
2.9927683015763691
 31
0.0
  0
LINE
  5
16EB
  8
0
 10
6.4732750802030221
 20
2.9795083651338841
 30
0.0
 11
6.368140844962376
 21
3.0846294907720111
 31
0.0
  0
LINE
  5
16EC
  8
0
 10
6.6030432076827337
 20
3.2585103947
 30
0.0
 11
6.4518912343250951
 21
3.2585103947
 31
0.0
  0
LINE
  5
16ED
  8
0
 10
5.9280991163525982
 20
3.6464211194859071
 30
0.0
 11
6.1678601642810138
 21
3.582177340251496
 31
0.0
  0
LINE
  5
16EE
  8
0
 10
6.1898505609897763
 20
3.5601869435381479
 30
0.0
 11
6.2540943401421698
 21
3.3204258954426149
 31
0.0
  0
LINE
  5
16EF
  8
0
 10
6.2460452963428166
 20
3.290386455042817
 30
0.0
 11
6.0705280274571818
 21
3.1148691861571818
 31
0.0
  0
LINE
  5
16F0
  8
0
 10
6.0404885867911391
 20
3.1068201423023738
 30
0.0
 11
5.800727538961854
 21
3.171063921510219
 31
0.0
  0
LINE
  5
16F1
  8
0
 10
5.7787371422102218
 20
3.1930543182618498
 30
0.0
 11
5.7144933630140917
 21
3.4328153661474019
 31
0.0
  0
LINE
  5
16F2
  8
0
 10
5.722542406906312
 20
3.462854806906313
 30
0.0
 11
5.8980596755936849
 21
3.638372075593685
 31
0.0
  0
ARC
  5
16F3
  8
0
 10
5.9842938515999986
 20
3.3766206308999989
 30
0.0
 40
0.5984251969000001
 50
321.23174932738448
 51
348.61688652052072
  0
ARC
  5
16F4
  8
0
 10
5.9842938515999986
 20
3.3766206308999989
 30
0.0
 40
0.5118110236000001
 50
322.29104859246081
 51
346.65763620468192
  0
ARC
  5
16F5
  8
0
 10
5.9842938515999986
 20
3.3766206308999989
 30
0.0
 40
0.5984251969000001
 50
101.11609587121239
 51
128.7681121587031
  0
ARC
  5
16F6
  8
0
 10
5.9842938515999986
 20
3.3766206308999989
 30
0.0
 40
0.5118110236000001
 50
103.3423638068233
 51
127.7081753636639
  0
ARC
  5
16F7
  8
0
 10
4.9508292846000002
 20
1.9514237805000001
 30
0.0
 40
1.141732283499999
 50
60.631213047561097
 51
119.3687869406568
  0
ARC
  5
16F8
  8
0
 10
5.9842938515999986
 20
3.3766206308999989
 30
0.0
 40
0.6397637795000004
 50
100.6901198661766
 51
79.595827681641779
  0
ARC
  5
16F9
  8
0
 10
5.9632103679940487
 20
3.2907532377434352
 30
0.0
 40
0.8330069974151962
 50
53.171369735037118
 51
80.555161528455244
  0
LINE
  5
16FA
  8
0
 10
6.4625344571000003
 20
3.9575186475999988
 30
0.0
 11
7.0934630181999996
 21
3.534210708699999
 31
0.0
  0
ARC
  5
16FB
  8
0
 10
7.01545547327376
 20
3.4184824978898551
 30
0.0
 40
0.1395643071946996
 50
1.4924636764764669
 51
56.017738535619642
  0
LINE
  5
16FC
  8
0
 10
7.1549724346000003
 20
3.4221175144
 30
0.0
 11
7.1129506042169561
 21
2.5763813342784081
 31
0.0
  0
LINE
  5
16FD
  8
0
 10
7.1129506042169561
 20
2.5763813342784081
 30
0.0
 11
6.9884849535091567
 21
1.933547994047109
 31
0.0
  0
ARC
  5
16FE
  8
0
 10
6.79539529005564
 20
1.970934092593343
 30
0.0
 40
0.1966757191345728
 50
269.95803981515962
 51
349.04196016649968
  0
LINE
  5
16FF
  8
0
 10
6.7952512559075577
 20
1.7742584262000001
 30
0.0
 11
6.1441715510957948
 21
1.7742584262000001
 31
0.0
  0
ARC
  5
1700
  8
0
 10
6.1441713765003936
 20
1.6955182686997561
 30
0.0
 40
0.0787401575004371
 50
89.999872954539583
 51
167.8965536524868
  0
CIRCLE
  5
1742
  8
0
 10
6.9508292846000002
 20
2.6128411033000001
 30
0.0
 40
0.0747499999999998
  0
CIRCLE
  5
1743
  8
0
 10
6.9508292846000002
 20
2.6128411033000001
 30
0.0
 40
0.1141732282999998
  0
CIRCLE
  5
1744
  8
0
 10
6.8110655051000002
 20
1.9514237805000001
 30
0.0
 40
0.0747500000000001
  0
CIRCLE
  5
1745
  8
0
 10
6.8110655051000002
 20
1.9514237805000001
 30
0.0
 40
0.1141732283000001
  0
LINE
  5
1746
  8
0
 10
6.5335641860000004
 20
1.7742584262000001
 30
0.0
 11
6.5191088461999991
 21
0.9461125673999999
 31
0.0
  0
ARC
  5
1747
  8
0
 10
6.4403806811223321
 20
0.9474867726392524
 30
0.0
 40
0.0787401575851618
 50
321.3178125597255
 51
358.99999999553108
  0
LINE
  5
1748
  8
0
 10
6.5018471969477956
 20
0.8982741741627032
 30
0.0
 11
5.7263313253975676
 21
0.8982741741963513
 31
0.0
  0
ARC
  5
1749
  8
0
 10
5.6794597781301626
 20
0.9181491087592316
 30
0.0
 40
0.0509112459788539
 50
283.98357263242389
 51
337.02160646381333
  0
ARC
  5
174A
  8
0
 10
5.6900152911816653
 20
0.789987092139099
 30
0.0
 40
0.0787788931500711
 50
88.729400959415315
 51
178.98632212950281
  0
LINE
  5
174B
  8
0
 10
5.6112487269000004
 20
0.7913807769
 30
0.0
 11
5.6108811402290071
 21
0.7703214183
 31
0.0
  0
LINE
  5
174C
  8
0
 10
5.6108811402290071
 20
0.7703214183
 30
0.0
 11
4.290777434799999
 21
0.7703214183
 31
0.0
  0
ARC
  5
174D
  8
0
 10
6.3777039613925357
 20
4.1225491957298503
 30
0.0
 40
0.0963468795087719
 50
244.06145828232329
 51
268.70485593473057
  0
LINE
  5
174E
  8
0
 10
6.3755262711
 20
4.0262269300999991
 30
0.0
 11
7.0486887629431507
 21
4.0262269300999991
 31
0.0
  0
LINE
  5
174F
  8
0
 10
7.0486887629431507
 20
4.0262269300999991
 30
0.0
 11
7.1236639302999993
 21
3.9514237804999999
 31
0.0
  0
LINE
  5
1750
  8
0
 10
7.1236639302999993
 20
3.9514237804999999
 30
0.0
 11
7.2736639302999988
 21
3.9514237804999999
 31
0.0
  0
LINE
  5
1751
  8
0
 10
7.2736639302999988
 20
3.9514237804999999
 30
0.0
 11
7.2736639302999979
 21
2.8018174813000001
 31
0.0
  0
LINE
  5
1752
  8
0
 10
7.2736639302999979
 20
2.8018174813000001
 30
0.0
 11
7.124151779896807
 21
2.8018174813000001
 31
0.0
  0
LINE
  5
1753
  8
0
 10
7.1236639302999993
 20
3.9514237804999999
 30
0.0
 11
7.1236639302999993
 21
3.5066251417731489
 31
0.0
  0
CIRCLE
  5
1754
  8
0
 10
4.9508292845999993
 20
3.6632348041000009
 30
0.0
 40
0.1730000000000008
  0
LINE
  5
1755
  8
0
 10
4.8357331498000002
 20
3.6862348041000002
 30
0.0
 11
5.0658735122520824
 21
3.6862348041000002
 31
0.0
  0
ARC
  5
1756
  8
0
 10
4.779091005117829
 20
3.6632348038012701
 30
0.0
 40
0.2877033305541503
 50
355.4146841759798
 51
4.5853159433856314
  0
LINE
  5
1757
  8
0
 10
5.0658735122999996
 20
3.6402348040999999
 30
0.0
 11
4.8357331498000002
 21
3.640234803620535
 31
0.0
  0
ARC
  5
1758
  8
0
 10
5.127578673743856
 20
3.6632348038602678
 30
0.0
 40
0.2927504224712432
 50
175.49390091680331
 51
184.5060990831968
  0
LINE
  5
1759
  8
0
 10
4.9278292845999987
 20
3.778279031799999
 30
0.0
 11
4.9278292845999987
 21
3.5481905764999988
 31
0.0
  0
ARC
  5
175A
  8
0
 10
4.9508294485388991
 20
3.8610252593213872
 30
0.0
 40
0.3136790498537867
 50
265.79507769422401
 51
274.2051063942734
  0
LINE
  5
175B
  8
0
 10
4.9738306176
 20
3.5481906504
 30
0.0
 11
4.973829878337634
 21
3.7782789730989759
 31
0.0
  0
ARC
  5
175C
  8
0
 10
4.9508292290279341
 20
3.5020914868870698
 30
0.0
 40
0.2771435682254228
 50
85.23944340469437
 51
94.760410365849609
  0
ARC
  5
175D
  8
0
 10
4.9508292846000082
 20
3.54595133960001
 30
0.0
 40
0.1005000000000109
 50
194.92941920880489
 51
345.0705807430711
  0
CIRCLE
  5
19AD
  8
0
 10
4.9508292846000002
 20
1.9514237805000001
 30
0.0
 40
1.0549999999999999
  0
LINE
  5
19AE
  8
0
 10
5.9627170177000002
 20
2.2496896119000001
 30
0.0
 11
6.0434622055999991
 21
2.2496896119000001
 31
0.0
  0
ARC
  5
19AF
  8
0
 10
6.031488598884887
 20
2.2250490323176582
 30
0.0
 40
0.0273957190072073
 50
24.464684609193089
 51
64.083473995062874
  0
LINE
  5
19B0
  8
0
 10
5.986925827378287
 20
2.1502426781000001
 30
0.0
 11
6.0751246305333089
 21
2.150201501331142
 31
0.0
  0
LINE
  5
19B1
  8
0
 10
5.9880426966540421
 20
2.1443313694000001
 30
0.0
 11
6.0161820349486312
 21
2.144331431471096
 31
0.0
  0
ARC
  5
19B2
  8
0
 10
4.9507723700709576
 20
1.95142091308555
 30
0.0
 40
1.0827336801441689
 50
349.73682201300608
 51
10.263177986993639
  0
LINE
  5
19B9
  8
0
 10
5.986925827378287
 20
1.7526048828999989
 30
0.0
 11
6.0751246305402482
 21
1.7526460597081011
 31
0.0
  0
LINE
  5
19BA
  8
0
 10
6.0161820349486312
 20
1.7585103946999989
 30
0.0
 11
5.9880416184927192
 21
1.7585103947
 31
0.0
  0
LINE
  5
19BB
  8
0
 10
5.9627890139466109
 20
1.653157949099999
 30
0.0
 11
6.0434622123999988
 21
1.653157949099999
 31
0.0
  0
ARC
  5
19BC
  8
0
 10
6.0318627461168246
 20
1.677434443974698
 30
0.0
 40
0.0269053121419499
 50
295.5387727248023
 51
335.93129276352158
  0
LINE
  5
19BD
  8
0
 10
4.5312536060868487
 20
2.7589237805001421
 30
0.0
 11
5.3704049631131499
 21
2.7589237805001421
 31
0.0
  0
LINE
  5
19C8
  8
0
 10
5.3704049631131499
 20
2.7589237805001421
 30
0.0
 11
5.4403569588979677
 21
2.718536976903517
 31
0.0
  0
LINE
  5
19C9
  8
0
 10
5.4403569588979677
 20
2.718536976903517
 30
0.0
 11
5.4762077591110501
 21
2.6564415694409389
 31
0.0
  0
LINE
  5
19CA
  8
0
 10
5.8599326374
 20
1.9918105840999989
 30
0.0
 11
5.8599326374135687
 21
1.9110369769235029
 31
0.0
  0
LINE
  5
19CB
  8
0
 10
5.8599326374135687
 20
1.9110369769235029
 30
0.0
 11
5.518225548050232
 21
1.3191829368238699
 31
0.0
  0
LINE
  5
19CC
  8
0
 10
5.440356958899482
 20
1.184310584097447
 30
0.0
 11
5.3704049632000004
 21
1.1439237804999991
 31
0.0
  0
LINE
  5
19CD
  8
0
 10
5.3704049632000004
 20
1.1439237804999991
 30
0.0
 11
4.5312536060999991
 21
1.1439237804999991
 31
0.0
  0
CIRCLE
  5
19CE
  8
0
 10
4.9508292846000002
 20
1.9514237805000001
 30
0.0
 40
0.7999960407999999
  0
CIRCLE
  5
19CF
  8
0
 10
4.9508292846000002
 20
1.9514237805000001
 30
0.0
 40
0.7849956288999999
  0
CIRCLE
  5
19D6
  8
0
 10
4.9508292846000002
 20
1.9514237805000001
 30
0.0
 40
0.151
  0
CIRCLE
  5
19D7
  8
0
 10
4.9508292846000002
 20
1.9514237805000001
 30
0.0
 40
0.2649999999999999
  0
CIRCLE
  5
19D8
  8
0
 10
4.9508292846000002
 20
1.9514237805000001
 30
0.0
 40
0.5975
  0
LINE
  5
19D9
  8
0
 10
5.295371974691772
 20
2.6734237804999998
 30
0.0
 11
5.4128292845999999
 21
2.6734237804999998
 31
0.0
  0
LINE
  5
19DA
  8
0
 10
5.4128292845999999
 20
2.6734237804999998
 30
0.0
 11
5.5308292846000002
 21
2.6418057757999991
 31
0.0
  0
LINE
  5
19DB
  8
0
 10
5.5308292846000002
 20
2.6418057757999991
 30
0.0
 11
5.5308292846000002
 21
2.5870417851999998
 31
0.0
  0
LINE
  5
19DC
  8
0
 10
5.5308292846000002
 20
2.5870417851999998
 30
0.0
 11
5.4603667040240458
 21
2.5681613936730239
 31
0.0
  0
LINE
  5
19DD
  8
0
 10
5.5182255480495597
 20
2.5836646241759489
 30
0.0
 11
5.8599326374
 21
1.9918105840999989
 31
0.0
  0
LINE
  5
19DE
  8
0
 10
5.4603667040240458
 20
1.334686167326975
 30
0.0
 11
5.5308292846000002
 21
1.315805775799999
 31
0.0
  0
LINE
  5
19DF
  8
0
 10
5.5308292846000002
 20
1.315805775799999
 30
0.0
 11
5.5308292846000002
 21
1.2610417851999991
 31
0.0
  0
LINE
  5
19E0
  8
0
 10
5.5308292846000002
 20
1.2610417851999991
 30
0.0
 11
5.4128292845999999
 21
1.229423780499999
 31
0.0
  0
LINE
  5
19E1
  8
0
 10
5.4128292845999999
 20
1.229423780499999
 30
0.0
 11
5.295371974691772
 21
1.229423780499999
 31
0.0
  0
LINE
  5
19E2
  8
0
 10
5.4762077591120821
 20
1.2464059915593371
 30
0.0
 11
5.440356958899482
 21
1.184310584097447
 31
0.0
  0
LINE
  5
19E3
  8
0
 10
4.7639035280000002
 20
2.3867211059999991
 30
0.0
 11
5.1391363162109878
 21
2.386125358400776
 31
0.0
  0
ARC
  5
19E4
  8
0
 10
5.1391125011193033
 20
2.371125376418032
 30
0.0
 40
0.0150000008880416
 50
65.838419947414508
 51
89.909033017682788
  0
ARC
  5
19E5
  8
0
 10
4.9508293474578728
 20
1.9514238890962581
 30
0.0
 40
0.4749998752497661
 50
53.979646070757447
 51
65.838419947414465
  0
ARC
  5
19E6
  8
0
 10
5.2213426753249754
 20
2.3234755301120962
 30
0.0
 40
0.0150000011885745
 50
29.909034432514769
 51
53.979646070756473
  0
LINE
  5
19E7
  8
0
 10
5.2343449483999986
 20
2.3309548970999998
 30
0.0
 11
5.421445417934212
 21
2.0056959010802129
 31
0.0
  0
ARC
  5
19E8
  8
0
 10
5.4084432311126047
 20
1.9982165837083239
 30
0.0
 40
0.0149999016827921
 50
5.8382519599128102
 51
29.909034432513881
  0
ARC
  5
19E9
  8
0
 10
4.9579676912483643
 20
1.9514124471518759
 30
0.0
 40
0.4679003562176275
 50
353.88934864674542
 51
5.9287173602410803
  0
ARC
  5
19EA
  8
0
 10
5.4082922505088904
 20
1.903178185400076
 30
0.0
 40
0.0149999971470608
 50
329.90903164938368
 51
353.97965014148059
  0
LINE
  5
19EB
  8
0
 10
5.4212707050000004
 20
1.8956575714999999
 30
0.0
 11
5.2331842338013557
 21
1.57098749779979
 31
0.0
  0
ARC
  5
19EC
  8
0
 10
5.2195756377596743
 20
1.579189692163264
 30
0.0
 40
0.0158893007587464
 50
306.12180944188327
 51
328.92172344756472
  0
ARC
  5
19ED
  8
0
 10
4.9616540182078968
 20
1.9326058583322021
 30
0.0
 40
0.4534124982486198
 50
293.69625653929842
 51
306.12180944188322
  0
ARC
  5
19EE
  8
0
 10
5.1377028947569947
 20
1.5314841185654431
 30
0.0
 40
0.0153578703222487
 50
270.2833909920202
 51
293.69625653929751
  0
LINE
  5
19EF
  8
0
 10
5.1377788560999988
 20
1.5161264361
 30
0.0
 11
4.7625222525619657
 21
1.516722202506166
 31
0.0
  0
LINE
  5
19F0
  8
0
 10
4.6068433019999988
 20
2.6734237804999998
 30
0.0
 11
4.4580707230999987
 21
2.6734237804999998
 31
0.0
  0
ARC
  5
19F1
  8
0
 10
4.4580707230999987
 20
2.4344237804999991
 30
0.0
 40
0.2390000000000003
 50
90.0
 51
135.5729959992
  0
ARC
  5
19F2
  8
0
 10
4.9508292847056996
 20
1.95142378046457
 30
0.0
 40
0.9290000000506843
 50
135.5729959992
 51
224.4270039946762
  0
ARC
  5
19F3
  8
0
 10
4.4580707230050676
 20
1.468423780439355
 30
0.0
 40
0.238999999939356
 50
224.42700399467611
 51
270.00000002275789
  0
LINE
  5
19F4
  8
0
 10
4.4580707230999987
 20
1.229423780499999
 30
0.0
 11
4.6068433020999988
 21
1.229423780559092
 31
0.0
  0
LINE
  5
19F5
  8
0
 10
4.5312536060868487
 20
1.1439237804998581
 30
0.0
 11
4.4613016103020291
 21
1.1843105840964829
 31
0.0
  0
LINE
  5
19F6
  8
0
 10
4.4613016103020291
 20
1.1843105840964829
 30
0.0
 11
4.4345878160054193
 21
1.2305802330182449
 31
0.0
  0
LINE
  5
19F7
  8
0
 10
4.4345878159998611
 20
2.672267327972127
 30
0.0
 11
4.4613016102999987
 21
2.718536976899999
 31
0.0
  0
LINE
  5
19F8
  8
0
 10
4.4613016102999987
 20
2.718536976899999
 30
0.0
 11
4.531253606086576
 21
2.7589237804999991
 31
0.0
  0
ARC
  5
19F9
  8
0
 10
4.4580707230999614
 20
2.434423780500047
 30
0.0
 40
0.1209999999999391
 50
108.93224939461081
 51
135.57299599920341
  0
ARC
  5
19FA
  8
0
 10
4.9508292847057689
 20
1.95142378046457
 30
0.0
 40
0.8110000000507335
 50
135.5729959992035
 51
224.4270039937818
  0
ARC
  5
19FB
  8
0
 10
4.4580707228448233
 20
1.468423780297299
 30
0.0
 40
0.120999999725479
 50
224.4270039937818
 51
251.06775068854159
  0
ARC
  5
19FC
  8
0
 10
4.4820908567453257
 20
1.2885068708892
 30
0.0
 40
0.0195622964557823
 50
106.72038022838071
 51
266.30243018064101
  0
LINE
  5
19FD
  8
0
 10
4.4808292845999986
 20
1.2689852961999999
 30
0.0
 11
4.5333710466384121
 21
1.2689852961999999
 31
0.0
  0
CIRCLE
  5
19FE
  8
0
 10
4.9508292846000002
 20
1.9514237805000001
 30
0.0
 40
0.0787401575000002
  0
LINE
  5
1A08
  8
0
 10
4.9390433805130387
 20
2.2511921785423099
 30
0.0
 11
4.9626151886223129
 21
2.251192178544851
 31
0.0
  0
LINE
  5
1A09
  8
0
 10
4.9626151886223129
 20
2.251192178544851
 30
0.0
 11
5.2045433805126464
 21
2.1115148718674721
 31
0.0
  0
LINE
  5
1A0A
  8
0
 10
5.2045433805126464
 20
2.1115148718674721
 30
0.0
 11
5.2163292845999987
 21
2.091101087175065
 31
0.0
  0
LINE
  5
1A0B
  8
0
 10
5.2163292845999987
 20
2.091101087175065
 30
0.0
 11
5.2163292845999987
 21
1.8117464737999991
 31
0.0
  0
LINE
  5
1A0C
  8
0
 10
5.2163292845999987
 20
1.8117464737999991
 30
0.0
 11
5.2045433805999988
 21
1.791332689099999
 31
0.0
  0
LINE
  5
1A0D
  8
0
 10
5.2045433805999988
 20
1.791332689099999
 30
0.0
 11
4.9626151886869598
 21
1.6516553824576889
 31
0.0
  0
LINE
  5
1A0E
  8
0
 10
4.9626151886869598
 20
1.6516553824576889
 30
0.0
 11
4.9390433805130387
 21
1.6516553824576889
 31
0.0
  0
LINE
  5
1A0F
  8
0
 10
4.9390433805130387
 20
1.6516553824576889
 30
0.0
 11
4.6971151887123934
 21
1.791332689092844
 31
0.0
  0
LINE
  5
1A10
  8
0
 10
4.6971151887123934
 20
1.791332689092844
 30
0.0
 11
4.685329284599999
 21
1.8117273431000001
 31
0.0
  0
LINE
  5
1A11
  8
0
 10
4.685329284599999
 20
1.8117273431000001
 30
0.0
 11
4.685329284599999
 21
2.0911010872000002
 31
0.0
  0
LINE
  5
1A12
  8
0
 10
4.685329284599999
 20
2.0911010872000002
 30
0.0
 11
4.6971151886870741
 21
2.1115148718670289
 31
0.0
  0
LINE
  5
1A13
  8
0
 10
4.6971151886870741
 20
2.1115148718670289
 30
0.0
 11
4.9390433806000003
 21
2.2511921784999989
 31
0.0
  0
ARC
  5
1A14
  8
0
 10
4.9508275800961252
 20
1.951450044564851
 30
0.0
 40
0.3275482376395837
 50
84.854549698181884
 51
95.148968654390444
  0
ARC
  5
1A15
  8
0
 10
4.9784193540942798
 20
2.2578644267666932
 30
0.0
 40
0.0198940817884043
 50
60.004458141320377
 51
84.854549698181941
  0
LINE
  5
1A16
  8
0
 10
4.9883650543999991
 20
2.275093980899999
 30
0.0
 11
5.2123779642608472
 21
2.145783306413001
 31
0.0
  0
ARC
  5
1A17
  8
0
 10
5.2021636652681318
 20
2.1280884420978601
 30
0.0
 40
0.0204313515716366
 50
35.870633676079983
 51
60.004458141320391
  0
ARC
  5
1A18
  8
0
 10
4.9882365315315971
 20
1.9733980619638021
 30
0.0
 40
0.284427435358402
 50
24.001279996843792
 51
35.870633676080018
  0
ARC
  5
1A19
  8
0
 10
5.2288550025448179
 20
2.0805347485618388
 30
0.0
 40
0.0210351078164885
 50
0.5825097890066644
 51
24.00127999684306
  0
LINE
  5
1A1A
  8
0
 10
5.2498890232545454
 20
2.080748602797454
 30
0.0
 11
5.249903785499999
 21
1.822095741399999
 31
0.0
  0
ARC
  5
1A1B
  8
0
 10
5.2284594473324137
 20
1.822437875038716
 30
0.0
 40
0.0214470672790594
 50
336.12332822907217
 51
359.0859521820534
  0
ARC
  5
1A1C
  8
0
 10
4.9508795202998934
 20
1.951394304752069
 30
0.0
 40
0.3275162571583339
 50
324.85441619943271
 51
335.14985212341247
  0
ARC
  5
1A1D
  8
0
 10
5.2025931666244754
 20
1.7741882488641929
 30
0.0
 40
0.0196822986915807
 50
299.73081044071978
 51
324.85298137679302
  0
LINE
  5
1A5F
  8
0
 10
5.2123541243382343
 20
1.7570968303655781
 30
0.0
 11
4.9883651677999987
 21
1.6277536455999999
 31
0.0
  0
ARC
  5
1A60
  8
0
 10
4.9776345340943484
 20
1.6474488256131259
 30
0.0
 40
0.0224278155921014
 50
276.6378239400442
 51
298.58297984305813
  0
ARC
  5
1A61
  8
0
 10
4.950829206388657
 20
1.951357840596156
 30
0.0
 40
0.3275085617990248
 50
264.85423782968661
 51
275.1499153634054
  0
CIRCLE
  5
1A62
  8
0
 10
4.9508292846000002
 20
1.9514237805000001
 30
0.0
 40
0.3299999999999998
  0
CIRCLE
  5
1A63
  8
0
 10
4.9508292846000002
 20
1.9514237805000001
 30
0.0
 40
0.6999961568999997
  0
LINE
  5
1A64
  8
0
 10
5.3046351913833218
 20
2.5554237804999991
 30
0.0
 11
4.5970233778166776
 21
2.5554237804999991
 31
0.0
  0
LINE
  5
1A65
  8
0
 10
4.5970233778166767
 20
1.3474237805
 30
0.0
 11
5.3046351913833218
 21
1.3474237805
 31
0.0
  0
LINE
  5
1A66
  8
0
 10
4.6754691655110383
 20
1.3078622648
 30
0.0
 11
4.7308292845999986
 21
1.3078622648
 31
0.0
  0
ARC
  5
1A67
  8
0
 10
4.5847291245944044
 20
0.3832012278803995
 30
0.0
 40
0.93613209001235
 50
76.805430461406729
 51
81.021264388473995
  0
ARC
  5
1A68
  8
0
 10
4.7908178246023372
 20
1.258425753575221
 30
0.0
 40
0.0369817488219205
 50
59.490527772273822
 51
78.154297751579051
  0
ARC
  5
1A69
  8
0
 10
4.808943553788751
 20
1.2885210192909451
 30
0.0
 40
0.0018817172282123
 50
320.3502499840925
 51
69.818130673979041
  0
ARC
  5
1A6A
  8
0
 10
4.7989953676736938
 20
1.301028692562086
 30
0.0
 40
0.0178272857842038
 50
285.37410606687058
 51
309.7398440235869
  0
ARC
  5
1A6B
  8
0
 10
4.7206652338742936
 20
1.565666075846571
 30
0.0
 40
0.293810631320396
 50
279.2857342369789
 51
286.4206520820548
  0
ARC
  5
1A6C
  8
0
 10
4.4820908567453257
 20
2.6143406901107991
 30
0.0
 40
0.0195622964557823
 50
93.697569819359032
 51
253.27961977161931
  0
LINE
  5
1A6D
  8
0
 10
4.4808292845999986
 20
2.633862264799999
 30
0.0
 11
4.5333710466384121
 21
2.633862264799999
 31
0.0
  0
LINE
  5
1A6E
  8
0
 10
4.6754691655110383
 20
2.5949852961999991
 30
0.0
 11
4.7308292845999986
 21
2.5949852961999991
 31
0.0
  0
ARC
  5
1A6F
  8
0
 10
4.5847291245944044
 20
3.5196463331196002
 30
0.0
 40
0.93613209001235
 50
278.97873561152591
 51
283.19456953859321
  0
ARC
  5
1A70
  8
0
 10
4.7908178246023372
 20
2.6444218074247781
 30
0.0
 40
0.0369817488219205
 50
281.84570224842099
 51
300.50947222772618
  0
ARC
  5
1A71
  8
0
 10
4.808943553788751
 20
2.6143265417090542
 30
0.0
 40
0.0018817172282123
 50
290.181869326021
 51
39.649750015907507
  0
ARC
  5
1A72
  8
0
 10
4.7989953676736938
 20
2.6018188684379129
 30
0.0
 40
0.0178272857842038
 50
50.260155976413188
 51
74.625893933129433
  0
ARC
  5
1A73
  8
0
 10
4.7206652338742936
 20
2.3371814851534278
 30
0.0
 40
0.293810631320396
 50
73.579347917945228
 51
80.714265763021046
  0
LINE
  5
1A74
  8
0
 10
4.3760261349999992
 20
4.6285891348000003
 30
0.0
 11
4.3760261349999992
 21
4.4785891347999991
 31
0.0
  0
LINE
  5
1A75
  8
0
 10
4.3760261349999992
 20
4.4785891347999991
 30
0.0
 11
4.2967047603999982
 21
4.399267760299999
 31
0.0
  0
ARC
  5
1A76
  8
0
 10
6.8272905521147926
 20
4.340643417229856
 30
0.0
 40
2.5312647555775749
 50
178.6729053994157
 51
179.72969223029119
  0
ARC
  5
1A77
  8
0
 10
4.2638359940728039
 20
4.3517752246953254
 30
0.0
 40
0.0322281537630906
 50
329.67416259884908
 51
1.440271602356419
  0
ARC
  5
1A78
  8
0
 10
4.1025543835081644
 20
4.437224057005154
 30
0.0
 40
0.2147231177751618
 50
321.44423571797768
 51
331.72312866823751
  0
ARC
  5
1A79
  8
0
 10
4.6337852639999966
 20
3.951459113111222
 30
0.0
 40
0.4678433943887779
 50
89.999999999999915
 51
92.469206138614567
  0
ARC
  5
1A7A
  8
0
 10
4.6201412637060759
 20
4.3377314762780248
 30
0.0
 40
0.0813975410055119
 50
94.588587362507695
 51
109.0671199105378
  0
ARC
  5
1A7B
  8
0
 10
4.619565374908837
 20
4.2944008368044226
 30
0.0
 40
0.1230439616944212
 50
102.20593580532611
 51
162.11392997789301
  0
ARC
  5
1A7C
  8
0
 10
4.2590577075930023
 20
4.3685211900032694
 30
0.0
 40
0.2461068625223929
 50
344.65463398892803
 51
351.51093746299762
  0
LINE
  5
1A7D
  8
0
 10
4.4963904137999977
 20
4.3033922844000001
 30
0.0
 11
4.1033073575999977
 21
4.3033922844000001
 31
0.0
  0
LINE
  5
1A7E
  8
0
 10
4.1033051671999976
 20
4.3033922844000001
 30
0.0
 11
4.1014120138999992
 21
4.1952889719000002
 31
0.0
  0
ARC
  5
1A7F
  8
0
 10
4.0237703030746834
 20
4.1966486680801376
 30
0.0
 40
0.0776536157148155
 50
315.22086126487068
 51
358.99671337639199
  0
ARC
  5
1A80
  8
0
 10
3.957592922251135
 20
4.2024130132382211
 30
0.0
 40
0.0787401575621076
 50
181.0000001495647
 51
230.16239680147211
  0
LINE
  5
1A81
  8
0
 10
3.878864757199997
 20
4.2010388077999989
 30
0.0
 11
3.8771713794621609
 21
4.2980523389142791
 31
0.0
  0
ARC
  5
1A82
  8
0
 10
3.6417741663276169
 20
4.293943464660428
 30
0.0
 40
0.23543307074229
 50
1.000000149564638
 51
179.00053092947849
  0
LINE
  5
1A83
  8
0
 10
3.406376915117709
 20
4.2980501569990004
 30
0.0
 11
3.401634741884477
 21
4.0262268861443822
 31
0.0
  0
CIRCLE
  5
1A84
  8
0
 10
3.6417741664999981
 20
4.2939434654999991
 30
0.0
 40
0.1023622046999996
  0
CIRCLE
  5
1A85
  8
0
 10
3.6417741664999981
 20
4.2939434654999991
 30
0.0
 40
0.1376415258003167
  0
ARC
  5
1A86
  8
0
 10
4.6855945282995624
 20
4.2169251167763973
 30
0.0
 40
0.2529737771763978
 50
223.9138022972048
 51
270.0
  0
ARC
  5
1A87
  8
0
 10
4.2815278353450621
 20
3.8473055659800441
 30
0.0
 40
0.2948002407305398
 50
41.195183851379198
 51
88.145141904929204
  0
LINE
  5
1A88
  8
0
 10
4.2910698488999977
 20
4.1419513395999994
 30
0.0
 11
3.8318292845999982
 21
4.1419513396000003
 31
0.0
  0
ARC
  5
1A89
  8
0
 10
3.8319777505029968
 20
4.1117180843121881
 30
0.0
 40
0.0302336198200332
 50
90.281359092370124
 51
178.5786328827312
  0
ARC
  5
1A8A
  8
0
 10
3.5239546078074611
 20
4.1225491957298503
 30
0.0
 40
0.0963468795087719
 50
271.29514406526943
 51
295.93854171767669
  0
LINE
  5
1A8B
  8
0
 10
3.5261322980999981
 20
4.0262269300999991
 30
0.0
 11
2.852969806256846
 21
4.0262269300999991
 31
0.0
  0
LINE
  5
1A8C
  8
0
 10
2.852969806256846
 20
4.0262269300999991
 30
0.0
 11
2.7779946388999992
 21
3.9514237804999999
 31
0.0
  0
LINE
  5
1A8D
  8
0
 10
2.7779946388999992
 20
3.9514237804999999
 30
0.0
 11
2.627994638899998
 21
3.9514237804999999
 31
0.0
  0
LINE
  5
1A8E
  8
0
 10
2.627994638899998
 20
3.9514237804999999
 30
0.0
 11
2.6279946388999988
 21
2.8018174813000001
 31
0.0
  0
LINE
  5
1A8F
  8
0
 10
2.7779946388999992
 20
3.9514237804999999
 30
0.0
 11
2.7779946388999992
 21
3.5066251417731489
 31
0.0
  0
ARC
  5
1A90
  8
0
 10
3.9384482012059481
 20
3.2907532377434352
 30
0.0
 40
0.8330069974151962
 50
99.444838471544813
 51
126.8286302649629
  0
LINE
  5
1A91
  8
0
 10
3.4391241120999978
 20
3.9575186475999988
 30
0.0
 11
2.8081955509999981
 21
3.534210708699999
 31
0.0
  0
ARC
  5
1A92
  8
0
 10
2.8862030959262368
 20
3.4184824978898551
 30
0.0
 40
0.1395643071946996
 50
123.9822614643803
 51
178.50753632352351
  0
LINE
  5
1A93
  8
0
 10
2.7466861345999982
 20
3.4221175144
 30
0.0
 11
2.788707964983042
 21
2.5763813342784081
 31
0.0
  0
LINE
  5
1A94
  8
0
 10
2.788707964983042
 20
2.5763813342784081
 30
0.0
 11
2.9131736156908401
 21
1.933547994047109
 31
0.0
  0
ARC
  5
1A95
  8
0
 10
3.1062632791443581
 20
1.970934092593343
 30
0.0
 40
0.1966757191345728
 50
190.95803983350029
 51
270.04196018484049
  0
LINE
  5
1A96
  8
0
 10
3.106407313292439
 20
1.7742584262000001
 30
0.0
 11
3.7574870181042019
 21
1.7742584262000001
 31
0.0
  0
ARC
  5
1A97
  8
0
 10
3.7574871926996041
 20
1.6955182686997561
 30
0.0
 40
0.0787401575004371
 50
12.10344634751311
 51
90.000127045460374
  0
CIRCLE
  5
1A98
  8
0
 10
2.9508292845999979
 20
2.6128411033000001
 30
0.0
 40
0.0747499999999998
  0
CIRCLE
  5
1A99
  8
0
 10
2.9508292845999979
 20
2.6128411033000001
 30
0.0
 40
0.1141732282999998
  0
CIRCLE
  5
1A9A
  8
0
 10
3.0905930640999979
 20
1.9514237805000001
 30
0.0
 40
0.0747500000000001
  0
CIRCLE
  5
1A9B
  8
0
 10
3.0905930640999979
 20
1.9514237805000001
 30
0.0
 40
0.1141732283000001
  0
LINE
  5
1A9C
  8
0
 10
3.3680943831999981
 20
1.7742584262000001
 30
0.0
 11
3.3825497229999981
 21
0.9461125673999999
 31
0.0
  0
ARC
  5
1A9D
  8
0
 10
3.461277888077666
 20
0.9474867726392524
 30
0.0
 40
0.0787401575851618
 50
181.00000000446889
 51
218.6821874402745
  0
LINE
  5
1A9E
  8
0
 10
3.3998113722522021
 20
0.8982741741627032
 30
0.0
 11
4.17532724380243
 21
0.8982741741963513
 31
0.0
  0
ARC
  5
1A9F
  8
0
 10
4.2221987910698351
 20
0.9181491087592316
 30
0.0
 40
0.0509112459788539
 50
202.97839353618679
 51
256.01642736757611
  0
ARC
  5
1AA0
  8
0
 10
4.2116432780183333
 20
0.789987092139099
 30
0.0
 40
0.0787788931500711
 50
1.0136778704971361
 51
91.270599040584727
  0
LINE
  5
1AA1
  8
0
 10
2.6279946388999988
 20
2.8018174813000001
 30
0.0
 11
2.7775067893031911
 21
2.8018174813000001
 31
0.0
  0
ARC
  5
1AA2
  8
0
 10
7.0229525492642066
 20
4.014417908484174
 30
0.0
 40
0.011825315190983
 50
93.008079712162044
 51
195.4914522740421
  0
ARC
  5
1AA3
  8
0
 10
7.1402969574638506
 20
4.0210507887090543
 30
0.0
 40
0.129111918444873
 50
184.3492702945517
 51
203.98312418574139
  0
ARC
  5
1AA4
  8
0
 10
6.6453405002683308
 20
3.824194469744004
 30
0.0
 40
0.4036918186202216
 50
1.6703537090973279
 51
20.95535698325309
  0
LINE
  5
1AA5
  8
0
 10
7.0488607807000001
 20
3.8359616997175179
 30
0.0
 11
7.0488607807000001
 21
3.5641356199982548
 31
0.0
  0
ARC
  5
1AA6
  8
0
 10
2.878706019935791
 20
4.014417908484174
 30
0.0
 40
0.011825315190983
 50
344.50854772595778
 51
86.991920287837999
  0
ARC
  5
1AA7
  8
0
 10
2.761361611736147
 20
4.0210507887090543
 30
0.0
 40
0.129111918444873
 50
336.01687581425858
 51
355.65072970544833
  0
ARC
  5
1AA8
  8
0
 10
3.256318068931666
 20
3.824194469744004
 30
0.0
 40
0.4036918186202216
 50
159.0446430167469
 51
178.32964629090259
  0
LINE
  5
1AA9
  8
0
 10
2.852797788499998
 20
3.8359616997175179
 30
0.0
 11
2.852797788499998
 21
3.5641356199982548
 31
0.0
  0
ARC
  5
1AAA
  8
0
 10
3.9173647176999991
 20
3.3766206308999989
 30
0.0
 40
0.6299212598000001
 50
100.5685917486452
 51
79.428923912978973
  0
CIRCLE
  5
1AAB
  8
0
 10
3.9173647176999991
 20
3.3766206308999989
 30
0.0
 40
0.4822834646000001
  0
CIRCLE
  5
1AAC
  8
0
 10
3.9173647176999991
 20
3.3766206308999989
 30
0.0
 40
0.2755905512000001
  0
CIRCLE
  5
1AAD
  8
0
 10
3.9173647176999991
 20
3.3766206308999989
 30
0.0
 40
0.2362204724000001
  0
ARC
  5
1AAE
  8
0
 10
3.9173647176999991
 20
3.3766206308999989
 30
0.0
 40
0.5984251969000001
 50
141.23188784810719
 51
308.76811215189281
  0
ARC
  5
1AAF
  8
0
 10
3.9173647176999991
 20
3.3766206308999989
 30
0.0
 40
0.5984251969000001
 50
321.23174932738448
 51
348.61688652052072
  0
ARC
  5
1AB0
  8
0
 10
3.9173647176999991
 20
3.3766206308999989
 30
0.0
 40
0.5118110236000001
 50
142.29182464431639
 51
307.70817535568358
  0
ARC
  5
1AB1
  8
0
 10
3.9173647176999991
 20
3.3766206308999989
 30
0.0
 40
0.5118110236000001
 50
322.29104859246081
 51
346.65763620468192
  0
ARC
  5
1AB2
  8
0
 10
3.9173647176999991
 20
3.3766206308999989
 30
0.0
 40
0.5118110236000001
 50
103.3423638068233
 51
127.7081753636639
  0
LINE
  5
1AB3
  8
0
 10
3.5202520330676408
 20
3.8656015193323592
 30
0.0
 11
3.6253805922195732
 21
3.7604729601804272
 31
0.0
  0
LINE
  5
1AB4
  8
0
 10
3.7992544814000002
 20
3.9953699869636461
 30
0.0
 11
3.7992544814000011
 21
3.8442180135998369
 31
0.0
  0
LINE
  5
1AB5
  8
0
 10
3.4283838292228239
 20
3.7737333154771751
 30
0.0
 11
3.5335123883763688
 21
3.6686047563236301
 31
0.0
  0
LINE
  5
1AB6
  8
0
 10
4.3144774022771761
 20
2.8876397424228242
 30
0.0
 11
4.2093488431236299
 21
2.9927683015763691
 31
0.0
  0
LINE
  5
1AB7
  8
0
 10
4.4063459463030217
 20
2.9795083651338841
 30
0.0
 11
4.3012117110623773
 21
3.0846294907720111
 31
0.0
  0
LINE
  5
1AB8
  8
0
 10
4.536114073782735
 20
3.2585103947
 30
0.0
 11
4.3849621004250947
 21
3.2585103947
 31
0.0
  0
LINE
  5
1AB9
  8
0
 10
3.8611699824525978
 20
3.6464211194859071
 30
0.0
 11
4.1009310303810151
 21
3.582177340251496
 31
0.0
  0
LINE
  5
1ABA
  8
0
 10
4.1229214270897758
 20
3.5601869435381479
 30
0.0
 11
4.1871652062421711
 21
3.3204258954426149
 31
0.0
  0
LINE
  5
1ABB
  8
0
 10
4.179116162442817
 20
3.290386455042817
 30
0.0
 11
4.0035988935571831
 21
3.1148691861571818
 31
0.0
  0
LINE
  5
1ABC
  8
0
 10
3.9735594528911391
 20
3.1068201423023738
 30
0.0
 11
3.733798405061854
 21
3.171063921510219
 31
0.0
  0
LINE
  5
1ABD
  8
0
 10
3.7118080083102232
 20
3.1930543182618498
 30
0.0
 11
3.6475642291140931
 21
3.4328153661474019
 31
0.0
  0
LINE
  5
1ABE
  8
0
 10
3.6556132730063129
 20
3.462854806906313
 30
0.0
 11
3.8311305416936858
 21
3.638372075593685
 31
0.0
  0
ARC
  5
1ABF
  8
0
 10
3.9173647176999991
 20
3.3766206308999989
 30
0.0
 40
0.6397637795000004
 50
100.4070001057179
 51
79.309880141913723
  0
LINE
  5
1AC0
  8
0
 10
3.8017534332999978
 20
4.1124680289999986
 30
0.0
 11
3.8018292845999979
 21
3.931951339599999
 31
0.0
  0
ARC
  5
1AC1
  8
0
 10
3.83184189559773
 20
3.9319639505977309
 30
0.0
 40
0.0300126136472389
 50
180.0240751097266
 51
269.97592489027232
  0
LINE
  5
1AC2
  8
0
 10
3.8318292845999968
 20
3.9019513396000001
 30
0.0
 11
4.0028292695041543
 21
3.9018794871236522
 31
0.0
  0
ARC
  5
1AC3
  8
0
 10
4.0028418699633299
 20
3.9318670176656689
 30
0.0
 40
0.0299875331893107
 50
269.97592489027232
 51
0.1611101951492014
  0
LINE
  5
1AC4
  8
0
 10
4.0328292845999982
 20
3.931951339599999
 30
0.0
 11
4.0326545376582859
 21
3.9940966051140809
 31
0.0
  0
ARC
  5
1AC5
  8
0
 10
4.0526413496066569
 20
3.994152806245955
 30
0.0
 40
0.019986890964499
 50
76.972569195330735
 51
180.1611101951471
  0
ARC
  5
1AC6
  8
0
 10
3.9168292846909529
 20
3.378951339632001
 30
0.0
 40
0.649999999909046
 50
359.99999999717909
 51
77.533249749564519
  0
LINE
  5
1AC7
  8
0
 10
4.566829284599998
 20
3.378951339599999
 30
0.0
 11
4.566829284599998
 21
3.1809513396
 31
0.0
  0
ARC
  5
1AC8
  8
0
 10
4.6418292846000009
 20
3.1809513396000009
 30
0.0
 40
0.0750000000000015
 50
180.00000000000099
 51
269.99999999999801
  0
LINE
  5
1AC9
  8
0
 10
4.6418292845999991
 20
3.1059513395999989
 30
0.0
 11
4.7566228106683424
 21
3.1059513395999989
 31
0.0
  0
ARC
  5
1ACA
  8
0
 10
4.7566975056390568
 20
3.1809513818972222
 30
0.0
 40
0.0750000794927837
 50
269.94293729674331
 51
349.9999778970365
  0
LINE
  5
1ACB
  8
0
 10
4.8305581603759604
 20
3.167927726275237
 30
0.0
 11
4.8448917342306448
 21
3.2492174634046811
 31
0.0
  0
LINE
  5
1ACC
  8
0
 10
4.8538993876011851
 20
3.2480426956785311
 30
0.0
 11
4.8393123133818312
 21
3.1653152883519611
 31
0.0
  0
ARC
  5
1ACD
  8
0
 10
4.7173248174496791
 20
3.1976757582013828
 30
0.0
 40
0.1262067715008673
 50
280.75597755462809
 51
345.14294755157778
  0
ARC
  5
1AE1
  8
0
 10
4.7639277251822501
 20
2.371495048851568
 30
0.0
 40
0.0152261517456999
 50
90.180668664919835
 51
113.7989790408925
  0
ARC
  5
1AE2
  8
0
 10
4.9670419293247701
 20
1.923239410618909
 30
0.0
 40
0.5073519072248633
 50
114.3589699882597
 51
125.4590960448613
  0
ARC
  5
1AE3
  8
0
 10
4.6814986473831421
 20
2.3243326279504379
 30
0.0
 40
0.0149999992404373
 50
125.8384172991513
 51
149.90977067595699
  0
LINE
  5
1AE4
  8
0
 10
4.6685200940776044
 20
2.331853075497524
 30
0.0
 11
4.4803878644111537
 21
2.0071899896918208
 31
0.0
  0
ARC
  5
1AE5
  8
0
 10
4.4933663205618366
 20
1.99966937497845
 30
0.0
 40
0.0149999989907392
 50
149.9090321397581
 51
173.97964867450261
  0
ARC
  5
1AE6
  8
0
 10
4.9518376813494269
 20
1.9514221791377411
 30
0.0
 40
0.4760030144114847
 50
173.9921864190845
 51
185.82587954142909
  0
ARC
  5
1AE7
  8
0
 10
4.4932154314999941
 20
1.9046310305999981
 30
0.0
 40
0.0149999999999946
 50
185.8384183969923
 51
209.90903360102911
  0
LINE
  5
1AE8
  8
0
 10
4.4802131593467101
 20
1.8971516643934401
 30
0.0
 11
4.6673136208266897
 21
1.571892663854404
 31
0.0
  0
ARC
  5
1AE9
  8
0
 10
4.6803158923720964
 20
1.5793720298202081
 30
0.0
 40
0.0149999993530298
 50
209.90903396165879
 51
233.97964862454069
  0
ARC
  5
1AEA
  8
0
 10
4.927266625780657
 20
1.9106747195365901
 30
0.0
 40
0.4282133750943594
 50
233.32323640291821
 51
246.48674095040371
  0
ARC
  5
1AEB
  8
0
 10
4.7625982130568456
 20
1.5320798849729551
 30
0.0
 40
0.0153578703222487
 50
246.30374346070249
 51
269.7166090079798
  0
ARC
  5
1AEC
  8
0
 10
4.9232420011459403
 20
2.2578581048940758
 30
0.0
 40
0.0199009497830376
 50
95.219490243241424
 51
119.99338942430271
  0
LINE
  5
1AED
  8
0
 10
4.9132935147999977
 20
2.275093980899999
 30
0.0
 11
4.6892806049391513
 21
2.145783306413001
 31
0.0
  0
ARC
  5
1AEE
  8
0
 10
4.699494903931865
 20
2.1280884420978601
 30
0.0
 40
0.0204313515716366
 50
119.9955418586795
 51
144.12936632392001
  0
ARC
  5
1AEF
  8
0
 10
4.9134220376684006
 20
1.9733980619638021
 30
0.0
 40
0.284427435358402
 50
144.12936632392001
 51
155.99872000315619
  0
ARC
  5
1AF0
  8
0
 10
4.6728035666551788
 20
2.0805347485618388
 30
0.0
 40
0.0210351078164885
 50
155.9987200031569
 51
179.41749021099329
  0
LINE
  5
1AF1
  8
0
 10
4.6517695459454531
 20
2.080748602797454
 30
0.0
 11
4.6517547836999977
 21
1.822095741399999
 31
0.0
  0
ARC
  5
1AF2
  8
0
 10
4.673199121867583
 20
1.822437875038716
 30
0.0
 40
0.0214470672790594
 50
180.9140478179466
 51
203.8766717709278
  0
ARC
  5
1AF3
  8
0
 10
4.9507790489001051
 20
1.951394304752069
 30
0.0
 40
0.3275162571583339
 50
204.8501478765875
 51
215.14558380056741
  0
ARC
  5
1AF4
  8
0
 10
4.6990654025755232
 20
1.7741882488641929
 30
0.0
 40
0.0196822986915807
 50
215.147018623207
 51
240.26918955928019
  0
LINE
  5
1AF5
  8
0
 10
4.6893044448617642
 20
1.7570968303655781
 30
0.0
 11
4.913293401399998
 21
1.6277536455999999
 31
0.0
  0
ARC
  5
1AF6
  8
0
 10
4.9240177659744653
 20
1.647434125488205
 30
0.0
 40
0.0224119077481312
 50
241.41311406228789
 51
263.4340250427839
  0
ARC
  5
1AF7
  8
0
 10
4.9508292846000002
 20
1.9514237805000001
 30
0.0
 40
1.141732283499999
 50
132.52581059765799
 51
47.474189408854507
  0
LINE
  5
1AF9
  8
0
 10
4.2904098481290056
 20
0.7913807769
 30
0.0
 11
4.290777434799999
 21
0.7703214183
 31
0.0
  0
ATTDEF
  5
2301
  8
DEFPOINTS
 10
4.9466174035099613
 20
1.9421697354259491
 30
0.0
 40
0.001
  1
K-2972-KS
  3

  2
MODELNUMBER
 70
     0
1001
ACDBATTR
1070
     0
1070
     1
  0
ATTDEF
  5
2302
  8
DEFPOINTS
 10
4.9466174035099613
 20
1.9405030687592839
 30
0.0
 40
0.001
  1
MASTERSHOWER
  3

  2
TRADENAME
 70
     0
1001
ACDBATTR
1070
     0
1070
     1
  0
ATTDEF
  5
2303
  8
DEFPOINTS
 10
4.9466174035099613
 20
1.9388364020926181
 30
0.0
 40
0.001
  1
THERMOSTATIC VALVE
  3

  2
PRODUCT
 70
     0
1001
ACDBATTR
1070
     0
1070
     1
  0
ATTDEF
  5
2304
  8
DEFPOINTS
 10
4.9466174035099613
 20
1.9371697354259529
 30
0.0
 40
0.001
  1
BRASS
  3

  2
MATERIAL
 70
     0
1001
ACDBATTR
1070
     0
1070
     1
  0
ENDSEC
  0
EOF
