  0
SECTION
  2
HEADER
  9
$ACADVER
  1
AC1009
  9
$INSBASE
 10
310.68336481318539
 20
13.71806321233295
 30
0.0
  9
$EXTMIN
 10
298.04703030793547
 20
2.6724940896829561
 30
0.0
  9
$EXTMAX
 10
323.31969931843548
 20
24.763632334982979
 30
0.0
  9
$LIMMIN
 10
0.0
 20
0.0
  9
$LIMMAX
 10
11.692913385800001
 20
8.2677165353999982
  9
$ORTHOMODE
 70
     1
  9
$REGENMODE
 70
     1
  9
$FILLMODE
 70
     1
  9
$QTEXTMODE
 70
     0
  9
$MIRRTEXT
 70
     0
  9
$DRAGMODE
 70
     2
  9
$LTSCALE
 40
0.6431102362
  9
$OSMODE
 70
  3071
  9
$ATTMODE
 70
     1
  9
$TEXTSIZE
 40
0.2
  9
$TRACEWID
 40
0.05
  9
$TEXTSTYLE
  7
STANDARD
  9
$CLAYER
  8
0
  9
$CELTYPE
  6
BYLAYER
  9
$CECOLOR
 62
   256
  9
$DIMSCALE
 40
1.0
  9
$DIMASZ
 40
0.1875
  9
$DIMEXO
 40
0.0625
  9
$DIMDLI
 40
0.4443307087
  9
$DIMRND
 40
0.0
  9
$DIMDLE
 40
0.0
  9
$DIMEXE
 40
0.125
  9
$DIMTP
 40
0.01
  9
$DIMTM
 40
0.01
  9
$DIMTXT
 40
1.0
  9
$DIMCEN
 40
0.1052362205
  9
$DIMTSZ
 40
0.0
  9
$DIMTOL
 70
     1
  9
$DIMLIM
 70
     0
  9
$DIMTIH
 70
     1
  9
$DIMTOH
 70
     1
  9
$DIMSE1
 70
     0
  9
$DIMSE2
 70
     0
  9
$DIMTAD
 70
     0
  9
$DIMZIN
 70
     0
  9
$DIMBLK
  1

  9
$DIMASO
 70
     1
  9
$DIMSHO
 70
     1
  9
$DIMPOST
  1
\X
  9
$DIMAPOST
  1

  9
$DIMALT
 70
     1
  9
$DIMALTD
 70
     2
  9
$DIMALTF
 40
25.399999999999999
  9
$DIMLFAC
 40
1.0
  9
$DIMTOFL
 70
     0
  9
$DIMTVP
 40
0.0
  9
$DIMTIX
 70
     0
  9
$DIMSOXD
 70
     0
  9
$DIMSAH
 70
     0
  9
$DIMBLK1
  1

  9
$DIMBLK2
  1

  9
$DIMSTYLE
  2
STANDARD
  9
$DIMCLRD
 70
     0
  9
$DIMCLRE
 70
     0
  9
$DIMCLRT
 70
     0
  9
$DIMTFAC
 40
1.0
  9
$DIMGAP
 40
0.09
  9
$LUNITS
 70
     2
  9
$LUPREC
 70
     4
  9
$SKETCHINC
 40
0.1
  9
$FILLETRAD
 40
0.0
  9
$AUNITS
 70
     0
  9
$AUPREC
 70
     0
  9
$MENU
  1
.
  9
$ELEVATION
 40
0.0
  9
$PELEVATION
 40
0.0
  9
$THICKNESS
 40
0.0
  9
$LIMCHECK
 70
     0
  9
$BLIPMODE
 70
     0
  9
$CHAMFERA
 40
0.0
  9
$CHAMFERB
 40
0.0
  9
$SKPOLY
 70
     0
  9
$TDCREATE
 40
2458226.4630642361
  9
$TDUPDATE
 40
2458295.78324772
  9
$TDINDWG
 40
0.1426648495
  9
$TDUSRTIMER
 40
0.1426648495
  9
$USRTIMER
 70
     1
  9
$ANGBASE
 50
0.0
  9
$ANGDIR
 70
     0
  9
$PDMODE
 70
     0
  9
$PDSIZE
 40
0.3125
  9
$PLINEWID
 40
0.0
  9
$COORDS
 70
     1
  9
$SPLFRAME
 70
     0
  9
$SPLINETYPE
 70
     6
  9
$SPLINESEGS
 70
     8
  9
$ATTDIA
 70
     1
  9
$ATTREQ
 70
     1
  9
$HANDLING
 70
     1
  9
$HANDSEED
  5
19EB
  9
$SURFTAB1
 70
     6
  9
$SURFTAB2
 70
     6
  9
$SURFTYPE
 70
     6
  9
$SURFU
 70
     6
  9
$SURFV
 70
     6
  9
$UCSNAME
  2

  9
$UCSORG
 10
0.0
 20
0.0
 30
0.0
  9
$UCSXDIR
 10
1.0
 20
0.0
 30
0.0
  9
$UCSYDIR
 10
0.0
 20
1.0
 30
0.0
  9
$PUCSNAME
  2

  9
$PUCSORG
 10
0.0
 20
0.0
 30
0.0
  9
$PUCSXDIR
 10
1.0
 20
0.0
 30
0.0
  9
$PUCSYDIR
 10
0.0
 20
1.0
 30
0.0
  9
$USERI1
 70
     0
  9
$USERI2
 70
     0
  9
$USERI3
 70
     0
  9
$USERI4
 70
     0
  9
$USERI5
 70
     0
  9
$USERR1
 40
0.0
  9
$USERR2
 40
0.0
  9
$USERR3
 40
0.0
  9
$USERR4
 40
0.0
  9
$USERR5
 40
0.0
  9
$WORLDVIEW
 70
     1
  9
$SHADEDGE
 70
     3
  9
$SHADEDIF
 70
    70
  9
$TILEMODE
 70
     1
  9
$MAXACTVP
 70
    64
  9
$PLIMCHECK
 70
     0
  9
$PEXTMIN
 10
1.0000000000000000E+020
 20
1.0000000000000000E+020
 30
1.0000000000000000E+020
  9
$PEXTMAX
 10
-1.0000000000000000E+020
 20
-1.0000000000000000E+020
 30
-1.0000000000000000E+020
  9
$PLIMMIN
 10
0.0
 20
0.0
  9
$PLIMMAX
 10
12.0
 20
9.0
  9
$UNITMODE
 70
     0
  9
$VISRETAIN
 70
     1
  9
$PLINEGEN
 70
     0
  9
$PSLTSCALE
 70
     1
  0
ENDSEC
  0
SECTION
  2
TABLES
  0
TABLE
  2
VPORT
 70
     1
  0
VPORT
  2
*ACTIVE
 70
     0
 10
0.0
 20
0.0
 11
1.0
 21
1.0
 12
0.0
 22
0.0
 13
0.0
 23
0.0
 14
1.0
 24
1.0
 15
0.0
 25
0.0
 16
0.0
 26
0.0
 36
94.472515846273353
 17
310.68336481318539
 27
13.71806321233297
 37
0.0
 40
33.584191637422343
 41
2.1006711409395971
 42
50.0
 43
0.0
 44
0.0
 50
0.0
 51
0.0
 71
     0
 72
   100
 73
     1
 74
     1
 75
     0
 76
     0
 77
     0
 78
     0
  0
ENDTAB
  0
TABLE
  2
LTYPE
 70
     2
  0
LTYPE
  2
CONTINUOUS
 70
     0
  3
Solid line
 72
    65
 73
     0
 40
0.0
  0
LTYPE
  2
PHANTOM2
 70
     0
  3
___ _ _ ___ _ _ ___ _ _ ___ _ _
 72
    65
 73
     6
 40
1.25
 49
0.625
 49
-0.125
 49
0.125
 49
-0.125
 49
0.125
 49
-0.125
  0
ENDTAB
  0
TABLE
  2
LAYER
 70
     2
  0
LAYER
  2
0
 70
     0
 62
   255
  6
CONTINUOUS
  0
LAYER
  2
DEFPOINTS
 70
     0
 62
     7
  6
CONTINUOUS
  0
ENDTAB
  0
TABLE
  2
STYLE
 70
     1
  0
STYLE
  2
STANDARD
 70
     0
 40
0.0
 41
0.8
 50
0.0
 71
     0
 42
0.2
  3
txt
  4

  0
ENDTAB
  0
TABLE
  2
VIEW
 70
     0
  0
ENDTAB
  0
TABLE
  2
UCS
 70
     0
  0
ENDTAB
  0
TABLE
  2
APPID
 70
     9
  0
APPID
  2
ACAD
 70
     0
  0
APPID
  2
ACAD_MLEADERVER
 70
     0
  0
APPID
  2
ACAD_EXEMPT_FROM_CAD_STANDARDS
 70
     0
  0
APPID
  2
ACAD_DSTYLE_DIMJAG
 70
     0
  0
APPID
  2
ACAD_DSTYLE_DIMTALN
 70
     0
  0
APPID
  2
ACAD_NAV_VCDISPLAY
 70
     0
  0
APPID
  2
ACAECLAYERSTANDARD
 70
     0
  0
APPID
  2
ACCMTRANSPARENCY
 70
     0
  0
APPID
  2
ACDBATTR
 70
     0
  0
ENDTAB
  0
TABLE
  2
DIMSTYLE
 70
     1
  0
DIMSTYLE
  2
STANDARD
 70
     0
  3

  4

  5

  6

  7

 40
1.0
 41
0.1875
 42
0.0625
 43
0.38
 44
0.125
 45
0.0
 46
0.0
 47
0.01
 48
0.01
140
0.15625
141
0.09
142
0.0
143
25.399999999999999
144
1.0
145
0.0
146
1.0
147
0.09
 71
     1
 72
     0
 73
     1
 74
     1
 75
     0
 76
     0
 77
     0
 78
     4
170
     0
171
     2
172
     0
173
     0
174
     0
175
     0
176
     0
177
     0
178
     0
  0
ENDTAB
  0
ENDSEC
  0
SECTION
  2
BLOCKS
  0
BLOCK
  8
0
  2
$MODEL_SPACE
 70
     0
 10
0.0
 20
0.0
 30
0.0
  3
$MODEL_SPACE
  1

  0
ENDBLK
  5
21
  8
0
  0
BLOCK
 67
     1
  8
0
  2
$PAPER_SPACE
 70
     0
 10
0.0
 20
0.0
 30
0.0
  3
$PAPER_SPACE
  1

  0
ENDBLK
  5
1D
 67
     1
  8
0
  0
ENDSEC
  0
SECTION
  2
ENTITIES
  0
ATTDEF
  5
1673
  8
DEFPOINTS
 10
310.67982928035889
 20
13.723568722014489
 30
0.0
 40
0.001
  1
K-2956-1
  3

  2
MODELNUMBER
 70
     0
1001
ACDBATTR
1070
     0
1070
     1
  0
ATTDEF
  5
1674
  8
DEFPOINTS
 10
310.67982928035889
 20
13.721902055347829
 30
0.0
 40
0.001
  1
PERSUADE CURV
  3

  2
TRADENAME
 70
     0
1001
ACDBATTR
1070
     0
1070
     1
  0
ATTDEF
  5
1675
  8
DEFPOINTS
 10
310.67982928035889
 20
13.720235388681161
 30
0.0
 40
0.001
  1
BATHROOM SINK
  3

  2
PRODUCT
 70
     0
1001
ACDBATTR
1070
     0
1070
     1
  0
ATTDEF
  5
1676
  8
DEFPOINTS
 10
310.67982928035889
 20
13.71856872201449
 30
0.0
 40
0.001
  1
VITREOUS CHINA
  3

  2
MATERIAL
 70
     0
1001
ACDBATTR
1070
     0
1070
     1
  0
LINE
  5
172D
  8
0
 10
298.04703030793547
 20
24.513651865082959
 30
0.0
 11
298.04703030793547
 21
2.922484484982959
 31
0.0
  0
LINE
  5
172E
  8
0
 10
301.2674435629354
 20
18.988330522882961
 30
0.0
 11
301.26835732083549
 21
7.9373089915829587
 31
0.0
  0
LINE
  5
172F
  8
0
 10
320.09837539413547
 20
7.9373088816829593
 30
0.0
 11
320.09928330933548
 21
18.988321674682961
 31
0.0
  0
LINE
  5
1730
  8
0
 10
323.06971409213543
 20
24.763632334982962
 30
0.0
 11
298.29701553423553
 21
24.763632334982962
 31
0.0
  0
LINE
  5
1731
  8
0
 10
323.31969931843548
 20
2.922484484982959
 30
0.0
 11
323.31969931843548
 21
24.513651865082959
 31
0.0
  0
LINE
  5
1732
  8
0
 10
323.06989503783541
 20
2.6724940896829561
 30
0.0
 11
298.29719647993551
 21
2.6724940896829561
 31
0.0
  0
ARC
  5
1733
  8
0
 10
323.05677825521309
 20
24.41248987649201
 30
0.0
 40
0.351380651191786
 50
55.226908528628613
 51
87.890218551615689
  0
ARC
  5
1734
  8
0
 10
322.8951270394806
 20
24.476219703649221
 30
0.0
 40
0.426219176910815
 50
5.0384206512698491
 51
31.84771662424545
  0
ARC
  5
1735
  8
0
 10
298.31494425855612
 20
24.397504019112169
 30
0.0
 40
0.3665670237475064
 50
92.803444564241644
 51
124.07818295356419
  0
ARC
  5
1736
  8
0
 10
298.42924721331627
 20
24.490348853447099
 30
0.0
 40
0.3829266158289016
 50
146.6037128005068
 51
176.5111077913331
  0
ARC
  5
1737
  8
0
 10
298.38909012897381
 20
2.9334011621293739
 30
0.0
 40
0.3422339769932947
 50
181.82794721861811
 51
215.93713610053231
  0
ARC
  5
1738
  8
0
 10
298.29591829860112
 20
2.9841606638627058
 30
0.0
 40
0.3116691951548382
 50
233.834569099211
 51
270.23497542375162
  0
ARC
  5
1739
  8
0
 10
323.06178104117669
 20
3.008903304491493
 30
0.0
 40
0.3365070530462532
 50
271.38167334192059
 51
305.49002076593052
  0
ARC
  5
173A
  8
0
 10
322.94281151902209
 20
2.9439609413078318
 30
0.0
 40
0.3774992073142536
 50
326.37404571636239
 51
356.73860226537721
  0
CIRCLE
  5
173B
  8
0
 10
310.68342797383548
 20
22.101643328982959
 30
0.0
 40
0.69
  0
ARC
  5
173C
  8
0
 10
310.68390820617037
 20
2572.8662530621882
 30
0.0
 40
2553.6546687359792
 50
269.79418307784471
 51
270.20579255251272
  0
ARC
  5
173D
  8
0
 10
319.89168030850681
 20
19.004439549042178
 30
0.0
 40
0.2264458983942167
 50
40.070314691886871
 51
99.066425269641627
  0
ARC
  5
173E
  8
0
 10
319.81865183240922
 20
19.013418434429301
 30
0.0
 40
0.2817514386681302
 50
354.8896562080331
 51
29.045278730353399
  0
ARC
  5
173F
  8
0
 10
319.75821678836138
 20
7.859035071382233
 30
0.0
 40
0.349048229419872
 50
315.6720066086279
 51
12.95873641901559
  0
ARC
  5
1740
  8
0
 10
310.68405356995322
 20
26.91505072666148
 30
0.0
 40
21.434111251151322
 50
244.2112092948982
 51
295.78534425773489
  0
ARC
  5
1741
  8
0
 10
301.6155653588707
 20
7.8616132565169821
 30
0.0
 40
0.3553635687341275
 50
167.7012381785415
 51
223.79050155819809
  0
ARC
  5
1742
  8
0
 10
301.52408060548868
 20
19.016736621307491
 30
0.0
 40
0.2582043338873416
 50
145.1545216916775
 51
186.3161241345762
  0
ARC
  5
1743
  8
0
 10
301.47715188020487
 20
18.991676920448931
 30
0.0
 40
0.2387566982935255
 50
81.914498474556112
 51
133.7085385888158
  0
ARC
  5
1744
  8
0
 10
302.35958907106328
 20
18.167679324480488
 30
0.0
 40
0.2156229365488108
 50
82.598855213004683
 51
187.32547854198489
  0
ARC
  5
1745
  8
0
 10
310.68336475719542
 20
797.41013544935834
 30
0.0
 40
779.07280109367639
 50
269.38987116861171
 51
270.61012882248679
  0
ARC
  5
1746
  8
0
 10
319.00714044132252
 20
18.167679236088599
 30
0.0
 40
0.2156230382567589
 50
352.67454877413218
 51
97.401173165609762
  0
ARC
  5
1747
  8
0
 10
1248.2487248304669
 20
15.799043640660569
 30
0.0
 40
929.03067111301925
 50
179.85561539279681
 51
180.31194646364349
  0
ARC
  5
1748
  8
0
 10
319.0383451938564
 20
10.767613524609621
 30
0.0
 40
0.1953040953678086
 50
282.08218746123219
 51
352.15855413943041
  0
ARC
  5
1749
  8
0
 10
310.68336478553141
 20
25.84161824339699
 30
0.0
 40
17.42154306711398
 50
241.1888606111138
 51
298.81113960999249
  0
ARC
  5
174A
  8
0
 10
302.32845286366268
 20
10.767737611833949
 30
0.0
 40
0.1954397927077683
 50
188.16443928897721
 51
257.9058128596597
  0
ARC
  5
174B
  8
0
 10
-632.76352465903631
 20
15.79592846673617
 30
0.0
 40
934.91218981660745
 50
359.69014652755351
 51
0.1436671968286607
  0
CIRCLE
  5
174C
  8
0
 10
310.68326481323538
 20
13.48116210158296
 30
0.0
 40
0.7845000000000013
  0
CIRCLE
  5
174D
  8
0
 10
310.68326481323538
 20
13.48116210158296
 30
0.0
 40
1.110731620301536
  0
ARC
  5
174E
  8
0
 10
310.68042160692892
 20
17.736953367409829
 30
0.0
 40
1.410429617867508
 50
70.341519118305612
 51
109.0952620345944
  0
ARC
  5
174F
  8
0
 10
310.24446433584882
 20
19.010388467202311
 30
0.0
 40
0.064610636274438
 50
113.19758234185549
 51
169.85026738712551
  0
ARC
  5
1750
  8
0
 10
310.25834108551481
 20
19.040377356832082
 30
0.0
 40
0.0796784056458968
 50
193.501901280185
 51
256.12518958594262
  0
ARC
  5
1751
  8
0
 10
310.67392965367873
 20
20.339004543434971
 30
0.0
 40
1.443011852472035
 50
252.467793649973
 51
289.48799343044271
  0
ARC
  5
1752
  8
0
 10
311.14008270624299
 20
19.021844534917051
 30
0.0
 40
0.0457970779075175
 50
289.44926604197173
 51
71.111635574035546
  0
ARC
  5
1753
  8
0
 10
310.68262319197009
 20
20.323502013509639
 30
0.0
 40
1.3511854290404941
 50
253.77115234154749
 51
286.43658056204231
  0
ARC
  5
1754
  8
0
 10
310.32552130934653
 20
19.112552893062571
 30
0.0
 40
0.0887992094069191
 50
202.85392369250189
 51
256.63909905253303
  0
ARC
  5
1755
  8
0
 10
311.03369066497368
 20
19.125081180723878
 30
0.0
 40
0.1024315274836809
 50
287.76642411564433
 51
331.3413450192088
  0
POINT
  5
1757
  8
DEFPOINTS
 10
310.68342797383548
 20
22.101643328982959
 30
0.0
  0
ENDSEC
  0
EOF
