  0
SECTION
  2
HEADER
  9
$ACADVER
  1
AC1009
  9
$INSBASE
 10
3501.422815426915804
 20
199.5887644829477949
 30
0.0
  9
$EXTMIN
 10
3489.9896734984158684
 20
190.5348858840752939
 30
0.0
  9
$EXTMAX
 10
3512.8559573554161943
 20
208.6426430818202959
 30
0.0
  9
$LIMMIN
 10
0.0
 20
0.0
  9
$LIMMAX
 10
11.6929133858000007
 20
8.2677165353999982
  9
$ORTHOMODE
 70
     0
  9
$REGENMODE
 70
     1
  9
$FILLMODE
 70
     1
  9
$QTEXTMODE
 70
     0
  9
$MIRRTEXT
 70
     0
  9
$DRAGMODE
 70
     2
  9
$LTSCALE
 40
0.6431102362
  9
$OSMODE
 70
  4095
  9
$ATTMODE
 70
     1
  9
$TEXTSIZE
 40
0.2
  9
$TRACEWID
 40
0.05
  9
$TEXTSTYLE
  7
STANDARD
  9
$CLAYER
  8
0
  9
$CELTYPE
  6
BYLAYER
  9
$CECOLOR
 62
   256
  9
$DIMSCALE
 40
1.0
  9
$DIMASZ
 40
0.1875
  9
$DIMEXO
 40
0.0625
  9
$DIMDLI
 40
0.4443307087
  9
$DIMRND
 40
0.0
  9
$DIMDLE
 40
0.0
  9
$DIMEXE
 40
0.125
  9
$DIMTP
 40
0.01
  9
$DIMTM
 40
0.01
  9
$DIMTXT
 40
2.0
  9
$DIMCEN
 40
0.1052362205
  9
$DIMTSZ
 40
0.0
  9
$DIMTOL
 70
     1
  9
$DIMLIM
 70
     0
  9
$DIMTIH
 70
     1
  9
$DIMTOH
 70
     1
  9
$DIMSE1
 70
     0
  9
$DIMSE2
 70
     0
  9
$DIMTAD
 70
     0
  9
$DIMZIN
 70
     0
  9
$DIMBLK
  1

  9
$DIMASO
 70
     1
  9
$DIMSHO
 70
     1
  9
$DIMPOST
  1
\X
  9
$DIMAPOST
  1

  9
$DIMALT
 70
     1
  9
$DIMALTD
 70
     2
  9
$DIMALTF
 40
25.3999999999999986
  9
$DIMLFAC
 40
1.0
  9
$DIMTOFL
 70
     0
  9
$DIMTVP
 40
0.0
  9
$DIMTIX
 70
     0
  9
$DIMSOXD
 70
     0
  9
$DIMSAH
 70
     0
  9
$DIMBLK1
  1

  9
$DIMBLK2
  1

  9
$DIMSTYLE
  2
STANDARD
  9
$DIMCLRD
 70
     0
  9
$DIMCLRE
 70
     0
  9
$DIMCLRT
 70
     0
  9
$DIMTFAC
 40
1.0
  9
$DIMGAP
 40
0.09
  9
$LUNITS
 70
     2
  9
$LUPREC
 70
     4
  9
$SKETCHINC
 40
0.1
  9
$FILLETRAD
 40
0.0
  9
$AUNITS
 70
     0
  9
$AUPREC
 70
     0
  9
$MENU
  1
.
  9
$ELEVATION
 40
0.0
  9
$PELEVATION
 40
0.0
  9
$THICKNESS
 40
0.0
  9
$LIMCHECK
 70
     0
  9
$BLIPMODE
 70
     0
  9
$CHAMFERA
 40
0.0
  9
$CHAMFERB
 40
0.0
  9
$SKPOLY
 70
     0
  9
$TDCREATE
 40
2458060.468368056230247
  9
$TDUPDATE
 40
2459012.7628356479108334
  9
$TDINDWG
 40
0.5063496528
  9
$TDUSRTIMER
 40
0.5063496528
  9
$USRTIMER
 70
     1
  9
$ANGBASE
 50
0.0
  9
$ANGDIR
 70
     0
  9
$PDMODE
 70
     0
  9
$PDSIZE
 40
0.3125
  9
$PLINEWID
 40
0.0
  9
$COORDS
 70
     1
  9
$SPLFRAME
 70
     0
  9
$SPLINETYPE
 70
     6
  9
$SPLINESEGS
 70
     8
  9
$ATTDIA
 70
     1
  9
$ATTREQ
 70
     1
  9
$HANDLING
 70
     1
  9
$HANDSEED
  5
8AE0
  9
$SURFTAB1
 70
     6
  9
$SURFTAB2
 70
     6
  9
$SURFTYPE
 70
     6
  9
$SURFU
 70
     6
  9
$SURFV
 70
     6
  9
$UCSNAME
  2

  9
$UCSORG
 10
0.0
 20
0.0
 30
0.0
  9
$UCSXDIR
 10
1.0
 20
0.0
 30
0.0
  9
$UCSYDIR
 10
0.0
 20
1.0
 30
0.0
  9
$PUCSNAME
  2

  9
$PUCSORG
 10
0.0
 20
0.0
 30
0.0
  9
$PUCSXDIR
 10
1.0
 20
0.0
 30
0.0
  9
$PUCSYDIR
 10
0.0
 20
1.0
 30
0.0
  9
$USERI1
 70
     0
  9
$USERI2
 70
     0
  9
$USERI3
 70
     0
  9
$USERI4
 70
     0
  9
$USERI5
 70
     0
  9
$USERR1
 40
0.0
  9
$USERR2
 40
0.0
  9
$USERR3
 40
0.0
  9
$USERR4
 40
0.0
  9
$USERR5
 40
0.0
  9
$WORLDVIEW
 70
     1
  9
$SHADEDGE
 70
     3
  9
$SHADEDIF
 70
    70
  9
$TILEMODE
 70
     1
  9
$MAXACTVP
 70
    64
  9
$PLIMCHECK
 70
     0
  9
$PEXTMIN
 10
1.0000000000000000E+20
 20
1.0000000000000000E+20
 30
1.0000000000000000E+20
  9
$PEXTMAX
 10
-1.0000000000000000E+20
 20
-1.0000000000000000E+20
 30
-1.0000000000000000E+20
  9
$PLIMMIN
 10
0.0
 20
0.0
  9
$PLIMMAX
 10
12.0
 20
9.0
  9
$UNITMODE
 70
     0
  9
$VISRETAIN
 70
     1
  9
$PLINEGEN
 70
     0
  9
$PSLTSCALE
 70
     1
  0
ENDSEC
  0
SECTION
  2
TABLES
  0
TABLE
  2
VPORT
 70
     1
  0
VPORT
  2
*ACTIVE
 70
     0
 10
0.0
 20
0.0
 11
1.0
 21
1.0
 12
0.0
 22
0.0
 13
0.0
 23
0.0
 14
1.0
 24
1.0
 15
0.0
 25
0.0
 16
0.0
 26
0.0
 36
82.9202373778312989
 17
3501.4228515625
 27
199.5887603759765057
 37
0.0
 40
29.1676959459042813
 41
2.127494456762749
 42
50.0
 43
0.0
 44
0.0
 50
0.0
 51
0.0
 71
     0
 72
   100
 73
     1
 74
     1
 75
     0
 76
     0
 77
     0
 78
     0
  0
ENDTAB
  0
TABLE
  2
LTYPE
 70
     2
  0
LTYPE
  2
CONTINUOUS
 70
     0
  3
Solid line
 72
    65
 73
     0
 40
0.0
  0
LTYPE
  2
PHANTOM2
 70
     0
  3
___ _ _ ___ _ _ ___ _ _ ___ _ _
 72
    65
 73
     6
 40
1.25
 49
0.625
 49
-0.125
 49
0.125
 49
-0.125
 49
0.125
 49
-0.125
  0
ENDTAB
  0
TABLE
  2
LAYER
 70
     2
  0
LAYER
  2
0
 70
     0
 62
   255
  6
CONTINUOUS
  0
LAYER
  2
DEFPOINTS
 70
     0
 62
     7
  6
CONTINUOUS
  0
ENDTAB
  0
TABLE
  2
STYLE
 70
     1
  0
STYLE
  2
STANDARD
 70
     0
 40
0.0
 41
0.8
 50
0.0
 71
     0
 42
0.2
  3
txt
  4

  0
ENDTAB
  0
TABLE
  2
VIEW
 70
     0
  0
ENDTAB
  0
TABLE
  2
UCS
 70
     0
  0
ENDTAB
  0
TABLE
  2
APPID
 70
     9
  0
APPID
  2
ACAD
 70
     0
  0
APPID
  2
ACAD_MLEADERVER
 70
     0
  0
APPID
  2
ACAD_EXEMPT_FROM_CAD_STANDARDS
 70
     0
  0
APPID
  2
ACAD_NAV_VCDISPLAY
 70
     0
  0
APPID
  2
ACAECLAYERSTANDARD
 70
     0
  0
APPID
  2
ACCMTRANSPARENCY
 70
     0
  0
APPID
  2
ACAD_DSTYLE_DIMJAG
 70
     0
  0
APPID
  2
ACAD_DSTYLE_DIMTALN
 70
     0
  0
APPID
  2
ACDBATTR
 70
     0
  0
ENDTAB
  0
TABLE
  2
DIMSTYLE
 70
     1
  0
DIMSTYLE
  2
STANDARD
 70
     0
  3

  4

  5

  6

  7

 40
1.0
 41
0.1875
 42
0.0625
 43
0.38
 44
0.125
 45
0.0
 46
0.0
 47
0.01
 48
0.01
140
0.15625
141
0.09
142
0.0
143
25.3999999999999986
144
1.0
145
0.0
146
1.0
147
0.09
 71
     1
 72
     0
 73
     1
 74
     1
 75
     0
 76
     0
 77
     0
 78
     4
170
     0
171
     2
172
     0
173
     0
174
     0
175
     0
176
     0
177
     0
178
     0
  0
ENDTAB
  0
ENDSEC
  0
SECTION
  2
BLOCKS
  0
BLOCK
  8
0
  2
$MODEL_SPACE
 70
     0
 10
0.0
 20
0.0
 30
0.0
  3
$MODEL_SPACE
  1

  0
ENDBLK
  5
21
  8
0
  0
BLOCK
 67
     1
  8
0
  2
$PAPER_SPACE
 70
     0
 10
0.0
 20
0.0
 30
0.0
  3
$PAPER_SPACE
  1

  0
ENDBLK
  5
1D
 67
     1
  8
0
  0
ENDSEC
  0
SECTION
  2
ENTITIES
  0
ATTDEF
  5
3930
  8
DEFPOINTS
 10
3501.4126518269640655
 20
199.5925097202581924
 30
0.0
 40
0.001
  1
K-2660-8
  3

  2
MODELNUMBER
 70
     0
1001
ACDBATTR
1070
     0
1070
     1
  0
ATTDEF
  5
3931
  8
DEFPOINTS
 10
3501.4126518269640655
 20
199.5908430535914988
 30
0.0
 40
0.001
  1
FOREFRONT
  3

  2
TRADENAME
 70
     0
1001
ACDBATTR
1070
     0
1070
     1
  0
ATTDEF
  5
3932
  8
DEFPOINTS
 10
3501.4126518269640655
 20
199.5891763869248052
 30
0.0
 40
0.001
  1
BATHROOM SINK
  3

  2
PRODUCT
 70
     0
1001
ACDBATTR
1070
     0
1070
     1
  0
ARC
  5
88E6
  8
0
 10
3491.9598431000958954
 20
192.5050715444378113
 30
0.0
 40
1.970610682435828
 50
181.2122839912177028
 51
268.8099895841094167
  0
ARC
  5
88E7
  8
0
 10
3491.9551943147980637
 20
206.6771204517087881
 30
0.0
 40
1.9655226301114861
 50
89.8953800377956469
 51
179.9221632105162882
  0
ARC
  5
88E8
  8
0
 10
3492.2193539520508239
 20
202.3535333462444044
 30
0.0
 40
2.290526695293515
 50
102.5541439700299975
 51
166.7641163393512898
  0
CIRCLE
  5
88E9
  8
0
 10
3501.4228154183169863
 20
197.6746259056571944
 30
0.0
 40
0.9385616572000001
  0
CIRCLE
  5
88EA
  8
0
 10
3501.4228155880678059
 20
197.6750650654759056
 30
0.0
 40
1.4512377667486609
  0
CIRCLE
  5
88EB
  8
0
 10
3497.422815418115988
 20
206.4764644351571974
 30
0.0
 40
0.6909448819000003
  0
CIRCLE
  5
88EC
  8
0
 10
3501.422815418115988
 20
206.4764644351571974
 30
0.0
 40
0.6909448819000003
  0
CIRCLE
  5
88ED
  8
0
 10
3505.422815418115988
 20
206.4764644351571974
 30
0.0
 40
0.6909448819000003
  0
LINE
  5
88EE
  8
0
 10
3500.3367140138570903
 20
198.6376004809974063
 30
0.0
 11
3490.6867344726729243
 21
204.0557642569276027
 31
0.0
  0
LINE
  5
88EF
  8
0
 10
3490.5666817962342066
 20
191.111368547686908
 30
0.0
 11
3500.3202936731941008
 21
196.7313826597597881
 31
0.0
  0
LINE
  5
88F0
  8
0
 10
3489.9896734984158684
 20
206.6797906296073108
 30
0.0
 11
3489.9896734984158684
 21
192.4633797904814116
 31
0.0
  0
LINE
  5
88F1
  8
0
 10
3491.9587832840161354
 20
208.6426398051573017
 30
0.0
 11
3510.8868475698141083
 21
208.6426398051573017
 31
0.0
  0
LINE
  5
88F2
  8
0
 10
3491.721480241916197
 20
204.5892959254572077
 30
0.0
 11
3511.1241506119158657
 21
204.5892959254572077
 31
0.0
  0
LINE
  5
88F3
  8
0
 10
3491.9189172472360951
 20
190.5348858840752939
 30
0.0
 11
3510.9267136065959676
 21
190.5348858840752939
 31
0.0
  0
ARC
  5
88F5
  8
0
 10
3510.8857877537361674
 20
192.5050715444378113
 30
0.0
 40
1.970610682435828
 50
271.1900104158905265
 51
358.7877160087821835
  0
ARC
  5
88F6
  8
0
 10
3510.890436539033999
 20
206.6771204517087881
 30
0.0
 40
1.9655226301114861
 50
0.0778367894836838
 51
90.1046199622043815
  0
ARC
  5
88F7
  8
0
 10
3510.6262769017807841
 20
202.3535333462444044
 30
0.0
 40
2.2905266952935182
 50
13.2358836606502592
 51
77.4458560299699457
  0
LINE
  5
88F8
  8
0
 10
3512.8559573554161943
 20
206.6797906296073108
 30
0.0
 11
3512.8559573554161943
 21
192.4633797904814116
 31
0.0
  0
POINT
  5
88F9
  8
DEFPOINTS
 10
3501.422815418115988
 20
206.4764644351571974
 30
0.0
  0
ARC
  5
88FA
  8
0
 10
3500.4715813105599409
 20
192.1249549599486954
 30
0.0
 40
0.490975275082517
 50
244.4271721525911971
 51
302.6460611598769219
  0
ARC
  5
88FB
  8
0
 10
3500.695154829715193
 20
191.7777933141483118
 30
0.0
 40
0.0780584358891398
 50
301.9285180530872026
 51
66.3943804496290539
  0
ARC
  5
88FC
  8
0
 10
3500.4742526846289365
 20
191.345989109654397
 30
0.0
 40
0.5629623703952681
 50
63.3899532499675118
 51
112.5618706522128036
  0
ARC
  5
88FD
  8
0
 10
3500.3050873218771812
 20
191.7743209606499022
 30
0.0
 40
0.1028285097787414
 50
117.0934394494486952
 51
243.7751364843526005
  0
ARC
  5
88FE
  8
0
 10
3502.3599330203301179
 20
192.1254157237607103
 30
0.0
 40
0.490975275082517
 50
244.4271721525911971
 51
302.6460611598769219
  0
ARC
  5
88FF
  8
0
 10
3502.5835065394849153
 20
191.7782540779604119
 30
0.0
 40
0.0780584358891398
 50
301.9285180530872026
 51
66.3943804496290539
  0
ARC
  5
8900
  8
0
 10
3502.3626043943991135
 20
191.3464498734664971
 30
0.0
 40
0.5629623703952681
 50
63.3899532499675118
 51
112.5618706522128036
  0
ARC
  5
8901
  8
0
 10
3502.1934390316469035
 20
191.7747817244618886
 30
0.0
 40
0.1028285097787414
 50
117.0934394494486952
 51
243.7751364843526005
  0
ARC
  5
8902
  8
0
 10
3501.4220237622957939
 20
192.1450379551743026
 30
0.0
 40
0.5321812011414015
 50
236.8909672279197878
 51
303.9132615975594263
  0
ARC
  5
8903
  8
0
 10
3501.6687848790038515
 20
191.7769001677372955
 30
0.0
 40
0.0889947636005796
 50
304.3091257905089151
 51
65.295650290828533
  0
ARC
  5
8904
  8
0
 10
3501.4220074717309217
 20
191.291729252906606
 30
0.0
 40
0.6332606923286769
 50
63.357159561370608
 51
116.0521837853874985
  0
ARC
  5
8905
  8
0
 10
3501.1800440350771169
 20
191.7766541995482896
 30
0.0
 40
0.091445151705555
 50
113.2913598973417066
 51
237.8097742490317899
  0
LINE
  5
8906
  8
0
 10
3502.5089168399749724
 20
198.6376004809974063
 30
0.0
 11
3512.1588963811577742
 21
204.0557642569276027
 31
0.0
  0
LINE
  5
8907
  8
0
 10
3512.2789490575978562
 20
191.111368547686908
 30
0.0
 11
3502.5253371806388714
 21
196.7313826597597881
 31
0.0
  0
ENDSEC
  0
EOF
