  0
SECTION
  2
HEADER
  9
$ACADVER
  1
AC1009
  9
$INSBASE
 10
3425.4366112447501109
 20
193.9700861658947986
 30
0.0
  9
$EXTMIN
 10
3414.0034693162488111
 20
190.247678925494796
 30
0.0
  9
$EXTMAX
 10
3436.8697531732500465
 20
197.1981378093948081
 30
0.0
  9
$LIMMIN
 10
0.0
 20
0.0
  9
$LIMMAX
 10
11.6929133858000007
 20
8.2677165353999982
  9
$ORTHOMODE
 70
     0
  9
$REGENMODE
 70
     1
  9
$FILLMODE
 70
     1
  9
$QTEXTMODE
 70
     0
  9
$MIRRTEXT
 70
     0
  9
$DRAGMODE
 70
     2
  9
$LTSCALE
 40
0.6431102362
  9
$OSMODE
 70
  4095
  9
$ATTMODE
 70
     1
  9
$TEXTSIZE
 40
0.2
  9
$TRACEWID
 40
0.05
  9
$TEXTSTYLE
  7
STANDARD
  9
$CLAYER
  8
0
  9
$CELTYPE
  6
BYLAYER
  9
$CECOLOR
 62
   256
  9
$DIMSCALE
 40
1.0
  9
$DIMASZ
 40
0.1875
  9
$DIMEXO
 40
0.0625
  9
$DIMDLI
 40
0.4443307087
  9
$DIMRND
 40
0.0
  9
$DIMDLE
 40
0.0
  9
$DIMEXE
 40
0.125
  9
$DIMTP
 40
0.01
  9
$DIMTM
 40
0.01
  9
$DIMTXT
 40
2.0
  9
$DIMCEN
 40
0.1052362205
  9
$DIMTSZ
 40
0.0
  9
$DIMTOL
 70
     1
  9
$DIMLIM
 70
     0
  9
$DIMTIH
 70
     1
  9
$DIMTOH
 70
     1
  9
$DIMSE1
 70
     0
  9
$DIMSE2
 70
     0
  9
$DIMTAD
 70
     0
  9
$DIMZIN
 70
     0
  9
$DIMBLK
  1

  9
$DIMASO
 70
     1
  9
$DIMSHO
 70
     1
  9
$DIMPOST
  1
\X
  9
$DIMAPOST
  1

  9
$DIMALT
 70
     1
  9
$DIMALTD
 70
     2
  9
$DIMALTF
 40
25.3999999999999986
  9
$DIMLFAC
 40
1.0
  9
$DIMTOFL
 70
     0
  9
$DIMTVP
 40
0.0
  9
$DIMTIX
 70
     0
  9
$DIMSOXD
 70
     0
  9
$DIMSAH
 70
     0
  9
$DIMBLK1
  1

  9
$DIMBLK2
  1

  9
$DIMSTYLE
  2
STANDARD
  9
$DIMCLRD
 70
     0
  9
$DIMCLRE
 70
     0
  9
$DIMCLRT
 70
     0
  9
$DIMTFAC
 40
1.0
  9
$DIMGAP
 40
0.09
  9
$LUNITS
 70
     2
  9
$LUPREC
 70
     4
  9
$SKETCHINC
 40
0.1
  9
$FILLETRAD
 40
0.0
  9
$AUNITS
 70
     0
  9
$AUPREC
 70
     0
  9
$MENU
  1
.
  9
$ELEVATION
 40
0.0
  9
$PELEVATION
 40
0.0
  9
$THICKNESS
 40
0.0
  9
$LIMCHECK
 70
     0
  9
$BLIPMODE
 70
     0
  9
$CHAMFERA
 40
0.0
  9
$CHAMFERB
 40
0.0
  9
$SKPOLY
 70
     0
  9
$TDCREATE
 40
2458060.468368056230247
  9
$TDUPDATE
 40
2459012.7622337960638106
  9
$TDINDWG
 40
0.5036065972
  9
$TDUSRTIMER
 40
0.5036065972
  9
$USRTIMER
 70
     1
  9
$ANGBASE
 50
0.0
  9
$ANGDIR
 70
     0
  9
$PDMODE
 70
     0
  9
$PDSIZE
 40
0.3125
  9
$PLINEWID
 40
0.0
  9
$COORDS
 70
     1
  9
$SPLFRAME
 70
     0
  9
$SPLINETYPE
 70
     6
  9
$SPLINESEGS
 70
     8
  9
$ATTDIA
 70
     1
  9
$ATTREQ
 70
     1
  9
$HANDLING
 70
     1
  9
$HANDSEED
  5
88F2
  9
$SURFTAB1
 70
     6
  9
$SURFTAB2
 70
     6
  9
$SURFTYPE
 70
     6
  9
$SURFU
 70
     6
  9
$SURFV
 70
     6
  9
$UCSNAME
  2

  9
$UCSORG
 10
0.0
 20
0.0
 30
0.0
  9
$UCSXDIR
 10
1.0
 20
0.0
 30
0.0
  9
$UCSYDIR
 10
0.0
 20
1.0
 30
0.0
  9
$PUCSNAME
  2

  9
$PUCSORG
 10
0.0
 20
0.0
 30
0.0
  9
$PUCSXDIR
 10
1.0
 20
0.0
 30
0.0
  9
$PUCSYDIR
 10
0.0
 20
1.0
 30
0.0
  9
$USERI1
 70
     0
  9
$USERI2
 70
     0
  9
$USERI3
 70
     0
  9
$USERI4
 70
     0
  9
$USERI5
 70
     0
  9
$USERR1
 40
0.0
  9
$USERR2
 40
0.0
  9
$USERR3
 40
0.0
  9
$USERR4
 40
0.0
  9
$USERR5
 40
0.0
  9
$WORLDVIEW
 70
     1
  9
$SHADEDGE
 70
     3
  9
$SHADEDIF
 70
    70
  9
$TILEMODE
 70
     1
  9
$MAXACTVP
 70
    64
  9
$PLIMCHECK
 70
     0
  9
$PEXTMIN
 10
1.0000000000000000E+20
 20
1.0000000000000000E+20
 30
1.0000000000000000E+20
  9
$PEXTMAX
 10
-1.0000000000000000E+20
 20
-1.0000000000000000E+20
 30
-1.0000000000000000E+20
  9
$PLIMMIN
 10
0.0
 20
0.0
  9
$PLIMMAX
 10
12.0
 20
9.0
  9
$UNITMODE
 70
     0
  9
$VISRETAIN
 70
     1
  9
$PLINEGEN
 70
     0
  9
$PSLTSCALE
 70
     1
  0
ENDSEC
  0
SECTION
  2
TABLES
  0
TABLE
  2
VPORT
 70
     1
  0
VPORT
  2
*ACTIVE
 70
     0
 10
0.0
 20
0.0
 11
1.0
 21
1.0
 12
0.0
 22
0.1162431065222194
 13
0.0
 23
0.0
 14
1.0
 24
1.0
 15
0.0
 25
0.0
 16
0.0
 26
0.0
 36
68.4683518845401693
 17
3425.4366455078129547
 27
193.7229080200195028
 37
0.0
 40
24.1361991113320613
 41
2.127494456762749
 42
50.0
 43
0.0
 44
0.0
 50
0.0
 51
0.0
 71
     0
 72
   100
 73
     1
 74
     1
 75
     0
 76
     0
 77
     0
 78
     0
  0
ENDTAB
  0
TABLE
  2
LTYPE
 70
     2
  0
LTYPE
  2
CONTINUOUS
 70
     0
  3
Solid line
 72
    65
 73
     0
 40
0.0
  0
LTYPE
  2
PHANTOM2
 70
     0
  3
___ _ _ ___ _ _ ___ _ _ ___ _ _
 72
    65
 73
     6
 40
1.25
 49
0.625
 49
-0.125
 49
0.125
 49
-0.125
 49
0.125
 49
-0.125
  0
ENDTAB
  0
TABLE
  2
LAYER
 70
     2
  0
LAYER
  2
0
 70
     0
 62
   255
  6
CONTINUOUS
  0
LAYER
  2
DEFPOINTS
 70
     0
 62
     7
  6
CONTINUOUS
  0
ENDTAB
  0
TABLE
  2
STYLE
 70
     1
  0
STYLE
  2
STANDARD
 70
     0
 40
0.0
 41
0.8
 50
0.0
 71
     0
 42
0.2
  3
txt
  4

  0
ENDTAB
  0
TABLE
  2
VIEW
 70
     0
  0
ENDTAB
  0
TABLE
  2
UCS
 70
     0
  0
ENDTAB
  0
TABLE
  2
APPID
 70
     9
  0
APPID
  2
ACAD
 70
     0
  0
APPID
  2
ACAD_MLEADERVER
 70
     0
  0
APPID
  2
ACAD_EXEMPT_FROM_CAD_STANDARDS
 70
     0
  0
APPID
  2
ACAD_NAV_VCDISPLAY
 70
     0
  0
APPID
  2
ACAECLAYERSTANDARD
 70
     0
  0
APPID
  2
ACCMTRANSPARENCY
 70
     0
  0
APPID
  2
ACAD_DSTYLE_DIMJAG
 70
     0
  0
APPID
  2
ACAD_DSTYLE_DIMTALN
 70
     0
  0
APPID
  2
ACDBATTR
 70
     0
  0
ENDTAB
  0
TABLE
  2
DIMSTYLE
 70
     1
  0
DIMSTYLE
  2
STANDARD
 70
     0
  3

  4

  5

  6

  7

 40
1.0
 41
0.1875
 42
0.0625
 43
0.38
 44
0.125
 45
0.0
 46
0.0
 47
0.01
 48
0.01
140
0.15625
141
0.09
142
0.0
143
25.3999999999999986
144
1.0
145
0.0
146
1.0
147
0.09
 71
     1
 72
     0
 73
     1
 74
     1
 75
     0
 76
     0
 77
     0
 78
     4
170
     0
171
     2
172
     0
173
     0
174
     0
175
     0
176
     0
177
     0
178
     0
  0
ENDTAB
  0
ENDSEC
  0
SECTION
  2
BLOCKS
  0
BLOCK
  8
0
  2
$MODEL_SPACE
 70
     0
 10
0.0
 20
0.0
 30
0.0
  3
$MODEL_SPACE
  1

  0
ENDBLK
  5
21
  8
0
  0
BLOCK
 67
     1
  8
0
  2
$PAPER_SPACE
 70
     0
 10
0.0
 20
0.0
 30
0.0
  3
$PAPER_SPACE
  1

  0
ENDBLK
  5
1D
 67
     1
  8
0
  0
ENDSEC
  0
SECTION
  2
ENTITIES
  0
ATTDEF
  5
3930
  8
DEFPOINTS
 10
3425.4369218406791333
 20
193.9683505396243959
 30
0.0
 40
0.001
  1
K-2660-1
  3

  2
MODELNUMBER
 70
     0
1001
ACDBATTR
1070
     0
1070
     1
  0
ATTDEF
  5
3931
  8
DEFPOINTS
 10
3425.4369218406791333
 20
193.9666838729577023
 30
0.0
 40
0.001
  1
FOREFRONT
  3

  2
TRADENAME
 70
     0
1001
ACDBATTR
1070
     0
1070
     1
  0
ATTDEF
  5
3932
  8
DEFPOINTS
 10
3425.4369218406791333
 20
193.9650172062910087
 30
0.0
 40
0.001
  1
BATHROOM SINK
  3

  2
PRODUCT
 70
     0
1001
ACDBATTR
1070
     0
1070
     1
  0
ARC
  5
86E3
  8
0
 10
3424.2784096268501344
 20
190.4445302997802969
 30
0.0
 40
0.1968513742854441
 50
185.0027358956587022
 51
270.0
  0
LINE
  5
86E4
  8
0
 10
3424.0823081509379335
 20
190.4273642081026026
 30
0.0
 11
3423.980938838225029
 21
191.5853838789967085
 31
0.0
  0
ARC
  5
86E5
  8
0
 10
3423.7848176731249623
 20
191.5682160637907998
 30
0.0
 40
0.1968711387666461
 50
5.0027358956587156
 51
84.6850753759244554
  0
ARC
  5
86E6
  8
0
 10
3424.2751378089510581
 20
213.1346697208416003
 30
0.0
 40
21.3756426005422817
 50
258.4911820398772875
 51
268.7345120359969997
  0
ARC
  5
86E7
  8
0
 10
3422.5472684156820833
 20
203.8064844900015089
 30
0.0
 40
11.8914544992879794
 50
235.8103505320235911
 51
257.681600963608787
  0
ARC
  5
86E8
  8
0
 10
3420.403432155903829
 20
199.5025742727162879
 30
0.0
 40
7.224960390177241
 50
229.973449447079787
 51
249.9485076848422125
  0
ARC
  5
86E9
  8
0
 10
3422.970649523413158
 20
208.3150109983222933
 30
0.0
 40
16.3947848985874209
 50
252.0803351571576911
 51
259.5055618748468191
  0
LINE
  5
86EA
  8
0
 10
3414.133999187748941
 20
193.9700861658947986
 30
0.0
 11
3414.133999187748941
 21
194.0291412839947895
 31
0.0
  0
LINE
  5
86EB
  8
0
 10
3414.073469508126891
 20
194.0291408151948076
 30
0.0
 11
3414.0034693162501753
 21
196.8772146562187118
 31
0.0
  0
ARC
  5
86EC
  8
0
 10
3414.7417843418620578
 20
196.8745511710853009
 30
0.0
 40
0.7383198298825909
 50
167.2789249466933938
 51
179.7933053105587931
  0
ARC
  5
86ED
  8
0
 10
3414.2538328053910845
 20
196.9745589644894892
 30
0.0
 40
0.2405272016242834
 50
111.6373007626789047
 51
164.9208429030086052
  0
ARC
  5
86EF
  8
0
 10
3425.4893517706432249
 20
169.5251062706070115
 30
0.0
 40
21.0668240961969211
 50
90.1434394043204463
 51
92.3768140691726529
  0
ARC
  5
86F0
  8
0
 10
3424.6324219472230652
 20
190.9507711598899959
 30
0.0
 40
0.377336188666846
 50
213.4334604687576018
 51
267.4573955581133191
  0
ARC
  5
86F1
  8
0
 10
3423.4030741555861823
 20
193.773220975463488
 30
0.0
 40
0.1968719994890234
 50
7.3929583918201569
 51
89.5234698189172349
  0
ARC
  5
86F2
  8
0
 10
3440.3118021075501929
 20
195.6797848792610068
 30
0.0
 40
16.8190328447134405
 50
186.4220492268478893
 51
194.884787778767901
  0
ARC
  5
86F3
  8
0
 10
3426.0990802323990465
 20
191.8585517892992129
 30
0.0
 40
2.102066331170124
 50
193.7372263367182939
 51
212.0564379873268877
  0
ARC
  5
86F4
  8
0
 10
3423.6030022651711988
 20
192.5515049092024924
 30
0.0
 40
0.7679245933683829
 50
85.779902167768185
 51
96.7019550582321159
  0
ARC
  5
86F5
  8
0
 10
3423.8899645200340274
 20
357.198840778700287
 30
0.0
 40
163.885091424787305
 50
267.9278357005160842
 51
269.868343039345973
  0
ARC
  5
86F6
  8
0
 10
3418.1819494434312219
 20
197.1779053434769082
 30
0.0
 40
3.7632944190817801
 50
238.4732960081209114
 51
266.682531549693806
  0
ARC
  5
86F7
  8
0
 10
3423.7402340908070073
 20
192.197901507356903
 30
0.0
 40
0.2094624090489402
 50
68.4719886645752922
 51
93.2670305297598361
  0
ARC
  5
86F8
  8
0
 10
3422.2359245486759391
 20
218.5512384120185061
 30
0.0
 40
26.1867743153240617
 50
264.4875943136398746
 51
273.2670305297598929
  0
ARC
  5
86F9
  8
0
 10
3420.2527319387140778
 20
199.3102009119513127
 30
0.0
 40
6.8453647232289869
 50
244.9958671812144075
 51
265.5397857573868237
  0
LINE
  5
86FA
  8
0
 10
3414.1651432635499077
 20
197.1981378093948081
 30
0.0
 11
3436.7080792259498594
 21
197.1981378093948081
 31
0.0
  0
LINE
  5
86FB
  8
0
 10
3414.073469508126891
 20
194.0291408151948076
 30
0.0
 11
3436.7997529813719666
 21
194.0291408151948076
 31
0.0
  0
LINE
  5
86FC
  8
0
 10
3414.133999187748941
 20
193.9700861658947986
 30
0.0
 11
3436.7392233017499166
 21
193.9700861658947986
 31
0.0
  0
LINE
  5
86FD
  8
0
 10
3424.2784096268501344
 20
190.247678925494796
 30
0.0
 11
3426.5948128626500875
 21
190.247678925494796
 31
0.0
  0
ARC
  5
86FE
  8
0
 10
3426.5948128626500875
 20
190.4445302997802969
 30
0.0
 40
0.1968513742854441
 50
270.0
 51
354.9972641043412978
  0
LINE
  5
86FF
  8
0
 10
3426.7909143385609241
 20
190.4273642081026026
 30
0.0
 11
3426.8922836512738286
 21
191.5853838789967085
 31
0.0
  0
ARC
  5
8700
  8
0
 10
3427.0884048163748048
 20
191.5682160637907998
 30
0.0
 40
0.1968711387666461
 50
95.314924624075573
 51
174.9972641043412125
  0
ARC
  5
8701
  8
0
 10
3426.5980846805477995
 20
213.1346697208416003
 30
0.0
 40
21.3756426005422817
 50
271.2654879640030003
 51
281.5088179601227125
  0
ARC
  5
8702
  8
0
 10
3428.3259540738167743
 20
203.8064844900015089
 30
0.0
 40
11.8914544992879794
 50
282.318399036391213
 51
304.1896494679763805
  0
ARC
  5
8703
  8
0
 10
3430.4697903335959381
 20
199.5025742727162879
 30
0.0
 40
7.224960390177241
 50
290.0514923151577023
 51
310.0265505529201278
  0
ARC
  5
8704
  8
0
 10
3427.9025729660870638
 20
208.3150109983222933
 30
0.0
 40
16.3947848985874209
 50
280.494438125153124
 51
287.9196648428422804
  0
LINE
  5
8705
  8
0
 10
3436.7392233017499166
 20
193.9700861658947986
 30
0.0
 11
3436.7392233017499166
 21
194.0291412839947895
 31
0.0
  0
LINE
  5
8706
  8
0
 10
3436.7997529813719666
 20
194.0291408151948076
 30
0.0
 11
3436.8697531732500465
 21
196.8772146562187118
 31
0.0
  0
ARC
  5
8707
  8
0
 10
3436.1314381476381641
 20
196.8745511710853009
 30
0.0
 40
0.7383198298825909
 50
0.2066946894411451
 51
12.7210750533065795
  0
ARC
  5
8708
  8
0
 10
3436.6193896841077731
 20
196.9745589644894892
 30
0.0
 40
0.2405272016242834
 50
15.0791570969929793
 51
68.3626992373210527
  0
ARC
  5
870A
  8
0
 10
3426.2408005422757924
 20
190.9507711598899959
 30
0.0
 40
0.377336188666846
 50
272.5426044418866809
 51
326.5665395312424266
  0
ARC
  5
870B
  8
0
 10
3427.47014833391313
 20
193.773220975463488
 30
0.0
 40
0.1968719994890234
 50
90.4765301810827651
 51
172.6070416081797987
  0
ARC
  5
870C
  8
0
 10
3410.5614203819491195
 20
195.6797848792610068
 30
0.0
 40
16.8190328447134405
 50
345.1152122212321274
 51
353.5779507731521107
  0
ARC
  5
870D
  8
0
 10
3424.7741422570998111
 20
191.8585517892992129
 30
0.0
 40
2.102066331170124
 50
327.9435620126731123
 51
346.2627736632816209
  0
ARC
  5
870E
  8
0
 10
3427.270220224329023
 20
192.5515049092024924
 30
0.0
 40
0.7679245933683829
 50
83.2980449417678841
 51
94.220097832231815
  0
ARC
  5
870F
  8
0
 10
3426.9832579694661945
 20
357.198840778700287
 30
0.0
 40
163.885091424787305
 50
270.1316569606539133
 51
272.0721642994839158
  0
ARC
  5
8710
  8
0
 10
3432.691273046069
 20
197.1779053434769082
 30
0.0
 40
3.7632944190817801
 50
273.3174684503063077
 51
301.526703991879117
  0
ARC
  5
8711
  8
0
 10
3427.1329883986932145
 20
192.197901507356903
 30
0.0
 40
0.2094624090489402
 50
86.7329694702401639
 51
111.5280113354246936
  0
ARC
  5
8712
  8
0
 10
3428.6372979408229185
 20
218.5512384120185061
 30
0.0
 40
26.1867743153240617
 50
266.7329694702401071
 51
275.5124056863601254
  0
ARC
  5
8713
  8
0
 10
3430.6204905507847798
 20
199.3102009119513127
 30
0.0
 40
6.8453647232289869
 50
274.4602142426131763
 51
295.0041328187857061
  0
ARC
  5
8714
  8
0
 10
3425.3838707188560875
 20
169.5251062706070115
 30
0.0
 40
21.0668240961969211
 50
87.6231859308273755
 51
89.8565605956795537
  0
ENDSEC
  0
EOF
