  0
SECTION
  2
HEADER
  9
$ACADVER
  1
AC1009
  9
$INSBASE
 10
4765.363021674551419
 20
244.7369921268179951
 30
0.0
  9
$EXTMIN
 10
4764.2810216745519938
 20
234.3589921268180092
 30
0.0
  9
$EXTMAX
 10
4766.4450216745508442
 20
244.7369921268179951
 30
0.0
  9
$LIMMIN
 10
0.0
 20
0.0
  9
$LIMMAX
 10
11.6929133858000007
 20
8.2677165353999982
  9
$ORTHOMODE
 70
     1
  9
$REGENMODE
 70
     1
  9
$FILLMODE
 70
     1
  9
$QTEXTMODE
 70
     0
  9
$MIRRTEXT
 70
     0
  9
$DRAGMODE
 70
     2
  9
$LTSCALE
 40
0.6431102362
  9
$OSMODE
 70
  4095
  9
$ATTMODE
 70
     1
  9
$TEXTSIZE
 40
0.2
  9
$TRACEWID
 40
0.05
  9
$TEXTSTYLE
  7
STANDARD
  9
$CLAYER
  8
0
  9
$CELTYPE
  6
BYLAYER
  9
$CECOLOR
 62
   256
  9
$DIMSCALE
 40
1.0
  9
$DIMASZ
 40
0.1875
  9
$DIMEXO
 40
0.0625
  9
$DIMDLI
 40
0.4443307087
  9
$DIMRND
 40
0.0
  9
$DIMDLE
 40
0.0
  9
$DIMEXE
 40
0.125
  9
$DIMTP
 40
0.01
  9
$DIMTM
 40
0.01
  9
$DIMTXT
 40
2.0
  9
$DIMCEN
 40
0.1052362205
  9
$DIMTSZ
 40
0.0
  9
$DIMTOL
 70
     1
  9
$DIMLIM
 70
     0
  9
$DIMTIH
 70
     1
  9
$DIMTOH
 70
     1
  9
$DIMSE1
 70
     0
  9
$DIMSE2
 70
     0
  9
$DIMTAD
 70
     0
  9
$DIMZIN
 70
     0
  9
$DIMBLK
  1

  9
$DIMASO
 70
     1
  9
$DIMSHO
 70
     1
  9
$DIMPOST
  1
\X
  9
$DIMAPOST
  1

  9
$DIMALT
 70
     1
  9
$DIMALTD
 70
     2
  9
$DIMALTF
 40
25.3999999999999986
  9
$DIMLFAC
 40
1.0
  9
$DIMTOFL
 70
     0
  9
$DIMTVP
 40
0.0
  9
$DIMTIX
 70
     0
  9
$DIMSOXD
 70
     0
  9
$DIMSAH
 70
     0
  9
$DIMBLK1
  1

  9
$DIMBLK2
  1

  9
$DIMSTYLE
  2
STANDARD
  9
$DIMCLRD
 70
     0
  9
$DIMCLRE
 70
     0
  9
$DIMCLRT
 70
     0
  9
$DIMTFAC
 40
1.0
  9
$DIMGAP
 40
0.09
  9
$LUNITS
 70
     2
  9
$LUPREC
 70
     4
  9
$SKETCHINC
 40
0.1
  9
$FILLETRAD
 40
0.0
  9
$AUNITS
 70
     0
  9
$AUPREC
 70
     0
  9
$MENU
  1
.
  9
$ELEVATION
 40
0.0
  9
$PELEVATION
 40
0.0
  9
$THICKNESS
 40
0.0
  9
$LIMCHECK
 70
     0
  9
$BLIPMODE
 70
     0
  9
$CHAMFERA
 40
0.0
  9
$CHAMFERB
 40
0.0
  9
$SKPOLY
 70
     0
  9
$TDCREATE
 40
2458060.468368056230247
  9
$TDUPDATE
 40
2459245.8065972221083939
  9
$TDINDWG
 40
0.3570440972
  9
$TDUSRTIMER
 40
0.3570440972
  9
$USRTIMER
 70
     1
  9
$ANGBASE
 50
0.0
  9
$ANGDIR
 70
     0
  9
$PDMODE
 70
     0
  9
$PDSIZE
 40
0.3125
  9
$PLINEWID
 40
0.0
  9
$COORDS
 70
     1
  9
$SPLFRAME
 70
     0
  9
$SPLINETYPE
 70
     6
  9
$SPLINESEGS
 70
     8
  9
$ATTDIA
 70
     1
  9
$ATTREQ
 70
     1
  9
$HANDLING
 70
     1
  9
$HANDSEED
  5
CC9B
  9
$SURFTAB1
 70
     6
  9
$SURFTAB2
 70
     6
  9
$SURFTYPE
 70
     6
  9
$SURFU
 70
     6
  9
$SURFV
 70
     6
  9
$UCSNAME
  2

  9
$UCSORG
 10
0.0
 20
0.0
 30
0.0
  9
$UCSXDIR
 10
1.0
 20
0.0
 30
0.0
  9
$UCSYDIR
 10
0.0
 20
1.0
 30
0.0
  9
$PUCSNAME
  2

  9
$PUCSORG
 10
0.0
 20
0.0
 30
0.0
  9
$PUCSXDIR
 10
1.0
 20
0.0
 30
0.0
  9
$PUCSYDIR
 10
0.0
 20
1.0
 30
0.0
  9
$USERI1
 70
     0
  9
$USERI2
 70
     0
  9
$USERI3
 70
     0
  9
$USERI4
 70
     0
  9
$USERI5
 70
     0
  9
$USERR1
 40
0.0
  9
$USERR2
 40
0.0
  9
$USERR3
 40
0.0
  9
$USERR4
 40
0.0
  9
$USERR5
 40
0.0
  9
$WORLDVIEW
 70
     1
  9
$SHADEDGE
 70
     3
  9
$SHADEDIF
 70
    70
  9
$TILEMODE
 70
     1
  9
$MAXACTVP
 70
    64
  9
$PLIMCHECK
 70
     0
  9
$PEXTMIN
 10
1.0000000000000000E+20
 20
1.0000000000000000E+20
 30
1.0000000000000000E+20
  9
$PEXTMAX
 10
-1.0000000000000000E+20
 20
-1.0000000000000000E+20
 30
-1.0000000000000000E+20
  9
$PLIMMIN
 10
0.0
 20
0.0
  9
$PLIMMAX
 10
12.0
 20
9.0
  9
$UNITMODE
 70
     0
  9
$VISRETAIN
 70
     1
  9
$PLINEGEN
 70
     0
  9
$PSLTSCALE
 70
     1
  0
ENDSEC
  0
SECTION
  2
TABLES
  0
TABLE
  2
VPORT
 70
     1
  0
VPORT
  2
*ACTIVE
 70
     0
 10
0.0
 20
0.0
 11
1.0
 21
1.0
 12
0.0
 22
0.0
 13
0.0
 23
0.0
 14
1.0
 24
1.0
 15
0.0
 25
0.0
 16
0.0
 26
0.0
 36
30.0380682887618491
 17
4765.3630371093740905
 27
239.5479965209960938
 37
0.0
 40
10.6012849696675495
 41
2.1186252771618621
 42
50.0
 43
0.0
 44
0.0
 50
0.0
 51
0.0
 71
     0
 72
   100
 73
     1
 74
     1
 75
     0
 76
     0
 77
     0
 78
     0
  0
ENDTAB
  0
TABLE
  2
LTYPE
 70
     2
  0
LTYPE
  2
CONTINUOUS
 70
     0
  3
Solid line
 72
    65
 73
     0
 40
0.0
  0
LTYPE
  2
PHANTOM2
 70
     0
  3
___ _ _ ___ _ _ ___ _ _ ___ _ _
 72
    65
 73
     6
 40
1.25
 49
0.625
 49
-0.125
 49
0.125
 49
-0.125
 49
0.125
 49
-0.125
  0
ENDTAB
  0
TABLE
  2
LAYER
 70
     2
  0
LAYER
  2
0
 70
     0
 62
   255
  6
CONTINUOUS
  0
LAYER
  2
DEFPOINTS
 70
     0
 62
     7
  6
CONTINUOUS
  0
ENDTAB
  0
TABLE
  2
STYLE
 70
     1
  0
STYLE
  2
STANDARD
 70
     0
 40
0.0
 41
0.8
 50
0.0
 71
     0
 42
0.2
  3
txt
  4

  0
ENDTAB
  0
TABLE
  2
VIEW
 70
     0
  0
ENDTAB
  0
TABLE
  2
UCS
 70
     0
  0
ENDTAB
  0
TABLE
  2
APPID
 70
     9
  0
APPID
  2
ACAD
 70
     0
  0
APPID
  2
ACAD_MLEADERVER
 70
     0
  0
APPID
  2
ACAD_EXEMPT_FROM_CAD_STANDARDS
 70
     0
  0
APPID
  2
ACAD_NAV_VCDISPLAY
 70
     0
  0
APPID
  2
ACAECLAYERSTANDARD
 70
     0
  0
APPID
  2
ACCMTRANSPARENCY
 70
     0
  0
APPID
  2
ACAD_DSTYLE_DIMJAG
 70
     0
  0
APPID
  2
ACAD_DSTYLE_DIMTALN
 70
     0
  0
APPID
  2
ACDBATTR
 70
     0
  0
ENDTAB
  0
TABLE
  2
DIMSTYLE
 70
     1
  0
DIMSTYLE
  2
STANDARD
 70
     0
  3

  4

  5

  6

  7

 40
1.0
 41
0.1875
 42
0.0625
 43
0.38
 44
0.125
 45
0.0
 46
0.0
 47
0.01
 48
0.01
140
0.15625
141
0.09
142
0.0
143
25.3999999999999986
144
1.0
145
0.0
146
1.0
147
0.09
 71
     1
 72
     0
 73
     1
 74
     1
 75
     0
 76
     0
 77
     0
 78
     4
170
     0
171
     2
172
     0
173
     0
174
     0
175
     0
176
     0
177
     0
178
     0
  0
ENDTAB
  0
ENDSEC
  0
SECTION
  2
BLOCKS
  0
BLOCK
  8
0
  2
$MODEL_SPACE
 70
     0
 10
0.0
 20
0.0
 30
0.0
  3
$MODEL_SPACE
  1

  0
ENDBLK
  5
21
  8
0
  0
BLOCK
 67
     1
  8
0
  2
$PAPER_SPACE
 70
     0
 10
0.0
 20
0.0
 30
0.0
  3
$PAPER_SPACE
  1

  0
ENDBLK
  5
1D
 67
     1
  8
0
  0
ENDSEC
  0
SECTION
  2
ENTITIES
  0
ATTDEF
  5
3930
  8
DEFPOINTS
 10
4765.3574587847570001
 20
244.7349643130673087
 30
0.0
 40
0.001
  1
K-26321
  3

  2
MODELNUMBER
 70
     0
1001
ACDBATTR
1070
     0
1070
     1
  0
ATTDEF
  5
3931
  8
DEFPOINTS
 10
4765.3574587847570001
 20
244.7332976464005867
 30
0.0
 40
0.001
  1

  3

  2
TRADENAME
 70
     0
1001
ACDBATTR
1070
     0
1070
     1
  0
ATTDEF
  5
3932
  8
DEFPOINTS
 10
4765.3574587847570001
 20
244.7316309797340068
 30
0.0
 40
0.001
  1
SHOWER ARM
  3

  2
PRODUCT
 70
     0
1001
ACDBATTR
1070
     0
1070
     1
  0
LINE
  5
CB3A
  8
0
 10
4764.9688120663522568
 20
234.3589921268180092
 30
0.0
 11
4765.7388606649519716
 21
234.3589921268180092
 31
0.0
  0
LINE
  5
CB3B
  8
0
 10
4764.956771674551419
 20
234.4125557818180141
 30
0.0
 11
4765.0024789676517685
 21
234.386151598417996
 31
0.0
  0
LINE
  5
CB3C
  8
0
 10
4764.956771674551419
 20
234.5553421803180072
 30
0.0
 11
4765.0024932535507105
 21
234.5289234119179866
 31
0.0
  0
LINE
  5
CB3D
  8
0
 10
4764.956771674551419
 20
234.4839516082178932
 30
0.0
 11
4765.0024853114518919
 21
234.4575401541179929
 31
0.0
  0
LINE
  5
CB3E
  8
0
 10
4764.956771674551419
 20
234.6267505328179936
 30
0.0
 11
4765.0024965017519207
 21
234.600328249517986
 31
0.0
  0
LINE
  5
CB3F
  8
0
 10
4764.956771674551419
 20
234.6981421381179871
 30
0.0
 11
4765.0024716988518776
 21
234.6717576751179877
 31
0.0
  0
LINE
  5
CB40
  8
0
 10
4764.956771674551419
 20
234.7695507332180114
 30
0.0
 11
4765.0024847431523085
 21
234.7431520999180066
 31
0.0
  0
LINE
  5
CB41
  8
0
 10
4764.956771674551419
 20
234.8409560278180095
 30
0.0
 11
4765.002493068752301
 21
234.8145582955179975
 31
0.0
  0
LINE
  5
CB42
  8
0
 10
4765.769271674551419
 20
234.3874053972180036
 30
0.0
 11
4765.7233287862509314
 21
234.4139485907180074
 31
0.0
  0
LINE
  5
CB43
  8
0
 10
4765.769271674551419
 20
234.4588538714180004
 30
0.0
 11
4765.7233335092505513
 21
234.4853910892178988
 31
0.0
  0
LINE
  5
CB44
  8
0
 10
4765.769271674551419
 20
234.6016687903178877
 30
0.0
 11
4765.7235663976507567
 21
234.6280621046178965
 31
0.0
  0
LINE
  5
CB45
  8
0
 10
4765.769271674551419
 20
234.5301377917178911
 30
0.0
 11
4765.7233395270523033
 21
234.5566876279179951
 31
0.0
  0
LINE
  5
CB46
  8
0
 10
4765.769271674551419
 20
234.673069576417987
 30
0.0
 11
4765.7235674053508774
 21
234.6994528893179961
 31
0.0
  0
LINE
  5
CB47
  8
0
 10
4765.769271674551419
 20
234.7444593441180132
 30
0.0
 11
4765.7235516820519479
 21
234.7708546411180066
 31
0.0
  0
LINE
  5
CB48
  8
0
 10
4765.769271674551419
 20
234.8158614187179012
 30
0.0
 11
4765.7235550645518742
 21
234.8422615577179897
 31
0.0
  0
LINE
  5
CB49
  8
0
 10
4764.2810216745519938
 20
244.4032921268178882
 30
0.0
 11
4764.2810216745519938
 21
244.7369921268179951
 31
0.0
  0
LINE
  5
CB4A
  8
0
 10
4764.956771674551419
 20
234.4125557818180141
 30
0.0
 11
4764.956771674551419
 21
234.4230356781179978
 31
0.0
  0
LINE
  5
CB4B
  8
0
 10
4764.956771674551419
 20
234.4839516082178932
 30
0.0
 11
4764.956771674551419
 21
234.4944994607180035
 31
0.0
  0
LINE
  5
CB4C
  8
0
 10
4764.956771674551419
 20
234.5553421803180072
 30
0.0
 11
4764.956771674551419
 21
234.565961320017891
 31
0.0
  0
LINE
  5
CB4D
  8
0
 10
4764.956771674551419
 20
234.6267505328179936
 30
0.0
 11
4764.956771674551419
 21
234.6373722915178917
 31
0.0
  0
LINE
  5
CB4E
  8
0
 10
4764.956771674551419
 20
234.6981421381179871
 30
0.0
 11
4764.956771674551419
 21
234.7087638659178879
 31
0.0
  0
LINE
  5
CB4F
  8
0
 10
4764.956771674551419
 20
234.7695507332180114
 30
0.0
 11
4764.956771674551419
 21
234.7801583743180061
 31
0.0
  0
LINE
  5
CB50
  8
0
 10
4764.956771674551419
 20
234.8409560278180095
 30
0.0
 11
4764.956771674551419
 21
244.3432921268179996
 31
0.0
  0
LINE
  5
CB51
  8
0
 10
4765.0024716988518776
 20
234.6717576751179877
 30
0.0
 11
4765.002471698948284
 21
234.6640645230091877
 31
0.0
  0
LINE
  5
CB52
  8
0
 10
4765.0024789676517685
 20
234.386151598417996
 30
0.0
 11
4765.0024789676517685
 21
234.3784226833799949
 31
0.0
  0
LINE
  5
CB53
  8
0
 10
4765.0024847431523085
 20
234.7431520999180066
 30
0.0
 11
4765.0024847431523085
 21
234.7354630183504867
 31
0.0
  0
LINE
  5
CB54
  8
0
 10
4765.0024853114518919
 20
234.4575401541179929
 30
0.0
 11
4765.0024853114518919
 21
234.4497501093783001
 31
0.0
  0
LINE
  5
CB55
  8
0
 10
4765.002493068752301
 20
234.8145582955179975
 30
0.0
 11
4765.002493068752301
 21
234.8068698873622964
 31
0.0
  0
LINE
  5
CB56
  8
0
 10
4765.0024932535507105
 20
234.5289234119179866
 30
0.0
 11
4765.0024932535507105
 21
234.5212418719131904
 31
0.0
  0
LINE
  5
CB57
  8
0
 10
4765.0024965017519207
 20
234.600328249517986
 30
0.0
 11
4765.0024965017519207
 21
234.5926488095610978
 31
0.0
  0
LINE
  5
CB58
  8
0
 10
4765.7233287862509314
 20
234.4139485907180074
 30
0.0
 11
4765.7233287862509314
 21
234.4217392377179863
 31
0.0
  0
LINE
  5
CB59
  8
0
 10
4765.7233335092505513
 20
234.4853910892178988
 30
0.0
 11
4765.7233335093524147
 21
234.4931365088179973
 31
0.0
  0
LINE
  5
CB5A
  8
0
 10
4765.7233395270523033
 20
234.5566876279179951
 30
0.0
 11
4765.7233395272505732
 21
234.5645423227180117
 31
0.0
  0
LINE
  5
CB5B
  8
0
 10
4765.7235516820519479
 20
234.7708546411180066
 30
0.0
 11
4765.7235516820519479
 21
234.7788545629180135
 31
0.0
  0
LINE
  5
CB5C
  8
0
 10
4765.7235550645518742
 20
234.8422615577179897
 30
0.0
 11
4765.7235550645518742
 21
234.8502615296179954
 31
0.0
  0
LINE
  5
CB5D
  8
0
 10
4765.7235663976507567
 20
234.6280621046178965
 30
0.0
 11
4765.7235663976507567
 21
234.6360621046179915
 31
0.0
  0
LINE
  5
CB5E
  8
0
 10
4765.7235674053508774
 20
234.6994528893179961
 30
0.0
 11
4765.7235674054509218
 21
234.7074526178178928
 31
0.0
  0
LINE
  5
CB5F
  8
0
 10
4765.769271674551419
 20
234.3768520929179999
 30
0.0
 11
4765.769271674551419
 21
234.3874053972180036
 31
0.0
  0
LINE
  5
CB60
  8
0
 10
4765.769271674551419
 20
234.4482555875179912
 30
0.0
 11
4765.769271674551419
 21
234.4588538714180004
 31
0.0
  0
LINE
  5
CB61
  8
0
 10
4765.769271674551419
 20
234.51964585531789
 30
0.0
 11
4765.769271674551419
 21
234.5301377917178911
 31
0.0
  0
LINE
  5
CB62
  8
0
 10
4765.769271674551419
 20
234.5910446687180126
 30
0.0
 11
4765.769271674551419
 21
234.6016687903178877
 31
0.0
  0
LINE
  5
CB63
  8
0
 10
4765.769271674551419
 20
234.6624455153178985
 30
0.0
 11
4765.769271674551419
 21
234.673069576417987
 31
0.0
  0
LINE
  5
CB64
  8
0
 10
4765.769271674551419
 20
234.7338449850178961
 30
0.0
 11
4765.769271674551419
 21
234.7444593441180132
 31
0.0
  0
LINE
  5
CB65
  8
0
 10
4765.769271674551419
 20
234.8052551847179075
 30
0.0
 11
4765.769271674551419
 21
234.8158614187179012
 31
0.0
  0
LINE
  5
CB66
  8
0
 10
4765.002493068752301
 20
234.8068698873622964
 30
0.0
 11
4764.956771674551419
 21
234.7801583743180061
 31
0.0
  0
LINE
  5
CB67
  8
0
 10
4765.0024847431523085
 20
234.7354630183504867
 30
0.0
 11
4764.956771674551419
 21
234.7087638659178879
 31
0.0
  0
LINE
  5
CB68
  8
0
 10
4765.002471698948284
 20
234.6640645230091877
 30
0.0
 11
4764.956771674551419
 21
234.6373722915178917
 31
0.0
  0
LINE
  5
CB69
  8
0
 10
4765.0024965017519207
 20
234.5926488095610978
 30
0.0
 11
4764.956771674551419
 21
234.565961320017891
 31
0.0
  0
LINE
  5
CB6A
  8
0
 10
4765.0024853114518919
 20
234.4497501093783001
 30
0.0
 11
4764.956771674551419
 21
234.4230356781179978
 31
0.0
  0
LINE
  5
CB6B
  8
0
 10
4765.0024932535507105
 20
234.5212418719131904
 30
0.0
 11
4764.956771674551419
 21
234.4944994607180035
 31
0.0
  0
LINE
  5
CB6C
  8
0
 10
4765.7235550645518742
 20
234.8502615296179954
 30
0.0
 11
4765.769271674551419
 21
234.8763776940068055
 31
0.0
  0
LINE
  5
CB6D
  8
0
 10
4765.0024789676517685
 20
234.3784226833799949
 30
0.0
 11
4764.9688120663522568
 21
234.3589921268180092
 31
0.0
  0
LINE
  5
CB6E
  8
0
 10
4765.7235516820519479
 20
234.7788545629180135
 30
0.0
 11
4765.769271674551419
 21
234.8052551847179075
 31
0.0
  0
LINE
  5
CB6F
  8
0
 10
4765.7235674054509218
 20
234.7074526178178928
 30
0.0
 11
4765.769271674551419
 21
234.7338449850178961
 31
0.0
  0
LINE
  5
CB70
  8
0
 10
4765.7235663976507567
 20
234.6360621046179915
 30
0.0
 11
4765.769271674551419
 21
234.6624455153178985
 31
0.0
  0
LINE
  5
CB71
  8
0
 10
4765.7233395272505732
 20
234.5645423227180117
 30
0.0
 11
4765.769271674551419
 21
234.5910446687180126
 31
0.0
  0
LINE
  5
CB72
  8
0
 10
4764.341021674550575
 20
244.3432921268179996
 30
0.0
 11
4766.385021674552263
 21
244.3432921268179996
 31
0.0
  0
LINE
  5
CB73
  8
0
 10
4765.7233335093524147
 20
234.4931365088179973
 30
0.0
 11
4765.769271674551419
 21
234.51964585531789
 31
0.0
  0
LINE
  5
CB74
  8
0
 10
4765.7233287862509314
 20
234.4217392377179863
 30
0.0
 11
4765.769271674551419
 21
234.4482555875179912
 31
0.0
  0
LINE
  5
CB75
  8
0
 10
4765.7388606649519716
 20
234.3589921268180092
 30
0.0
 11
4765.769271674551419
 21
234.3768520929179999
 31
0.0
  0
LINE
  5
CB76
  8
0
 10
4766.4450216745508442
 20
244.7369921268179951
 30
0.0
 11
4764.2810216745519938
 21
244.7369921268179951
 31
0.0
  0
ARC
  5
CB77
  8
0
 10
4764.3457357739416693
 20
244.408006226208613
 30
0.0
 40
0.0648855715317363
 50
184.1663527452139988
 51
265.8336472547795779
  0
LINE
  5
CB78
  8
0
 10
4766.4450216745508442
 20
244.4032921268178882
 30
0.0
 11
4766.4450216745508442
 21
244.7369921268179951
 31
0.0
  0
LINE
  5
CB79
  8
0
 10
4765.769271674551419
 20
234.8763776940068055
 30
0.0
 11
4765.769271674551419
 21
244.3432921268179996
 31
0.0
  0
ARC
  5
CB7A
  8
0
 10
4766.3803075751602591
 20
244.408006226208613
 30
0.0
 40
0.0648855715317363
 50
274.1663527452204221
 51
355.8336472547860012
  0
LINE
  5
CB7B
  8
0
 10
4765.0024789676517685
 20
234.3822871408989954
 30
0.0
 11
4765.7233287862509314
 21
234.4178439142179968
 31
0.0
  0
LINE
  5
CB7C
  8
0
 10
4765.0024853114518919
 20
234.4536451317480896
 30
0.0
 11
4765.7233335093023925
 21
234.4892637990178912
 31
0.0
  0
LINE
  5
CB7D
  8
0
 10
4765.0024932535507105
 20
234.5250826419155885
 30
0.0
 11
4765.7233395271514382
 21
234.5606149753180034
 31
0.0
  0
LINE
  5
CB7E
  8
0
 10
4765.0024965017519207
 20
234.596488529539613
 30
0.0
 11
4765.7235663976507567
 21
234.6320621046178871
 31
0.0
  0
LINE
  5
CB7F
  8
0
 10
4765.0024716989000808
 20
234.6679110990635877
 30
0.0
 11
4765.7235674054018091
 21
234.7034527535678876
 31
0.0
  0
LINE
  5
CB80
  8
0
 10
4765.0024847431523085
 20
234.739307559134204
 30
0.0
 11
4765.7235516820519479
 21
234.7748546020179958
 31
0.0
  0
LINE
  5
CB81
  8
0
 10
4765.002493068752301
 20
234.8107140914401043
 30
0.0
 11
4765.7235550645518742
 21
234.8462615436679926
 31
0.0
  0
LINE
  5
CB82
  8
0
 10
4764.956771674551419
 20
234.4177957299679917
 30
0.0
 11
4765.769271674551419
 21
234.4535547294678963
 31
0.0
  0
LINE
  5
CB83
  8
0
 10
4764.956771674551419
 20
234.4892255344678915
 30
0.0
 11
4765.769271674551419
 21
234.5248918235180042
 31
0.0
  0
LINE
  5
CB84
  8
0
 10
4764.956771674551419
 20
234.5606517501678923
 30
0.0
 11
4765.769271674551419
 21
234.5963567295179075
 31
0.0
  0
LINE
  5
CB85
  8
0
 10
4764.956771674551419
 20
234.6320614121680137
 30
0.0
 11
4765.769271674551419
 21
234.6677575458679996
 31
0.0
  0
LINE
  5
CB86
  8
0
 10
4764.956771674551419
 20
234.7034530020179943
 30
0.0
 11
4765.769271674551419
 21
234.739152164567912
 31
0.0
  0
LINE
  5
CB87
  8
0
 10
4764.956771674551419
 20
234.7748545537679945
 30
0.0
 11
4765.769271674551419
 21
234.8105583017178901
 31
0.0
  0
ENDSEC
  0
EOF
